999
DXF file: C:\Users\sesa63760\Dev\_Creo\CAD\MCADID0001910_3D-CAD\drw0001_7.dxf
999
Pro/ENGINEER 2019471 by Parametric Technology Corporation
  0
SECTION
  2
HEADER
  9
$ACADVER
  1
AC1024
  9
$DWGCODEPAGE
  3
ANSI_1252
  9
$EXTMAX
 10
104.7867116936
 20
148.1983493952
 30
0.0
  9
$EXTMIN
 10
0.0
 20
0.0
 30
0.0
  9
$LIMMIN
 10
0.0
 20
0.0
  9
$LIMMAX
 10
104.7867116936
 20
148.1983493952
  9
$VIEWCTR
 10
52.3933558468
 20
74.0991746976
  9
$VIEWSIZE
 40
148.1983493952
  9
$CLAYER
  8
0
  9
$LTSCALE
 40
9.6603368495
  9
$CELTYPE
  6
BYLAYER
  9
$DIMSCALE
 40
1.0
  9
$DIMASZ
 40
1.2474608535
  9
$DIMEXO
 40
1.0
  9
$DIMDLI
 40
6.6744145505
  9
$DIMEXE
 40
1.0
  9
$DIMCEN
 40
1.5807823935
  9
$DIMLFAC
 40
1.0
  9
$DIMBLK
  1
_FILLED
  9
$DIMALT
 70
0
  9
$DIMALTF
 40
0.0393700787
  9
$DIMTXT
 40
1.7464451949
  9
$DIMTOL
 70
1
  9
$DIMLIM
 70
0
  9
$DIMTFAC
 40
1.0
  9
$DIMTP
 40
0.01
  9
$DIMTM
 40
0.01
  9
$DIMGAP
 40
0.625
  9
$DIMDSEP
 70
46
  9
$AUNITS
 70
0
  9
$PDMODE
 70
3
  9
$PDSIZE
 40
0.3125
  9
$HANDSEED
  5
6BA
  9
$TILEMODE
 70
1
  9
$MEASUREMENT
 70
1
  9
$INSUNITS
 70
4
  0
ENDSEC
  0
SECTION
  2
CLASSES
  0
CLASS
  1
ACDBDICTIONARYWDFLT
  2
AcDbDictionaryWithDefault
  3
AutoCAD 2000
 90
0
 91
1
280
0
281
0
  0
CLASS
  1
ACDBPLACEHOLDER
  2
AcDbPlaceHolder
  3
AutoCAD 2000
 90
0
 91
1
280
0
281
0
  0
CLASS
  1
LAYOUT
  2
AcDbLayout
  3
AutoCAD 2000
 90
0
 91
0
280
0
281
0
  0
ENDSEC
  0
SECTION
  2
TABLES
  0
TABLE
  2
VPORT
  5
8
100
AcDbSymbolTable
 70
2
  0
VPORT
  5
1F4
100
AcDbSymbolTableRecord
100
AcDbViewportTableRecord
  2
*ACTIVE
 70
0
 10
0.0
 20
0.0
 11
1.0
 21
1.0
 12
52.3933558468
 22
74.0991746976
 13
0.0
 23
0.0
 14
1.0
 24
1.0
 15
0.0
 25
0.0
 16
0.0
 26
0.0
 36
1.0
 17
0.0
 27
0.0
 37
0.0
 40
148.1983493952
 41
0.7070707071
 42
50.0
 43
0.0
 44
0.0
 50
0.0
 51
0.0
 71
0
 72
100
 73
1
 74
1
 75
0
 76
0
 77
0
 78
0
  0
ENDTAB
  0
TABLE
  2
LTYPE
  5
5
100
AcDbSymbolTable
 70
6
  0
LTYPE
  5
14
100
AcDbSymbolTableRecord
100
AcDbLinetypeTableRecord
  2
BYBLOCK
 70
0
  3

 72
65
 73
0
 40
0.0
  0
LTYPE
  5
15
100
AcDbSymbolTableRecord
100
AcDbLinetypeTableRecord
  2
BYLAYER
 70
0
  3

 72
65
 73
0
 40
0.0
  0
LTYPE
  5
16
100
AcDbSymbolTableRecord
100
AcDbLinetypeTableRecord
  2
CONTINUOUS
 70
64
  3
Solid line
 72
65
 73
0
 40
0.0
  0
LTYPE
  5
1F5
100
AcDbSymbolTableRecord
100
AcDbLinetypeTableRecord
  2
CENTER
 70
64
  3
____ _ ____ _ ____ _ ____ _ ____ _ ____ _ ____
 72
65
 73
4
 40
0.6
 49
0.375
 74
0
 49
-0.075
 74
0
 49
0.075
 74
0
 49
-0.075
 74
0
  0
LTYPE
  5
1F6
100
AcDbSymbolTableRecord
100
AcDbLinetypeTableRecord
  2
HIDDEN
 70
64
  3
- - - - - - - - - - - - - - - - - - - -
 72
65
 73
2
 40
0.2
 49
0.1
 74
0
 49
-0.1
 74
0
  0
LTYPE
  5
1F7
100
AcDbSymbolTableRecord
100
AcDbLinetypeTableRecord
  2
PHANTOM
 70
64
  3
_____ _ _ _____ _ _ _____ _ _ _____
 72
65
 73
6
 40
0.8
 49
0.45
 74
0
 49
-0.05
 74
0
 49
0.1
 74
0
 49
-0.05
 74
0
 49
0.1
 74
0
 49
-0.05
 74
0
  0
LTYPE
  5
1F8
100
AcDbSymbolTableRecord
100
AcDbLinetypeTableRecord
  2
DOT
 70
64
  3
. . . . . . . . . . . . . . . . . . . .
 72
65
 73
2
 40
0.2
 49
0.1
 74
0
 49
-0.1
 74
0
  0
LTYPE
  5
1F9
100
AcDbSymbolTableRecord
100
AcDbLinetypeTableRecord
  2
DASHED
 70
64
  3
- - - - - - - - - - - - - - - - - - - -
 72
65
 73
2
 40
0.2
 49
0.1
 74
0
 49
-0.1
 74
0
  0
ENDTAB
  0
TABLE
  2
LAYER
  5
2
100
AcDbSymbolTable
 70
36
  0
LAYER
  5
10
100
AcDbSymbolTableRecord
100
AcDbLayerTableRecord
  2
0
 70
0
 62
7
  6
CONTINUOUS
370
-3
390
F
  0
LAYER
  5
1FA
100
AcDbSymbolTableRecord
100
AcDbLayerTableRecord
  2
DEFAULT_1
 70
0
 62
7
  6
CENTER
370
-3
390
F
  0
LAYER
  5
1FB
100
AcDbSymbolTableRecord
100
AcDbLayerTableRecord
  2
DEFAULT_2
 70
0
 62
8
  6
HIDDEN
370
-3
390
F
  0
LAYER
  5
1FC
100
AcDbSymbolTableRecord
100
AcDbLayerTableRecord
  2
DEFAULT_3
 70
0
 62
7
  6
PHANTOM
370
-3
390
F
  0
LAYER
  5
1FD
100
AcDbSymbolTableRecord
100
AcDbLayerTableRecord
  2
00_COMPONENTS
 70
0
 62
7
  6
CONTINUOUS
370
-3
390
F
  0
LAYER
  5
1FE
100
AcDbSymbolTableRecord
100
AcDbLayerTableRecord
  2
01_1_DEFAULT_DATUMS
 70
0
 62
7
  6
CONTINUOUS
370
-3
390
F
  0
LAYER
  5
1FF
100
AcDbSymbolTableRecord
100
AcDbLayerTableRecord
  2
01_PLANES
 70
0
 62
7
  6
CONTINUOUS
370
-3
390
F
  0
LAYER
  5
200
100
AcDbSymbolTableRecord
100
AcDbLayerTableRecord
  2
02_COORD_SYS
 70
0
 62
7
  6
CONTINUOUS
370
-3
390
F
  0
LAYER
  5
201
100
AcDbSymbolTableRecord
100
AcDbLayerTableRecord
  2
03_AXES
 70
0
 62
7
  6
CONTINUOUS
370
-3
390
F
  0
LAYER
  5
202
100
AcDbSymbolTableRecord
100
AcDbLayerTableRecord
  2
04_POINTS
 70
0
 62
7
  6
CONTINUOUS
370
-3
390
F
  0
LAYER
  5
203
100
AcDbSymbolTableRecord
100
AcDbLayerTableRecord
  2
05_CURVES
 70
0
 62
7
  6
CONTINUOUS
370
-3
390
F
  0
LAYER
  5
204
100
AcDbSymbolTableRecord
100
AcDbLayerTableRecord
  2
06_SURFS
 70
0
 62
7
  6
CONTINUOUS
370
-3
390
F
  0
LAYER
  5
205
100
AcDbSymbolTableRecord
100
AcDbLayerTableRecord
  2
07_COSMETICS
 70
0
 62
7
  6
CONTINUOUS
370
-3
390
F
  0
LAYER
  5
206
100
AcDbSymbolTableRecord
100
AcDbLayerTableRecord
  2
10_NOTES
 70
0
 62
7
  6
CONTINUOUS
370
-3
390
F
  0
LAYER
  5
207
100
AcDbSymbolTableRecord
100
AcDbLayerTableRecord
  2
11_NOTES_PUB
 70
0
 62
7
  6
CONTINUOUS
370
-3
390
F
  0
LAYER
  5
208
100
AcDbSymbolTableRecord
100
AcDbLayerTableRecord
  2
13_REF_GTOL
 70
0
 62
7
  6
CONTINUOUS
370
-3
390
F
  0
LAYER
  5
209
100
AcDbSymbolTableRecord
100
AcDbLayerTableRecord
  2
16_MISC
 70
0
 62
7
  6
CONTINUOUS
370
-3
390
F
  0
LAYER
  5
20A
100
AcDbSymbolTableRecord
100
AcDbLayerTableRecord
  2
17_NO_PRINT
 70
0
 62
7
  6
CONTINUOUS
370
-3
390
F
  0
LAYER
  5
20B
100
AcDbSymbolTableRecord
100
AcDbLayerTableRecord
  2
18_DATUM_CAMS_JOINTS
 70
0
 62
7
  6
CONTINUOUS
370
-3
390
F
  0
LAYER
  5
20C
100
AcDbSymbolTableRecord
100
AcDbLayerTableRecord
  2
19_DATUM_FUNCTIONAL
 70
0
 62
7
  6
CONTINUOUS
370
-3
390
F
  0
LAYER
  5
20D
100
AcDbSymbolTableRecord
100
AcDbLayerTableRecord
  2
20_DATUM_KINEMATIC_SCHEME
 70
0
 62
7
  6
CONTINUOUS
370
-3
390
F
  0
ENDTAB
  0
TABLE
  2
STYLE
  5
3
100
AcDbSymbolTable
 70
1
  0
STYLE
  5
11
100
AcDbSymbolTableRecord
100
AcDbTextStyleTableRecord
  2
STANDARD
 70
0
 40
0.0
 41
0.8
 50
0.0
 71
0
 42
0.2
  3
txt
  4

  0
STYLE
  5
20E
100
AcDbSymbolTableRecord
100
AcDbTextStyleTableRecord
  2
TEXTSTYLE_1
 70
0
 40
0.0
 41
0.8
 50
0.0
 71
0
 42
0.2
  3
gdt
  4

  0
ENDTAB
  0
TABLE
  2
VIEW
  5
6
100
AcDbSymbolTable
 70
0
  0
ENDTAB
  0
TABLE
  2
UCS
  5
7
100
AcDbSymbolTable
 70
0
  0
ENDTAB
  0
TABLE
  2
APPID
  5
9
100
AcDbSymbolTable
 70
1
  0
APPID
  5
20F
100
AcDbSymbolTableRecord
100
AcDbRegAppTableRecord
  2
ACAD
 70
0
  0
ENDTAB
  0
TABLE
  2
BLOCK_RECORD
  5
1
100
AcDbSymbolTable
 70
0
  0
BLOCK_RECORD
  5
210
100
AcDbSymbolTableRecord
100
AcDbBlockTableRecord
  2
*Model_Space
  0
BLOCK_RECORD
  5
211
100
AcDbSymbolTableRecord
100
AcDbBlockTableRecord
  2
*Paper_Space
  0
BLOCK_RECORD
  5
212
100
AcDbSymbolTableRecord
100
AcDbBlockTableRecord
  2
_FILLED
  0
ENDTAB
  0
TABLE
  2
DIMSTYLE
  5
A
100
AcDbSymbolTable
 70
1
100
AcDbDimStyleTable
 71
0
  0
DIMSTYLE
105
213
100
AcDbSymbolTableRecord
100
AcDbDimStyleTableRecord
  2
STANDARD
 70
0
  3

  4

 40
1.0
 41
1.2474608535
 42
1.0
 43
0.38
 44
1.0
 45
0.0
 46
0.0
 47
0.01
 48
0.01
140
1.7464451949
141
0.09
142
0.0
143
25.4
144
1.0
145
0.0
146
1.0
147
0.625
 71
1
 72
0
 73
0
 74
0
 75
0
 76
0
 77
1
 78
8
 79
2
170
0
171
1
172
0
173
0
174
0
175
0
176
0
177
0
178
0
270
2
179
2
271
2
272
2
273
2
274
2
275
0
280
0
281
0
282
0
283
1
284
8
285
0
286
0
287
3
288
0
340
11
278
46
341
212
342
212
343
212
344
212
  0
ENDTAB
  0
ENDSEC
  0
SECTION
  2
BLOCKS
  0
BLOCK
  5
20
100
AcDbEntity
  8
0
100
AcDbBlockBegin
  2
*Model_Space
 70
0
 10
0.0
 20
0.0
 30
0.0
  3
*Model_Space
  1

  0
ENDBLK
  5
21
100
AcDbEntity
  8
0
100
AcDbBlockEnd
  0
BLOCK
  5
1C
100
AcDbEntity
  8
0
100
AcDbBlockBegin
  2
*Paper_Space
 70
0
 10
0.0
 20
0.0
 30
0.0
  3
*Paper_Space
  1

  0
ENDBLK
  5
1D
100
AcDbEntity
  8
0
100
AcDbBlockEnd
  0
BLOCK
  5
214
100
AcDbEntity
  8
0
100
AcDbBlockBegin
  2
_FILLED
 70
64
 10
0.0
 20
0.0
  3
_FILLED
  1

  0
SOLID
  5
215
100
AcDbEntity
  8
0
  6
BYBLOCK
 62
0
100
AcDbTrace
 10
0.0
 20
0.0
 11
-1.0
 21
0.25
 12
-1.0
 22
-0.25
 13
-1.0
 23
-0.25
  0
ENDBLK
  5
216
100
AcDbEntity
  8
0
  6
BYBLOCK
 62
0
100
AcDbBlockEnd
  0
ENDSEC
  0
SECTION
  2
ENTITIES
  0
LINE
  5
217
100
AcDbEntity
  8
0
100
AcDbLine
 62
7
  6
CONTINUOUS
 10
11.1263736736
 20
77.6619610968
 11
11.1263738017
 21
71.0619612645
  0
LINE
  5
218
100
AcDbEntity
  8
0
100
AcDbLine
 62
7
  6
CONTINUOUS
 10
13.1263721636
 20
69.2478538237
 11
13.1263734134
 21
67.3619620043
  0
LINE
  5
219
100
AcDbEntity
  8
0
100
AcDbLine
 62
7
  6
CONTINUOUS
 10
13.1263737152
 20
81.3619618533
 11
13.1263737344
 21
79.4760682914
  0
LINE
  5
21A
100
AcDbEntity
  8
0
100
AcDbLine
 62
7
  6
CONTINUOUS
 10
14.1263736497
 20
77.8619606766
 11
14.1263736497
 21
76.3619611575
  0
LINE
  5
21B
100
AcDbEntity
  8
0
100
AcDbLine
 62
7
  6
CONTINUOUS
 10
14.1263736497
 20
72.3619611396
 11
14.1263736497
 21
70.8619616164
  0
LINE
  5
21C
100
AcDbEntity
  8
0
100
AcDbLine
 62
7
  6
CONTINUOUS
 10
15.0231247406
 20
61.3119613546
 11
15.0231247406
 21
87.6119613546
  0
LINE
  5
21D
100
AcDbEntity
  8
0
100
AcDbLine
 62
7
  6
CONTINUOUS
 10
15.5731247406
 20
86.2619613546
 11
15.5731247406
 21
86.0619613546
  0
LINE
  5
21E
100
AcDbEntity
  8
0
100
AcDbLine
 62
7
  6
CONTINUOUS
 10
15.5731247406
 20
62.6619613546
 11
15.5731247406
 21
62.8619613546
  0
LINE
  5
21F
100
AcDbEntity
  8
0
100
AcDbLine
 62
7
  6
CONTINUOUS
 10
16.2731247406
 20
62.6619613546
 11
16.2731247406
 21
62.8619613546
  0
LINE
  5
220
100
AcDbEntity
  8
0
100
AcDbLine
 62
7
  6
CONTINUOUS
 10
16.2731247406
 20
86.0619613546
 11
16.2731247406
 21
86.2619613546
  0
LINE
  5
221
100
AcDbEntity
  8
0
100
AcDbLine
 62
7
  6
CONTINUOUS
 10
16.3731247406
 20
86.2619613546
 11
16.3731247406
 21
86.0619613546
  0
LINE
  5
222
100
AcDbEntity
  8
0
100
AcDbLine
 62
7
  6
CONTINUOUS
 10
16.3731247406
 20
62.8619613546
 11
16.3731247406
 21
62.6619613546
  0
LINE
  5
223
100
AcDbEntity
  8
0
100
AcDbLine
 62
7
  6
CONTINUOUS
 10
17.0731247406
 20
86.2619613546
 11
17.0731247406
 21
86.0619613546
  0
LINE
  5
224
100
AcDbEntity
  8
0
100
AcDbLine
 62
7
  6
CONTINUOUS
 10
17.0731247406
 20
62.6619613546
 11
17.0731247406
 21
62.8619613546
  0
LINE
  5
225
100
AcDbEntity
  8
0
100
AcDbLine
 62
7
  6
CONTINUOUS
 10
17.5231247406
 20
61.3119613546
 11
17.5231247406
 21
66.8619613546
  0
LINE
  5
226
100
AcDbEntity
  8
0
100
AcDbLine
 62
7
  6
CONTINUOUS
 10
17.5231247406
 20
82.0619613546
 11
17.5231247406
 21
87.6119613546
  0
LINE
  5
227
100
AcDbEntity
  8
0
100
AcDbLine
 62
7
  6
CONTINUOUS
 10
20.7231247406
 20
85.5619613546
 11
20.7231247406
 21
84.4619613546
  0
LINE
  5
228
100
AcDbEntity
  8
0
100
AcDbLine
 62
7
  6
CONTINUOUS
 10
20.7231247406
 20
83.4619613546
 11
20.7231247406
 21
82.3619613546
  0
LINE
  5
229
100
AcDbEntity
  8
0
100
AcDbLine
 62
7
  6
CONTINUOUS
 10
20.7231247406
 20
66.3619613546
 11
20.7231247406
 21
65.2619613546
  0
LINE
  5
22A
100
AcDbEntity
  8
0
100
AcDbLine
 62
7
  6
CONTINUOUS
 10
20.7231247406
 20
64.2619613546
 11
20.7231247406
 21
63.1619613546
  0
LINE
  5
22B
100
AcDbEntity
  8
0
100
AcDbLine
 62
7
  6
CONTINUOUS
 10
14.1263801589
 20
82.3619674731
 11
13.1263737152
 21
81.3619618533
  0
LINE
  5
22C
100
AcDbEntity
  8
0
100
AcDbLine
 62
7
  6
CONTINUOUS
 10
13.1263734134
 20
67.3619620043
 11
14.1263742093
 21
66.3619618408
  0
LINE
  5
22D
100
AcDbEntity
  8
0
100
AcDbLine
 62
7
  6
CONTINUOUS
 10
21.5231247406
 20
63.1619613546
 11
21.5231247406
 21
64.2619613546
  0
LINE
  5
22E
100
AcDbEntity
  8
0
100
AcDbLine
 62
7
  6
CONTINUOUS
 10
21.5231247406
 20
65.2619613546
 11
21.5231247406
 21
66.3619613546
  0
LINE
  5
22F
100
AcDbEntity
  8
0
100
AcDbLine
 62
7
  6
CONTINUOUS
 10
21.5231247406
 20
82.3619613546
 11
21.5231247406
 21
83.4619613546
  0
LINE
  5
230
100
AcDbEntity
  8
0
100
AcDbLine
 62
7
  6
CONTINUOUS
 10
21.5231247406
 20
84.4619613546
 11
21.5231247406
 21
85.5619613546
  0
LINE
  5
231
100
AcDbEntity
  8
0
100
AcDbLine
 62
7
  6
CONTINUOUS
 10
13.1263737344
 20
79.4760682914
 11
11.1263736736
 21
77.6619610968
  0
LINE
  5
232
100
AcDbEntity
  8
0
100
AcDbLine
 62
7
  6
CONTINUOUS
 10
11.1263738017
 20
71.0619612645
 11
13.1263721636
 21
69.2478538237
  0
LINE
  5
233
100
AcDbEntity
  8
0
100
AcDbLine
 62
7
  6
CONTINUOUS
 10
27.4731247406
 20
73.4079649718
 11
27.4731247406
 21
72.6079649718
  0
LINE
  5
234
100
AcDbEntity
  8
0
100
AcDbLine
 62
7
  6
CONTINUOUS
 10
27.5281428303
 20
73.1119613546
 11
27.5281428303
 21
72.7119613546
  0
LINE
  5
235
100
AcDbEntity
  8
0
100
AcDbLine
 62
7
  6
CONTINUOUS
 10
27.6781428303
 20
73.1119613546
 11
27.6781428303
 21
72.7119613546
  0
LINE
  5
236
100
AcDbEntity
  8
0
100
AcDbLine
 62
7
  6
CONTINUOUS
 10
27.8781428303
 20
72.7119613546
 11
27.8781428303
 21
73.1119613546
  0
LINE
  5
237
100
AcDbEntity
  8
0
100
AcDbLine
 62
7
  6
CONTINUOUS
 10
28.4031428303
 20
72.7119613546
 11
28.4031428303
 21
72.6079649718
  0
LINE
  5
238
100
AcDbEntity
  8
0
100
AcDbLine
 62
7
  6
CONTINUOUS
 10
28.7231247406
 20
72.6079649718
 11
28.7231247406
 21
71.0119613546
  0
LINE
  5
239
100
AcDbEntity
  8
0
100
AcDbLine
 62
7
  6
CONTINUOUS
 10
29.0781428303
 20
73.1119613546
 11
29.0781428303
 21
72.7119613546
  0
LINE
  5
23A
100
AcDbEntity
  8
0
100
AcDbLine
 62
7
  6
CONTINUOUS
 10
29.2781428303
 20
72.7119613546
 11
29.2781428303
 21
73.1119613546
  0
LINE
  5
23B
100
AcDbEntity
  8
0
100
AcDbLine
 62
7
  6
CONTINUOUS
 10
29.4281428303
 20
73.1119613546
 11
29.4281428303
 21
72.7119613546
  0
LINE
  5
23C
100
AcDbEntity
  8
0
100
AcDbLine
 62
7
  6
CONTINUOUS
 10
29.4731247406
 20
72.6079649718
 11
29.4731247406
 21
73.4079649718
  0
LINE
  5
23D
100
AcDbEntity
  8
0
100
AcDbLine
 62
7
  6
CONTINUOUS
 10
29.5231428303
 20
71.0119613546
 11
29.5231428303
 21
72.6079649718
  0
LINE
  5
23E
100
AcDbEntity
  8
0
100
AcDbLine
 62
7
  6
CONTINUOUS
 10
31.5231428303
 20
72.6079649718
 11
31.5231428303
 21
71.0119613546
  0
LINE
  5
23F
100
AcDbEntity
  8
0
100
AcDbLine
 62
7
  6
CONTINUOUS
 10
31.6231247406
 20
78.7119613546
 11
31.6231247406
 21
77.9119613546
  0
LINE
  5
240
100
AcDbEntity
  8
0
100
AcDbLine
 62
7
  6
CONTINUOUS
 10
31.6231247406
 20
71.0119613546
 11
31.6231247406
 21
70.3119613546
  0
LINE
  5
241
100
AcDbEntity
  8
0
100
AcDbLine
 62
7
  6
CONTINUOUS
 10
31.6731428303
 20
70.7119613546
 11
31.6731428303
 21
70.3119613546
  0
LINE
  5
242
100
AcDbEntity
  8
0
100
AcDbLine
 62
7
  6
CONTINUOUS
 10
31.6731428303
 20
78.0119613546
 11
31.6731428303
 21
78.7119613546
  0
LINE
  5
243
100
AcDbEntity
  8
0
100
AcDbLine
 62
7
  6
CONTINUOUS
 10
31.8231428303
 20
78.4119613546
 11
31.8231428303
 21
78.0119613546
  0
LINE
  5
244
100
AcDbEntity
  8
0
100
AcDbLine
 62
7
  6
CONTINUOUS
 10
31.8231428303
 20
70.7119613546
 11
31.8231428303
 21
70.3119613546
  0
LINE
  5
245
100
AcDbEntity
  8
0
100
AcDbLine
 62
7
  6
CONTINUOUS
 10
32.0231247406
 20
75.6119613546
 11
32.0231247406
 21
73.7296528083
  0
LINE
  5
246
100
AcDbEntity
  8
0
100
AcDbLine
 62
7
  6
CONTINUOUS
 10
32.0231428303
 20
70.3119613546
 11
32.0231428303
 21
70.7119613546
  0
LINE
  5
247
100
AcDbEntity
  8
0
100
AcDbLine
 62
7
  6
CONTINUOUS
 10
32.0231428303
 20
78.0119613546
 11
32.0231428303
 21
78.4119613546
  0
LINE
  5
248
100
AcDbEntity
  8
0
100
AcDbLine
 62
7
  6
CONTINUOUS
 10
32.3731247406
 20
70.9119613546
 11
32.3731247406
 21
72.6079649718
  0
LINE
  5
249
100
AcDbEntity
  8
0
100
AcDbLine
 62
7
  6
CONTINUOUS
 10
32.6231247406
 20
70.9119613546
 11
32.6231247406
 21
70.7119613546
  0
LINE
  5
24A
100
AcDbEntity
  8
0
100
AcDbLine
 62
7
  6
CONTINUOUS
 10
29.5231247406
 20
74.8266183197
 11
29.4231247406
 21
74.653413239
  0
LINE
  5
24B
100
AcDbEntity
  8
0
100
AcDbLine
 62
7
  6
CONTINUOUS
 10
27.5231247406
 20
71.3625167046
 11
27.4231247406
 21
71.1893116238
  0
LINE
  5
24C
100
AcDbEntity
  8
0
100
AcDbLine
 62
7
  6
CONTINUOUS
 10
33.2231428303
 20
78.4119613546
 11
33.2231428303
 21
78.0119613546
  0
LINE
  5
24D
100
AcDbEntity
  8
0
100
AcDbLine
 62
7
  6
CONTINUOUS
 10
33.2231428303
 20
70.7119613546
 11
33.2231428303
 21
70.3119613546
  0
LINE
  5
24E
100
AcDbEntity
  8
0
100
AcDbLine
 62
7
  6
CONTINUOUS
 10
33.4231428303
 20
70.3119613546
 11
33.4231428303
 21
70.7119613546
  0
LINE
  5
24F
100
AcDbEntity
  8
0
100
AcDbLine
 62
7
  6
CONTINUOUS
 10
33.4231428303
 20
78.0119613546
 11
33.4231428303
 21
78.4119613546
  0
LINE
  5
250
100
AcDbEntity
  8
0
100
AcDbLine
 62
7
  6
CONTINUOUS
 10
33.5731428303
 20
70.7119613546
 11
33.5731428303
 21
70.3119613546
  0
LINE
  5
251
100
AcDbEntity
  8
0
100
AcDbLine
 62
7
  6
CONTINUOUS
 10
33.5731428303
 20
78.0119613546
 11
33.5731428303
 21
78.7119613546
  0
LINE
  5
252
100
AcDbEntity
  8
0
100
AcDbLine
 62
7
  6
CONTINUOUS
 10
33.6231247406
 20
70.3119613546
 11
33.6231247406
 21
70.9119613546
  0
LINE
  5
253
100
AcDbEntity
  8
0
100
AcDbLine
 62
7
  6
CONTINUOUS
 10
33.6231247406
 20
77.9119613546
 11
33.6231247406
 21
78.7119613546
  0
LINE
  5
254
100
AcDbEntity
  8
0
100
AcDbLine
 62
7
  6
CONTINUOUS
 10
35.1242984229
 20
86.3117269796
 11
35.1242984229
 21
85.1119613546
  0
LINE
  5
255
100
AcDbEntity
  8
0
100
AcDbLine
 62
7
  6
CONTINUOUS
 10
37.2306148058
 20
87.4045590271
 11
36.8097877219
 21
86.4265298155
  0
LINE
  5
256
100
AcDbEntity
  8
0
100
AcDbLine
 62
7
  6
CONTINUOUS
 10
36.8097877219
 20
62.5018974253
 11
37.2323187943
 21
61.5279905256
  0
LINE
  5
257
100
AcDbEntity
  8
0
100
AcDbLine
 62
7
  6
CONTINUOUS
 10
36.7566931888
 20
87.6119613546
 11
36.7566931888
 21
87.3019613546
  0
LINE
  5
258
100
AcDbEntity
  8
0
100
AcDbLine
 62
7
  6
CONTINUOUS
 10
36.7566931888
 20
61.3119613546
 11
36.7566931888
 21
61.6219613546
  0
LINE
  5
259
100
AcDbEntity
  8
0
100
AcDbLine
 62
7
  6
CONTINUOUS
 10
36.8097877219
 20
86.4265298155
 11
36.8097877219
 21
85.4264469478
  0
LINE
  5
25A
100
AcDbEntity
  8
0
100
AcDbLine
 62
7
  6
CONTINUOUS
 10
36.8097877219
 20
62.5018974253
 11
36.8097877219
 21
63.5060133731
  0
LINE
  5
25B
100
AcDbEntity
  8
0
100
AcDbLine
 62
7
  6
CONTINUOUS
 10
36.9202314946
 20
84.2131858067
 11
36.9202314946
 21
64.7107902172
  0
LINE
  5
25C
100
AcDbEntity
  8
0
100
AcDbLine
 62
7
  6
CONTINUOUS
 10
37.0742106004
 20
76.2662301605
 11
37.0742106004
 21
72.6662301605
  0
LINE
  5
25D
100
AcDbEntity
  8
0
100
AcDbLine
 62
7
  6
CONTINUOUS
 10
37.1202010333
 20
64.7107898495
 11
37.1202010333
 21
72.6662301605
  0
LINE
  5
25E
100
AcDbEntity
  8
0
100
AcDbLine
 62
7
  6
CONTINUOUS
 10
37.1202010333
 20
76.2662301605
 11
37.1202010333
 21
84.2131861744
  0
LINE
  5
25F
100
AcDbEntity
  8
0
100
AcDbLine
 62
7
  6
CONTINUOUS
 10
37.6201248809
 20
64.0108964631
 11
37.6201248809
 21
64.210866002
  0
LINE
  5
260
100
AcDbEntity
  8
0
100
AcDbLine
 62
7
  6
CONTINUOUS
 10
37.6201248809
 20
84.713110022
 11
37.6201248809
 21
84.9130795607
  0
LINE
  5
261
100
AcDbEntity
  8
0
100
AcDbLine
 62
7
  6
CONTINUOUS
 10
37.7091855793
 20
72.6662301605
 11
37.7091855793
 21
76.2662301605
  0
LINE
  5
262
100
AcDbEntity
  8
0
100
AcDbLine
 62
7
  6
CONTINUOUS
 10
38.0231247406
 20
87.6119613546
 11
38.0231247406
 21
87.4320597509
  0
LINE
  5
263
100
AcDbEntity
  8
0
100
AcDbLine
 62
7
  6
CONTINUOUS
 10
38.0231247406
 20
61.3119613546
 11
38.0231247406
 21
61.5005489315
  0
LINE
  5
264
100
AcDbEntity
  8
0
100
AcDbLine
 62
7
  6
CONTINUOUS
 10
36.8712963877
 20
64.6618778857
 11
36.8712963862
 21
84.2620981619
  0
LINE
  5
265
100
AcDbEntity
  8
0
100
AcDbLine
 62
7
  6
CONTINUOUS
 10
31.5731247406
 20
68.7933080067
 11
31.6731247406
 21
68.9665130875
  0
LINE
  5
266
100
AcDbEntity
  8
0
100
AcDbLine
 62
7
  6
CONTINUOUS
 10
33.5731247406
 20
72.2574096218
 11
33.6731247406
 21
72.4306147026
  0
LINE
  5
267
100
AcDbEntity
  8
0
100
AcDbLine
 62
7
  6
CONTINUOUS
 10
31.5731247406
 20
68.7933080067
 11
27.4231247406
 21
71.1893116238
  0
LINE
  5
268
100
AcDbEntity
  8
0
100
AcDbLine
 62
7
  6
CONTINUOUS
 10
31.6731247406
 20
68.9665130875
 11
27.5231247406
 21
71.3625167046
  0
LINE
  5
269
100
AcDbEntity
  8
0
100
AcDbLine
 62
7
  6
CONTINUOUS
 10
40.6748330476
 20
71.8162301605
 11
40.6431169719
 21
72.5153642106
  0
LINE
  5
26A
100
AcDbEntity
  8
0
100
AcDbLine
 62
7
  6
CONTINUOUS
 10
40.643116802
 20
84.715368001
 11
40.6748330476
 21
84.0162301605
  0
LINE
  5
26B
100
AcDbEntity
  8
0
100
AcDbLine
 62
7
  6
CONTINUOUS
 10
39.4212915684
 20
80.1089306316
 11
39.4169792005
 21
80.501988012
  0
LINE
  5
26C
100
AcDbEntity
  8
0
100
AcDbLine
 62
7
  6
CONTINUOUS
 10
39.4017071819
 20
71.3032517634
 11
39.4017071819
 21
72.6662301605
  0
LINE
  5
26D
100
AcDbEntity
  8
0
100
AcDbLine
 62
7
  6
CONTINUOUS
 10
39.4017071819
 20
76.2662301605
 11
39.4017071819
 21
83.6207242428
  0
LINE
  5
26E
100
AcDbEntity
  8
0
100
AcDbLine
 62
7
  6
CONTINUOUS
 10
39.4169792005
 20
80.961988012
 11
39.4169792005
 21
80.501988012
  0
LINE
  5
26F
100
AcDbEntity
  8
0
100
AcDbLine
 62
7
  6
CONTINUOUS
 10
39.4278877853
 20
80.1089300358
 11
39.4278877853
 21
78.5770778821
  0
LINE
  5
270
100
AcDbEntity
  8
0
100
AcDbLine
 62
7
  6
CONTINUOUS
 10
39.4278877853
 20
77.1468981418
 11
39.4278877853
 21
76.2662301605
  0
LINE
  5
271
100
AcDbEntity
  8
0
100
AcDbLine
 62
7
  6
CONTINUOUS
 10
39.5162071819
 20
83.2207148798
 11
39.5162071819
 21
76.2662301605
  0
LINE
  5
272
100
AcDbEntity
  8
0
100
AcDbLine
 62
7
  6
CONTINUOUS
 10
39.5162071819
 20
72.6662301605
 11
39.5162071819
 21
72.5207148798
  0
LINE
  5
273
100
AcDbEntity
  8
0
100
AcDbLine
 62
7
  6
CONTINUOUS
 10
39.7378876595
 20
87.2732622149
 11
39.7378876595
 21
85.2731129431
  0
LINE
  5
274
100
AcDbEntity
  8
0
100
AcDbLine
 62
7
  6
CONTINUOUS
 10
39.7378876595
 20
61.659198106
 11
39.7378876595
 21
63.6593473779
  0
LINE
  5
275
100
AcDbEntity
  8
0
100
AcDbLine
 62
7
  6
CONTINUOUS
 10
40.0200419135
 20
66.7706958413
 11
40.0200419135
 21
69.7620070504
  0
LINE
  5
276
100
AcDbEntity
  8
0
100
AcDbLine
 62
7
  6
CONTINUOUS
 10
40.1231247406
 20
66.5119613546
 11
40.1231247406
 21
70.0119613547
  0
LINE
  5
277
100
AcDbEntity
  8
0
100
AcDbLine
 62
7
  6
CONTINUOUS
 10
40.1731247406
 20
69.5619613547
 11
40.1731247406
 21
66.9619613546
  0
LINE
  5
278
100
AcDbEntity
  8
0
100
AcDbLine
 62
7
  6
CONTINUOUS
 10
40.2231247406
 20
66.3736898862
 11
40.2231247406
 21
66.4119613546
  0
LINE
  5
279
100
AcDbEntity
  8
0
100
AcDbLine
 62
7
  6
CONTINUOUS
 10
40.2231247406
 20
70.1119613546
 11
40.2231247406
 21
70.1590130055
  0
LINE
  5
27A
100
AcDbEntity
  8
0
100
AcDbLine
 62
7
  6
CONTINUOUS
 10
40.5497162904
 20
76.2662301605
 11
40.5497162904
 21
72.6662301605
  0
LINE
  5
27B
100
AcDbEntity
  8
0
100
AcDbLine
 62
7
  6
CONTINUOUS
 10
40.5864676021
 20
64.0113359491
 11
40.5864676021
 21
84.9211243719
  0
LINE
  5
27C
100
AcDbEntity
  8
0
100
AcDbLine
 62
7
  6
CONTINUOUS
 10
40.6294682541
 20
72.2637504674
 11
40.6294682519
 21
64.4687093873
  0
LINE
  5
27D
100
AcDbEntity
  8
0
100
AcDbLine
 62
7
  6
CONTINUOUS
 10
40.6294682514
 20
76.6686011319
 11
40.6294682514
 21
84.4638108441
  0
LINE
  5
27E
100
AcDbEntity
  8
0
100
AcDbLine
 62
7
  6
CONTINUOUS
 10
40.6748330476
 20
84.0162301605
 11
40.6748330476
 21
77.1162301605
  0
LINE
  5
27F
100
AcDbEntity
  8
0
100
AcDbLine
 62
7
  6
CONTINUOUS
 10
40.6748330476
 20
64.9162301605
 11
40.6748330476
 21
71.8162301605
  0
LINE
  5
280
100
AcDbEntity
  8
0
100
AcDbLine
 62
7
  6
CONTINUOUS
 10
40.7131247406
 20
62.0637237017
 11
40.7131247406
 21
86.5724135473
  0
LINE
  5
281
100
AcDbEntity
  8
0
100
AcDbLine
 62
7
  6
CONTINUOUS
 10
40.9131247406
 20
62.6723796023
 11
40.9131247406
 21
86.2723796023
  0
LINE
  5
282
100
AcDbEntity
  8
0
100
AcDbLine
 62
7
  6
CONTINUOUS
 10
40.6748330476
 20
77.1162301605
 11
40.6431208014
 21
76.4171804814
  0
LINE
  5
283
100
AcDbEntity
  8
0
100
AcDbLine
 62
7
  6
CONTINUOUS
 10
40.6431169376
 20
64.2170953108
 11
40.6748330476
 21
64.9162301605
  0
LINE
  5
284
100
AcDbEntity
  8
0
100
AcDbLine
 62
7
  6
CONTINUOUS
 10
37.2323187943
 20
61.5279905256
 11
39.7378876595
 21
61.659198106
  0
LINE
  5
285
100
AcDbEntity
  8
0
100
AcDbLine
 62
7
  6
CONTINUOUS
 10
15.3231247406
 20
61.0119613546
 11
51.1731247433
 21
61.0119613546
  0
LINE
  5
286
100
AcDbEntity
  8
0
100
AcDbLine
 62
7
  6
CONTINUOUS
 10
54.4731247433
 20
61.0119613546
 11
93.7231247406
 21
61.0119613546
  0
LINE
  5
287
100
AcDbEntity
  8
0
100
AcDbLine
 62
7
  6
CONTINUOUS
 10
94.0231247406
 20
61.3119613546
 11
54.4731247406
 21
61.3119613546
  0
LINE
  5
288
100
AcDbEntity
  8
0
100
AcDbLine
 62
7
  6
CONTINUOUS
 10
51.1731247406
 20
61.3119613546
 11
15.0231247406
 21
61.3119613546
  0
LINE
  5
289
100
AcDbEntity
  8
0
100
AcDbLine
 62
7
  6
CONTINUOUS
 10
56.9481915714
 20
61.3660808887
 11
46.416987662
 21
61.3660808887
  0
LINE
  5
28A
100
AcDbEntity
  8
0
100
AcDbLine
 62
7
  6
CONTINUOUS
 10
36.7566931888
 20
61.6219613546
 11
37.1915493992
 21
61.6219613546
  0
LINE
  5
28B
100
AcDbEntity
  8
0
100
AcDbLine
 62
7
  6
CONTINUOUS
 10
42.3131247406
 20
61.8004231247
 11
47.1131247406
 21
61.8004231247
  0
LINE
  5
28C
100
AcDbEntity
  8
0
100
AcDbLine
 62
7
  6
CONTINUOUS
 10
40.7131247406
 20
62.0637237017
 11
46.0630793137
 21
62.0637237017
  0
LINE
  5
28D
100
AcDbEntity
  8
0
100
AcDbLine
 62
7
  6
CONTINUOUS
 10
58.0150572671
 20
62.1662301605
 11
63.4150562013
 21
62.1662301605
  0
LINE
  5
28E
100
AcDbEntity
  8
0
100
AcDbLine
 62
7
  6
CONTINUOUS
 10
35.1313423984
 20
62.6119613546
 11
36.8097877219
 21
62.6119613546
  0
LINE
  5
28F
100
AcDbEntity
  8
0
100
AcDbLine
 62
7
  6
CONTINUOUS
 10
15.5731247406
 20
62.6619613546
 11
17.0731247406
 21
62.6619613546
  0
LINE
  5
290
100
AcDbEntity
  8
0
100
AcDbLine
 62
7
  6
CONTINUOUS
 10
74.1731247406
 20
62.6619613546
 11
75.6731247406
 21
62.6619613546
  0
LINE
  5
291
100
AcDbEntity
  8
0
100
AcDbLine
 62
7
  6
CONTINUOUS
 10
83.0731247406
 20
62.6619613546
 11
84.5731247406
 21
62.6619613546
  0
LINE
  5
292
100
AcDbEntity
  8
0
100
AcDbLine
 62
7
  6
CONTINUOUS
 10
91.9731247406
 20
62.6619613546
 11
93.4731247406
 21
62.6619613546
  0
LINE
  5
293
100
AcDbEntity
  8
0
100
AcDbLine
 62
7
  6
CONTINUOUS
 10
45.7131247406
 20
62.6723796023
 11
40.9131247406
 21
62.6723796023
  0
LINE
  5
294
100
AcDbEntity
  8
0
100
AcDbLine
 62
7
  6
CONTINUOUS
 10
15.4231247406
 20
62.8619613546
 11
17.5231247406
 21
62.8619613546
  0
LINE
  5
295
100
AcDbEntity
  8
0
100
AcDbLine
 62
7
  6
CONTINUOUS
 10
73.7231247406
 20
62.8619613546
 11
75.8231247406
 21
62.8619613546
  0
LINE
  5
296
100
AcDbEntity
  8
0
100
AcDbLine
 62
7
  6
CONTINUOUS
 10
82.6231247406
 20
62.8619613546
 11
84.7231247406
 21
62.8619613546
  0
LINE
  5
297
100
AcDbEntity
  8
0
100
AcDbLine
 62
7
  6
CONTINUOUS
 10
91.5231247406
 20
62.8619613546
 11
93.6231247406
 21
62.8619613546
  0
LINE
  5
298
100
AcDbEntity
  8
0
100
AcDbLine
 62
7
  6
CONTINUOUS
 10
40.9131247406
 20
62.8723796023
 11
45.7131247406
 21
62.8723796023
  0
LINE
  5
299
100
AcDbEntity
  8
0
100
AcDbLine
 62
7
  6
CONTINUOUS
 10
58.9231247406
 20
62.9119613546
 11
61.9231247406
 21
62.9119613546
  0
LINE
  5
29A
100
AcDbEntity
  8
0
100
AcDbLine
 62
7
  6
CONTINUOUS
 10
88.3231428303
 20
63.1619613546
 11
87.5231428303
 21
63.1619613546
  0
LINE
  5
29B
100
AcDbEntity
  8
0
100
AcDbLine
 62
7
  6
CONTINUOUS
 10
79.4231428303
 20
63.1619613546
 11
78.6231428303
 21
63.1619613546
  0
LINE
  5
29C
100
AcDbEntity
  8
0
100
AcDbLine
 62
7
  6
CONTINUOUS
 10
70.5231428303
 20
63.1619613546
 11
69.7231428303
 21
63.1619613546
  0
LINE
  5
29D
100
AcDbEntity
  8
0
100
AcDbLine
 62
7
  6
CONTINUOUS
 10
21.5231247406
 20
63.1619613546
 11
20.7231247406
 21
63.1619613546
  0
LINE
  5
29E
100
AcDbEntity
  8
0
100
AcDbLine
 62
7
  6
CONTINUOUS
 10
46.416987662
 20
61.3660808887
 11
43.2648523614
 21
61.3804838947
  0
LINE
  5
29F
100
AcDbEntity
  8
0
100
AcDbLine
 62
7
  6
CONTINUOUS
 10
41.3727515711
 20
61.3891294434
 11
41.2129447167
 21
61.3898596465
  0
LINE
  5
2A0
100
AcDbEntity
  8
0
100
AcDbLine
 62
7
  6
CONTINUOUS
 10
37.2323187943
 20
61.5279905256
 11
41.2129447167
 21
61.3898596465
  0
LINE
  5
2A1
100
AcDbEntity
  8
0
100
AcDbLine
 62
7
  6
CONTINUOUS
 10
46.9951109125
 20
62.0115052758
 11
56.8131247406
 21
61.4302249301
  0
LINE
  5
2A2
100
AcDbEntity
  8
0
100
AcDbLine
 62
7
  6
CONTINUOUS
 10
29.4231247406
 20
74.653413239
 11
33.5731247406
 21
72.2574096218
  0
LINE
  5
2A3
100
AcDbEntity
  8
0
100
AcDbLine
 62
7
  6
CONTINUOUS
 10
42.3131247406
 20
87.1320371963
 11
42.3131247406
 21
87.0374660634
  0
LINE
  5
2A4
100
AcDbEntity
  8
0
100
AcDbLine
 62
7
  6
CONTINUOUS
 10
42.3131247406
 20
61.8949942208
 11
42.3131247406
 21
61.8004231247
  0
LINE
  5
2A5
100
AcDbEntity
  8
0
100
AcDbLine
 62
7
  6
CONTINUOUS
 10
55.5399432876
 20
63.7393807095
 11
55.8310309891
 21
63.8119613546
  0
LINE
  5
2A6
100
AcDbEntity
  8
0
100
AcDbLine
 62
7
  6
CONTINUOUS
 10
39.7378876595
 20
63.6593473779
 11
36.8097877219
 21
63.5060133731
  0
LINE
  5
2A7
100
AcDbEntity
  8
0
100
AcDbLine
 62
7
  6
CONTINUOUS
 10
40.1007596794
 20
63.8098656701
 11
35.1285227409
 21
63.8087930175
  0
LINE
  5
2A8
100
AcDbEntity
  8
0
100
AcDbLine
 62
7
  6
CONTINUOUS
 10
20.7231247406
 20
63.3619613546
 11
21.5231247406
 21
63.3619613546
  0
LINE
  5
2A9
100
AcDbEntity
  8
0
100
AcDbLine
 62
7
  6
CONTINUOUS
 10
69.7231428303
 20
63.3619613546
 11
70.5231428303
 21
63.3619613546
  0
LINE
  5
2AA
100
AcDbEntity
  8
0
100
AcDbLine
 62
7
  6
CONTINUOUS
 10
78.6231428303
 20
63.3619613546
 11
79.4231428303
 21
63.3619613546
  0
LINE
  5
2AB
100
AcDbEntity
  8
0
100
AcDbLine
 62
7
  6
CONTINUOUS
 10
87.5231428303
 20
63.3619613546
 11
88.3231428303
 21
63.3619613546
  0
LINE
  5
2AC
100
AcDbEntity
  8
0
100
AcDbLine
 62
7
  6
CONTINUOUS
 10
58.9231247406
 20
63.4089928548
 11
58.5631247406
 21
63.4089928548
  0
LINE
  5
2AD
100
AcDbEntity
  8
0
100
AcDbLine
 62
7
  6
CONTINUOUS
 10
35.5113696573
 20
63.5119613546
 11
36.8097877219
 21
63.5119613546
  0
LINE
  5
2AE
100
AcDbEntity
  8
0
100
AcDbLine
 62
7
  6
CONTINUOUS
 10
55.8310309891
 20
63.5119613546
 11
65.8231247406
 21
63.5119613546
  0
LINE
  5
2AF
100
AcDbEntity
  8
0
100
AcDbLine
 62
7
  6
CONTINUOUS
 10
65.8231247406
 20
63.8119613546
 11
55.8310309891
 21
63.8119613546
  0
LINE
  5
2B0
100
AcDbEntity
  8
0
100
AcDbLine
 62
7
  6
CONTINUOUS
 10
37.8731247406
 20
63.9369613546
 11
40.4071640843
 21
63.9369613546
  0
LINE
  5
2B1
100
AcDbEntity
  8
0
100
AcDbLine
 62
7
  6
CONTINUOUS
 10
48.3731247406
 20
63.9369613546
 11
52.5731247406
 21
63.9369613546
  0
LINE
  5
2B2
100
AcDbEntity
  8
0
100
AcDbLine
 62
7
  6
CONTINUOUS
 10
60.3731247406
 20
63.9369613546
 11
63.0731247406
 21
63.9369613546
  0
LINE
  5
2B3
100
AcDbEntity
  8
0
100
AcDbLine
 62
7
  6
CONTINUOUS
 10
37.5477564718
 20
63.9619613546
 11
40.4674345029
 21
63.9619613546
  0
LINE
  5
2B4
100
AcDbEntity
  8
0
100
AcDbLine
 62
7
  6
CONTINUOUS
 10
47.8344450825
 20
63.9619613546
 11
63.394866756
 21
63.9619613546
  0
LINE
  5
2B5
100
AcDbEntity
  8
0
100
AcDbLine
 62
7
  6
CONTINUOUS
 10
54.7384689042
 20
63.9829683592
 11
63.3504114775
 21
63.9829683593
  0
LINE
  5
2B6
100
AcDbEntity
  8
0
100
AcDbLine
 62
7
  6
CONTINUOUS
 10
37.6201248809
 20
64.0108964632
 11
40.5864676021
 21
64.0108964632
  0
LINE
  5
2B7
100
AcDbEntity
  8
0
100
AcDbLine
 62
7
  6
CONTINUOUS
 10
47.0004921466
 20
64.0108964631
 11
53.1384689038
 21
64.010896463
  0
LINE
  5
2B8
100
AcDbEntity
  8
0
100
AcDbLine
 62
7
  6
CONTINUOUS
 10
63.3516095334
 20
64.183180253
 11
54.8213008606
 21
64.1832681592
  0
LINE
  5
2B9
100
AcDbEntity
  8
0
100
AcDbLine
 62
7
  6
CONTINUOUS
 10
53.2798902624
 20
64.210866002
 11
47.0004921466
 21
64.210866002
  0
LINE
  5
2BA
100
AcDbEntity
  8
0
100
AcDbLine
 62
7
  6
CONTINUOUS
 10
40.5864676021
 20
64.210866002
 11
37.6201248809
 21
64.210866002
  0
LINE
  5
2BB
100
AcDbEntity
  8
0
100
AcDbLine
 62
7
  6
CONTINUOUS
 10
18.6553322047
 20
64.3619613546
 11
20.6231247406
 21
64.3619613546
  0
LINE
  5
2BC
100
AcDbEntity
  8
0
100
AcDbLine
 62
7
  6
CONTINUOUS
 10
21.6231247406
 20
64.3619613546
 11
23.5909172764
 21
64.3619613546
  0
LINE
  5
2BD
100
AcDbEntity
  8
0
100
AcDbLine
 62
7
  6
CONTINUOUS
 10
67.6553502944
 20
64.3619613546
 11
69.6231428303
 21
64.3619613546
  0
LINE
  5
2BE
100
AcDbEntity
  8
0
100
AcDbLine
 62
7
  6
CONTINUOUS
 10
70.6231428303
 20
64.3619613546
 11
72.5909353662
 21
64.3619613546
  0
LINE
  5
2BF
100
AcDbEntity
  8
0
100
AcDbLine
 62
7
  6
CONTINUOUS
 10
76.5553502944
 20
64.3619613546
 11
78.5231428303
 21
64.3619613546
  0
LINE
  5
2C0
100
AcDbEntity
  8
0
100
AcDbLine
 62
7
  6
CONTINUOUS
 10
79.5231428303
 20
64.3619613546
 11
81.4909353661
 21
64.3619613546
  0
LINE
  5
2C1
100
AcDbEntity
  8
0
100
AcDbLine
 62
7
  6
CONTINUOUS
 10
85.4553502945
 20
64.3619613546
 11
87.4231428303
 21
64.3619613546
  0
LINE
  5
2C2
100
AcDbEntity
  8
0
100
AcDbLine
 62
7
  6
CONTINUOUS
 10
88.4231428303
 20
64.3619613546
 11
90.3909353662
 21
64.3619613546
  0
LINE
  5
2C3
100
AcDbEntity
  8
0
100
AcDbLine
 62
7
  6
CONTINUOUS
 10
40.6545313589
 20
64.4687093873
 11
40.6294682519
 21
64.4687093873
  0
LINE
  5
2C4
100
AcDbEntity
  8
0
100
AcDbLine
 62
7
  6
CONTINUOUS
 10
64.050304614
 20
64.6828617457
 11
63.8503350752
 21
64.6828617457
  0
LINE
  5
2C5
100
AcDbEntity
  8
0
100
AcDbLine
 62
7
  6
CONTINUOUS
 10
37.1202010333
 20
64.7107898495
 11
36.9202314946
 21
64.7107898495
  0
LINE
  5
2C6
100
AcDbEntity
  8
0
100
AcDbLine
 62
7
  6
CONTINUOUS
 10
63.1213116187
 20
65.1119966378
 11
61.7212725484
 21
65.1119967121
  0
LINE
  5
2C7
100
AcDbEntity
  8
0
100
AcDbLine
 62
7
  6
CONTINUOUS
 10
18.6553322047
 20
65.1619613546
 11
20.6231247406
 21
65.1619613546
  0
LINE
  5
2C8
100
AcDbEntity
  8
0
100
AcDbLine
 62
7
  6
CONTINUOUS
 10
21.6231247406
 20
65.1619613546
 11
23.5909172764
 21
65.1619613546
  0
LINE
  5
2C9
100
AcDbEntity
  8
0
100
AcDbLine
 62
7
  6
CONTINUOUS
 10
67.6553502944
 20
65.1619613546
 11
69.6231428303
 21
65.1619613546
  0
LINE
  5
2CA
100
AcDbEntity
  8
0
100
AcDbLine
 62
7
  6
CONTINUOUS
 10
70.6231428303
 20
65.1619613546
 11
72.5909353662
 21
65.1619613546
  0
LINE
  5
2CB
100
AcDbEntity
  8
0
100
AcDbLine
 62
7
  6
CONTINUOUS
 10
76.5553502944
 20
65.1619613546
 11
78.5231428303
 21
65.1619613546
  0
LINE
  5
2CC
100
AcDbEntity
  8
0
100
AcDbLine
 62
7
  6
CONTINUOUS
 10
79.5231428303
 20
65.1619613546
 11
81.4909353661
 21
65.1619613546
  0
LINE
  5
2CD
100
AcDbEntity
  8
0
100
AcDbLine
 62
7
  6
CONTINUOUS
 10
85.4553502945
 20
65.1619613546
 11
87.4231428303
 21
65.1619613546
  0
LINE
  5
2CE
100
AcDbEntity
  8
0
100
AcDbLine
 62
7
  6
CONTINUOUS
 10
88.4231428303
 20
65.1619613546
 11
90.3909353662
 21
65.1619613546
  0
LINE
  5
2CF
100
AcDbEntity
  8
0
100
AcDbLine
 62
7
  6
CONTINUOUS
 10
61.0295229888
 20
65.1619956276
 11
56.2173053738
 21
65.1619956276
  0
LINE
  5
2D0
100
AcDbEntity
  8
0
100
AcDbLine
 62
7
  6
CONTINUOUS
 10
56.9173010685
 20
65.8558869362
 11
60.3295272941
 21
65.8558869362
  0
LINE
  5
2D1
100
AcDbEntity
  8
0
100
AcDbLine
 62
7
  6
CONTINUOUS
 10
57.2264957556
 20
66.0690043095
 11
60.0125010838
 21
66.0690043095
  0
LINE
  5
2D2
100
AcDbEntity
  8
0
100
AcDbLine
 62
7
  6
CONTINUOUS
 10
61.7212725484
 20
65.1119967121
 11
63.1300382507
 21
65.1032155337
  0
LINE
  5
2D3
100
AcDbEntity
  8
0
100
AcDbLine
 62
7
  6
CONTINUOUS
 10
54.7384689042
 20
63.9829683592
 11
53.1384689038
 21
64.010896463
  0
LINE
  5
2D4
100
AcDbEntity
  8
0
100
AcDbLine
 62
7
  6
CONTINUOUS
 10
53.2798902625
 20
64.210866002
 11
54.8213045986
 21
64.1832681592
  0
LINE
  5
2D5
100
AcDbEntity
  8
0
100
AcDbLine
 62
7
  6
CONTINUOUS
 10
56.8131247406
 20
63.430374202
 11
47.0004921466
 21
64.0113359491
  0
LINE
  5
2D6
100
AcDbEntity
  8
0
100
AcDbLine
 62
7
  6
CONTINUOUS
 10
29.5231247406
 20
74.8266183197
 11
33.6731247406
 21
72.4306147026
  0
LINE
  5
2D7
100
AcDbEntity
  8
0
100
AcDbLine
 62
7
  6
CONTINUOUS
 10
32.7465875601
 20
73.3119613546
 11
32.0231247406
 21
73.7296528083
  0
LINE
  5
2D8
100
AcDbEntity
  8
0
100
AcDbLine
 62
7
  6
CONTINUOUS
 10
45.7131247406
 20
86.2723796023
 11
45.7131247406
 21
62.6723796023
  0
LINE
  5
2D9
100
AcDbEntity
  8
0
100
AcDbLine
 62
7
  6
CONTINUOUS
 10
46.0630793137
 20
86.5723796023
 11
46.0630793137
 21
62.0637237017
  0
LINE
  5
2DA
100
AcDbEntity
  8
0
100
AcDbLine
 62
7
  6
CONTINUOUS
 10
46.0778209061
 20
62.0633236138
 11
46.0778209061
 21
86.7086708497
  0
LINE
  5
2DB
100
AcDbEntity
  8
0
100
AcDbLine
 62
7
  6
CONTINUOUS
 10
46.1068949468
 20
62.0603293914
 11
46.1068949468
 21
86.8715580809
  0
LINE
  5
2DC
100
AcDbEntity
  8
0
100
AcDbLine
 62
7
  6
CONTINUOUS
 10
46.2047303555
 20
62.0583469524
 11
46.2047303555
 21
86.8741133686
  0
LINE
  5
2DD
100
AcDbEntity
  8
0
100
AcDbLine
 62
7
  6
CONTINUOUS
 10
46.3057833091
 20
62.0523640625
 11
46.3057833091
 21
86.8800962585
  0
LINE
  5
2DE
100
AcDbEntity
  8
0
100
AcDbLine
 62
7
  6
CONTINUOUS
 10
46.4068362627
 20
62.0463811726
 11
46.4068362627
 21
86.8860791484
  0
LINE
  5
2DF
100
AcDbEntity
  8
0
100
AcDbLine
 62
7
  6
CONTINUOUS
 10
46.5078892163
 20
62.0403982826
 11
46.5078892163
 21
86.8920620383
  0
LINE
  5
2E0
100
AcDbEntity
  8
0
100
AcDbLine
 62
7
  6
CONTINUOUS
 10
46.60894217
 20
62.0344153927
 11
46.60894217
 21
86.8980449282
  0
LINE
  5
2E1
100
AcDbEntity
  8
0
100
AcDbLine
 62
7
  6
CONTINUOUS
 10
46.7099951236
 20
62.0284325028
 11
46.7099951236
 21
86.9040278182
  0
LINE
  5
2E2
100
AcDbEntity
  8
0
100
AcDbLine
 62
7
  6
CONTINUOUS
 10
46.8110480772
 20
62.0224496129
 11
46.8110480772
 21
86.910010708
  0
LINE
  5
2E3
100
AcDbEntity
  8
0
100
AcDbLine
 62
7
  6
CONTINUOUS
 10
46.9121010308
 20
62.016466723
 11
46.9121010308
 21
86.915993598
  0
LINE
  5
2E4
100
AcDbEntity
  8
0
100
AcDbLine
 62
7
  6
CONTINUOUS
 10
46.9951109125
 20
62.0115052758
 11
46.9951109125
 21
86.9209550451
  0
LINE
  5
2E5
100
AcDbEntity
  8
0
100
AcDbLine
 62
7
  6
CONTINUOUS
 10
47.0004921466
 20
64.0113359491
 11
47.0004921466
 21
84.9211243719
  0
LINE
  5
2E6
100
AcDbEntity
  8
0
100
AcDbLine
 62
7
  6
CONTINUOUS
 10
47.1131247406
 20
61.8004231247
 11
47.1131247406
 21
61.8949942231
  0
LINE
  5
2E7
100
AcDbEntity
  8
0
100
AcDbLine
 62
7
  6
CONTINUOUS
 10
47.1131247406
 20
87.0374660611
 11
47.1131247406
 21
87.1320371963
  0
LINE
  5
2E8
100
AcDbEntity
  8
0
100
AcDbLine
 62
7
  6
CONTINUOUS
 10
39.6604293305
 20
71.0619880119
 11
39.6517024629
 21
71.0532611441
  0
LINE
  5
2E9
100
AcDbEntity
  8
0
100
AcDbLine
 62
7
  6
CONTINUOUS
 10
88.3231428303
 20
66.1619613546
 11
87.5231428303
 21
66.1619613546
  0
LINE
  5
2EA
100
AcDbEntity
  8
0
100
AcDbLine
 62
7
  6
CONTINUOUS
 10
79.4231428303
 20
66.1619613546
 11
78.6231428303
 21
66.1619613546
  0
LINE
  5
2EB
100
AcDbEntity
  8
0
100
AcDbLine
 62
7
  6
CONTINUOUS
 10
70.5231428303
 20
66.1619613546
 11
69.7231428303
 21
66.1619613546
  0
LINE
  5
2EC
100
AcDbEntity
  8
0
100
AcDbLine
 62
7
  6
CONTINUOUS
 10
21.5231247406
 20
66.1619613546
 11
20.7231247406
 21
66.1619613546
  0
LINE
  5
2ED
100
AcDbEntity
  8
0
100
AcDbLine
 62
7
  6
CONTINUOUS
 10
60.1124860097
 20
66.168989079
 11
57.126510982
 21
66.168989079
  0
LINE
  5
2EE
100
AcDbEntity
  8
0
100
AcDbLine
 62
7
  6
CONTINUOUS
 10
40.5864676021
 20
66.2707148798
 11
40.5200228751
 21
66.2707148798
  0
LINE
  5
2EF
100
AcDbEntity
  8
0
100
AcDbLine
 62
7
  6
CONTINUOUS
 10
20.7231247406
 20
66.3619613546
 11
21.5231247406
 21
66.3619613546
  0
LINE
  5
2F0
100
AcDbEntity
  8
0
100
AcDbLine
 62
7
  6
CONTINUOUS
 10
69.7231428303
 20
66.3619613546
 11
70.5231428303
 21
66.3619613546
  0
LINE
  5
2F1
100
AcDbEntity
  8
0
100
AcDbLine
 62
7
  6
CONTINUOUS
 10
78.6231428303
 20
66.3619613546
 11
79.4231428303
 21
66.3619613546
  0
LINE
  5
2F2
100
AcDbEntity
  8
0
100
AcDbLine
 62
7
  6
CONTINUOUS
 10
87.5231428303
 20
66.3619613546
 11
88.3231428303
 21
66.3619613546
  0
LINE
  5
2F3
100
AcDbEntity
  8
0
100
AcDbLine
 62
7
  6
CONTINUOUS
 10
14.1263742093
 20
66.3619618408
 11
15.0231247406
 21
66.3619618408
  0
LINE
  5
2F4
100
AcDbEntity
  8
0
100
AcDbLine
 62
7
  6
CONTINUOUS
 10
40.5864676021
 20
66.4119613547
 11
40.2231247405
 21
66.4119613547
  0
LINE
  5
2F5
100
AcDbEntity
  8
0
100
AcDbLine
 62
7
  6
CONTINUOUS
 10
40.1231247406
 20
66.5119613547
 11
40.0937334836
 21
66.5119613547
  0
LINE
  5
2F6
100
AcDbEntity
  8
0
100
AcDbLine
 62
7
  6
CONTINUOUS
 10
93.6231247406
 20
66.8619613546
 11
91.5231247406
 21
66.8619613546
  0
LINE
  5
2F7
100
AcDbEntity
  8
0
100
AcDbLine
 62
7
  6
CONTINUOUS
 10
84.7231247406
 20
66.8619613546
 11
82.6231247406
 21
66.8619613546
  0
LINE
  5
2F8
100
AcDbEntity
  8
0
100
AcDbLine
 62
7
  6
CONTINUOUS
 10
75.8231247406
 20
66.8619613546
 11
73.7231247406
 21
66.8619613546
  0
LINE
  5
2F9
100
AcDbEntity
  8
0
100
AcDbLine
 62
7
  6
CONTINUOUS
 10
17.5231247406
 20
66.8619613546
 11
15.0231247406
 21
66.8619613546
  0
LINE
  5
2FA
100
AcDbEntity
  8
0
100
AcDbLine
 62
7
  6
CONTINUOUS
 10
49.7231247406
 20
87.9119613546
 11
49.7231247406
 21
87.5663794323
  0
LINE
  5
2FB
100
AcDbEntity
  8
0
100
AcDbLine
 62
7
  6
CONTINUOUS
 10
49.7231247406
 20
61.3660808887
 11
49.7231247406
 21
61.0119613546
  0
LINE
  5
2FC
100
AcDbEntity
  8
0
100
AcDbLine
 62
7
  6
CONTINUOUS
 10
50.0231247406
 20
61.3119613546
 11
50.0231247406
 21
61.3660808887
  0
LINE
  5
2FD
100
AcDbEntity
  8
0
100
AcDbLine
 62
7
  6
CONTINUOUS
 10
50.0231247406
 20
87.5663794323
 11
50.0231247406
 21
87.6119613546
  0
LINE
  5
2FE
100
AcDbEntity
  8
0
100
AcDbLine
 62
7
  6
CONTINUOUS
 10
37.6201248809
 20
64.0108964632
 11
37.5711926838
 21
63.9619613546
  0
LINE
  5
2FF
100
AcDbEntity
  8
0
100
AcDbLine
 62
7
  6
CONTINUOUS
 10
58.0010578294
 20
84.311988012
 11
57.9010311721
 21
84.2119613546
  0
LINE
  5
300
100
AcDbEntity
  8
0
100
AcDbLine
 62
7
  6
CONTINUOUS
 10
58.6213116187
 20
84.2822418013
 11
58.5510311721
 21
84.2119613546
  0
LINE
  5
301
100
AcDbEntity
  8
0
100
AcDbLine
 62
7
  6
CONTINUOUS
 10
36.8712963862
 20
64.6618620877
 11
36.9202314946
 21
64.7107902172
  0
LINE
  5
302
100
AcDbEntity
  8
0
100
AcDbLine
 62
7
  6
CONTINUOUS
 10
73.7231247406
 20
69.2619613546
 11
75.8231247406
 21
69.2619613546
  0
LINE
  5
303
100
AcDbEntity
  8
0
100
AcDbLine
 62
7
  6
CONTINUOUS
 10
82.6231247406
 20
69.2619613546
 11
84.7231247406
 21
69.2619613546
  0
LINE
  5
304
100
AcDbEntity
  8
0
100
AcDbLine
 62
7
  6
CONTINUOUS
 10
91.5231247406
 20
69.2619613546
 11
93.6231247406
 21
69.2619613546
  0
LINE
  5
305
100
AcDbEntity
  8
0
100
AcDbLine
 62
7
  6
CONTINUOUS
 10
88.3231428303
 20
69.5619613546
 11
87.5231428303
 21
69.5619613546
  0
LINE
  5
306
100
AcDbEntity
  8
0
100
AcDbLine
 62
7
  6
CONTINUOUS
 10
79.4231428303
 20
69.5619613546
 11
78.6231428303
 21
69.5619613546
  0
LINE
  5
307
100
AcDbEntity
  8
0
100
AcDbLine
 62
7
  6
CONTINUOUS
 10
70.5231428303
 20
69.5619613546
 11
69.7231428303
 21
69.5619613546
  0
LINE
  5
308
100
AcDbEntity
  8
0
100
AcDbLine
 62
7
  6
CONTINUOUS
 10
69.7231428303
 20
69.7619613546
 11
70.5231428303
 21
69.7619613546
  0
LINE
  5
309
100
AcDbEntity
  8
0
100
AcDbLine
 62
7
  6
CONTINUOUS
 10
78.6231428303
 20
69.7619613546
 11
79.4231428303
 21
69.7619613546
  0
LINE
  5
30A
100
AcDbEntity
  8
0
100
AcDbLine
 62
7
  6
CONTINUOUS
 10
87.5231428303
 20
69.7619613546
 11
88.3231428303
 21
69.7619613546
  0
LINE
  5
30B
100
AcDbEntity
  8
0
100
AcDbLine
 62
7
  6
CONTINUOUS
 10
40.0870120235
 20
70.0119613546
 11
40.1231247406
 21
70.0119613546
  0
LINE
  5
30C
100
AcDbEntity
  8
0
100
AcDbLine
 62
7
  6
CONTINUOUS
 10
40.2231247405
 20
70.1119613546
 11
40.5864676021
 21
70.1119613546
  0
LINE
  5
30D
100
AcDbEntity
  8
0
100
AcDbLine
 62
7
  6
CONTINUOUS
 10
40.5200228751
 20
70.261988012
 11
40.5864676021
 21
70.261988012
  0
LINE
  5
30E
100
AcDbEntity
  8
0
100
AcDbLine
 62
7
  6
CONTINUOUS
 10
31.6231247406
 20
70.3119613546
 11
33.6231247406
 21
70.3119613546
  0
LINE
  5
30F
100
AcDbEntity
  8
0
100
AcDbLine
 62
7
  6
CONTINUOUS
 10
31.6231247406
 20
70.7119613546
 11
33.6231247406
 21
70.7119613546
  0
LINE
  5
310
100
AcDbEntity
  8
0
100
AcDbLine
 62
7
  6
CONTINUOUS
 10
67.6553502944
 20
70.7619613546
 11
69.6231428303
 21
70.7619613546
  0
LINE
  5
311
100
AcDbEntity
  8
0
100
AcDbLine
 62
7
  6
CONTINUOUS
 10
70.6231428303
 20
70.7619613546
 11
72.5909353662
 21
70.7619613546
  0
LINE
  5
312
100
AcDbEntity
  8
0
100
AcDbLine
 62
7
  6
CONTINUOUS
 10
76.5553502944
 20
70.7619613546
 11
78.5231428303
 21
70.7619613546
  0
LINE
  5
313
100
AcDbEntity
  8
0
100
AcDbLine
 62
7
  6
CONTINUOUS
 10
79.5231428303
 20
70.7619613546
 11
81.4909353661
 21
70.7619613546
  0
LINE
  5
314
100
AcDbEntity
  8
0
100
AcDbLine
 62
7
  6
CONTINUOUS
 10
85.4553502945
 20
70.7619613546
 11
87.4231428303
 21
70.7619613546
  0
LINE
  5
315
100
AcDbEntity
  8
0
100
AcDbLine
 62
7
  6
CONTINUOUS
 10
88.4231428303
 20
70.7619613546
 11
90.3909353662
 21
70.7619613546
  0
LINE
  5
316
100
AcDbEntity
  8
0
100
AcDbLine
 62
7
  6
CONTINUOUS
 10
14.1263736497
 20
70.8619616434
 11
15.0263738256
 21
70.8619616434
  0
LINE
  5
317
100
AcDbEntity
  8
0
100
AcDbLine
 62
7
  6
CONTINUOUS
 10
33.6231247406
 20
70.9119613546
 11
32.3731247406
 21
70.9119613546
  0
LINE
  5
318
100
AcDbEntity
  8
0
100
AcDbLine
 62
7
  6
CONTINUOUS
 10
28.7231247406
 20
71.0119613546
 11
31.6231247406
 21
71.0119613546
  0
LINE
  5
319
100
AcDbEntity
  8
0
100
AcDbLine
 62
7
  6
CONTINUOUS
 10
39.6517024629
 20
71.0532611441
 11
40.5864676021
 21
71.0532611441
  0
LINE
  5
31A
100
AcDbEntity
  8
0
100
AcDbLine
 62
7
  6
CONTINUOUS
 10
57.126510982
 20
71.5549945615
 11
60.1124860097
 21
71.5549945615
  0
LINE
  5
31B
100
AcDbEntity
  8
0
100
AcDbLine
 62
7
  6
CONTINUOUS
 10
67.6553502944
 20
71.5619613546
 11
69.6231428303
 21
71.5619613546
  0
LINE
  5
31C
100
AcDbEntity
  8
0
100
AcDbLine
 62
7
  6
CONTINUOUS
 10
70.6231428303
 20
71.5619613546
 11
72.5909353662
 21
71.5619613546
  0
LINE
  5
31D
100
AcDbEntity
  8
0
100
AcDbLine
 62
7
  6
CONTINUOUS
 10
76.5553502944
 20
71.5619613546
 11
78.5231428303
 21
71.5619613546
  0
LINE
  5
31E
100
AcDbEntity
  8
0
100
AcDbLine
 62
7
  6
CONTINUOUS
 10
79.5231428303
 20
71.5619613546
 11
81.4909353661
 21
71.5619613546
  0
LINE
  5
31F
100
AcDbEntity
  8
0
100
AcDbLine
 62
7
  6
CONTINUOUS
 10
85.4553502945
 20
71.5619613546
 11
87.4231428303
 21
71.5619613546
  0
LINE
  5
320
100
AcDbEntity
  8
0
100
AcDbLine
 62
7
  6
CONTINUOUS
 10
88.4231428303
 20
71.5619613546
 11
90.3909353662
 21
71.5619613546
  0
LINE
  5
321
100
AcDbEntity
  8
0
100
AcDbLine
 62
7
  6
CONTINUOUS
 10
60.012577329
 20
71.6549793078
 11
57.2264957579
 21
71.6549793264
  0
LINE
  5
322
100
AcDbEntity
  8
0
100
AcDbLine
 62
7
  6
CONTINUOUS
 10
60.3295272941
 20
71.8681043191
 11
56.9173010685
 21
71.8681043191
  0
LINE
  5
323
100
AcDbEntity
  8
0
100
AcDbLine
 62
7
  6
CONTINUOUS
 10
36.9202314946
 20
84.2131858067
 11
36.8712963862
 21
84.2621139365
  0
LINE
  5
324
100
AcDbEntity
  8
0
100
AcDbLine
 62
7
  6
CONTINUOUS
 10
37.5711921799
 20
84.9620146558
 11
37.6201249987
 21
84.9130795607
  0
LINE
  5
325
100
AcDbEntity
  8
0
100
AcDbLine
 62
7
  6
CONTINUOUS
 10
50.8731247406
 20
87.9119613546
 11
50.8731247406
 21
87.5663794323
  0
LINE
  5
326
100
AcDbEntity
  8
0
100
AcDbLine
 62
7
  6
CONTINUOUS
 10
50.8731247406
 20
61.3660808887
 11
50.8731247406
 21
61.0119613546
  0
LINE
  5
327
100
AcDbEntity
  8
0
100
AcDbLine
 62
7
  6
CONTINUOUS
 10
51.1731247433
 20
61.0119613546
 11
51.1731247433
 21
61.3660808887
  0
LINE
  5
328
100
AcDbEntity
  8
0
100
AcDbLine
 62
7
  6
CONTINUOUS
 10
51.1731247433
 20
87.5663794323
 11
51.1731247433
 21
87.7119613546
  0
LINE
  5
329
100
AcDbEntity
  8
0
100
AcDbLine
 62
7
  6
CONTINUOUS
 10
51.2983116187
 20
75.7131686153
 11
51.2983116187
 21
83.2131686153
  0
LINE
  5
32A
100
AcDbEntity
  8
0
100
AcDbLine
 62
7
  6
CONTINUOUS
 10
51.6213116187
 20
75.5945342764
 11
51.6213116187
 21
75.7131686153
  0
LINE
  5
32B
100
AcDbEntity
  8
0
100
AcDbLine
 62
7
  6
CONTINUOUS
 10
51.6213116187
 20
83.2131686153
 11
51.6213116187
 21
83.3294417476
  0
LINE
  5
32C
100
AcDbEntity
  8
0
100
AcDbLine
 62
7
  6
CONTINUOUS
 10
52.1131247406
 20
85.2238201882
 11
52.1131247406
 21
84.9619613546
  0
LINE
  5
32D
100
AcDbEntity
  8
0
100
AcDbLine
 62
7
  6
CONTINUOUS
 10
52.1131247406
 20
63.9369613546
 11
52.1131247406
 21
63.7086400175
  0
LINE
  5
32E
100
AcDbEntity
  8
0
100
AcDbLine
 62
7
  6
CONTINUOUS
 10
52.5213116187
 20
75.6023884574
 11
52.5213116187
 21
75.7131686153
  0
LINE
  5
32F
100
AcDbEntity
  8
0
100
AcDbLine
 62
7
  6
CONTINUOUS
 10
52.5213116187
 20
83.2131686153
 11
52.5213116187
 21
83.3215875665
  0
LINE
  5
330
100
AcDbEntity
  8
0
100
AcDbLine
 62
7
  6
CONTINUOUS
 10
63.3224829147
 20
84.9130795607
 11
63.3714150964
 21
84.9620146558
  0
LINE
  5
331
100
AcDbEntity
  8
0
100
AcDbLine
 62
7
  6
CONTINUOUS
 10
63.1300382507
 20
72.6207834924
 11
61.7212725497
 21
72.612002314
  0
LINE
  5
332
100
AcDbEntity
  8
0
100
AcDbLine
 62
7
  6
CONTINUOUS
 10
40.0162071819
 20
72.0207148798
 11
40.5864676021
 21
72.0207148798
  0
LINE
  5
333
100
AcDbEntity
  8
0
100
AcDbLine
 62
7
  6
CONTINUOUS
 10
40.6294682541
 20
72.2637504674
 11
40.6545313787
 21
72.2637504689
  0
LINE
  5
334
100
AcDbEntity
  8
0
100
AcDbLine
 62
7
  6
CONTINUOUS
 10
88.3231428303
 20
72.5619613546
 11
87.5231428303
 21
72.5619613546
  0
LINE
  5
335
100
AcDbEntity
  8
0
100
AcDbLine
 62
7
  6
CONTINUOUS
 10
79.4231428303
 20
72.5619613546
 11
78.6231428303
 21
72.5619613546
  0
LINE
  5
336
100
AcDbEntity
  8
0
100
AcDbLine
 62
7
  6
CONTINUOUS
 10
70.5231428303
 20
72.5619613546
 11
69.7231428303
 21
72.5619613546
  0
LINE
  5
337
100
AcDbEntity
  8
0
100
AcDbLine
 62
7
  6
CONTINUOUS
 10
56.2173053738
 20
72.5619956276
 11
61.0295229888
 21
72.5619956276
  0
LINE
  5
338
100
AcDbEntity
  8
0
100
AcDbLine
 62
7
  6
CONTINUOUS
 10
32.3731247406
 20
72.6079649718
 11
29.4731247406
 21
72.6079649718
  0
LINE
  5
339
100
AcDbEntity
  8
0
100
AcDbLine
 62
7
  6
CONTINUOUS
 10
27.4731247406
 20
72.6079649718
 11
28.7231247406
 21
72.6079649718
  0
LINE
  5
33A
100
AcDbEntity
  8
0
100
AcDbLine
 62
7
  6
CONTINUOUS
 10
61.7212725497
 20
72.612002314
 11
63.1213116187
 21
72.6120023884
  0
LINE
  5
33B
100
AcDbEntity
  8
0
100
AcDbLine
 62
7
  6
CONTINUOUS
 10
40.5864676021
 20
72.6662301605
 11
37.0742106004
 21
72.6662301605
  0
LINE
  5
33C
100
AcDbEntity
  8
0
100
AcDbLine
 62
7
  6
CONTINUOUS
 10
27.4731247406
 20
72.7119613546
 11
29.4731247406
 21
72.7119613546
  0
LINE
  5
33D
100
AcDbEntity
  8
0
100
AcDbLine
 62
7
  6
CONTINUOUS
 10
69.7231428303
 20
72.7619613546
 11
70.5231428303
 21
72.7619613546
  0
LINE
  5
33E
100
AcDbEntity
  8
0
100
AcDbLine
 62
7
  6
CONTINUOUS
 10
78.6231428303
 20
72.7619613546
 11
79.4231428303
 21
72.7619613546
  0
LINE
  5
33F
100
AcDbEntity
  8
0
100
AcDbLine
 62
7
  6
CONTINUOUS
 10
87.5231428303
 20
72.7619613546
 11
88.3231428303
 21
72.7619613546
  0
LINE
  5
340
100
AcDbEntity
  8
0
100
AcDbLine
 62
7
  6
CONTINUOUS
 10
27.4731247406
 20
73.1119613546
 11
29.4731247406
 21
73.1119613546
  0
LINE
  5
341
100
AcDbEntity
  8
0
100
AcDbLine
 62
7
  6
CONTINUOUS
 10
54.3041543312
 20
73.1619613546
 11
63.8378170482
 21
73.1619613546
  0
LINE
  5
342
100
AcDbEntity
  8
0
100
AcDbLine
 62
7
  6
CONTINUOUS
 10
63.8378170481
 20
73.2205399983
 11
54.1627329749
 21
73.2205399983
  0
LINE
  5
343
100
AcDbEntity
  8
0
100
AcDbLine
 62
7
  6
CONTINUOUS
 10
93.6231247406
 20
73.2619613546
 11
91.5231247406
 21
73.2619613546
  0
LINE
  5
344
100
AcDbEntity
  8
0
100
AcDbLine
 62
7
  6
CONTINUOUS
 10
84.7231247406
 20
73.2619613546
 11
82.6231247406
 21
73.2619613546
  0
LINE
  5
345
100
AcDbEntity
  8
0
100
AcDbLine
 62
7
  6
CONTINUOUS
 10
75.8231247406
 20
73.2619613546
 11
73.7231247406
 21
73.2619613546
  0
LINE
  5
346
100
AcDbEntity
  8
0
100
AcDbLine
 62
7
  6
CONTINUOUS
 10
32.7465875601
 20
73.3119613546
 11
36.8721032886
 21
73.3119613546
  0
LINE
  5
347
100
AcDbEntity
  8
0
100
AcDbLine
 62
7
  6
CONTINUOUS
 10
64.0503046141
 20
73.3619613514
 11
64.0377865872
 21
73.3619613546
  0
LINE
  5
348
100
AcDbEntity
  8
0
100
AcDbLine
 62
7
  6
CONTINUOUS
 10
29.4731247406
 20
73.4079649718
 11
27.4731247406
 21
73.4079649718
  0
LINE
  5
349
100
AcDbEntity
  8
0
100
AcDbLine
 62
7
  6
CONTINUOUS
 10
53.2798902625
 20
74.1033827108
 11
63.8224069713
 21
74.1033827108
  0
LINE
  5
34A
100
AcDbEntity
  8
0
100
AcDbLine
 62
7
  6
CONTINUOUS
 10
64.0223765102
 20
74.244804067
 11
53.1384689062
 21
74.244804067
  0
LINE
  5
34B
100
AcDbEntity
  8
0
100
AcDbLine
 62
7
  6
CONTINUOUS
 10
45.7131247406
 20
74.2723796023
 11
40.9131247406
 21
74.2723796023
  0
LINE
  5
34C
100
AcDbEntity
  8
0
100
AcDbLine
 62
7
  6
CONTINUOUS
 10
64.1935032649
 20
74.4619613546
 11
64.0704050577
 21
74.4619613546
  0
LINE
  5
34D
100
AcDbEntity
  8
0
100
AcDbLine
 62
7
  6
CONTINUOUS
 10
45.7131247406
 20
74.4723796023
 11
40.9131247406
 21
74.4723796023
  0
LINE
  5
34E
100
AcDbEntity
  8
0
100
AcDbLine
 62
7
  6
CONTINUOUS
 10
57.5213116187
 20
74.611988012
 11
58.6213116187
 21
74.611988012
  0
LINE
  5
34F
100
AcDbEntity
  8
0
100
AcDbLine
 62
7
  6
CONTINUOUS
 10
40.9131247406
 20
74.6723796023
 11
45.7131247406
 21
74.6723796023
  0
LINE
  5
350
100
AcDbEntity
  8
0
100
AcDbLine
 62
7
  6
CONTINUOUS
 10
58.6213116187
 20
74.7689433806
 11
57.5764805228
 21
74.7689433806
  0
LINE
  5
351
100
AcDbEntity
  8
0
100
AcDbLine
 62
7
  6
CONTINUOUS
 10
60.3295317642
 20
65.8558922578
 11
61.0295229888
 21
65.1619956276
  0
LINE
  5
352
100
AcDbEntity
  8
0
100
AcDbLine
 62
7
  6
CONTINUOUS
 10
39.6517024627
 20
83.8707148799
 11
39.6604293307
 21
83.8619880121
  0
LINE
  5
353
100
AcDbEntity
  8
0
100
AcDbLine
 62
7
  6
CONTINUOUS
 10
60.0195131219
 20
66.0619918203
 11
60.0125010838
 21
66.0690043095
  0
LINE
  5
354
100
AcDbEntity
  8
0
100
AcDbLine
 62
7
  6
CONTINUOUS
 10
63.3714197314
 20
63.9619613546
 11
63.3504114775
 21
63.9829683593
  0
LINE
  5
355
100
AcDbEntity
  8
0
100
AcDbLine
 62
7
  6
CONTINUOUS
 10
53.1384689062
 20
74.244804067
 11
54.1627329749
 21
73.2205399983
  0
LINE
  5
356
100
AcDbEntity
  8
0
100
AcDbLine
 62
7
  6
CONTINUOUS
 10
60.1194984968
 20
66.1619765898
 11
60.1124860108
 21
66.1689985689
  0
LINE
  5
357
100
AcDbEntity
  8
0
100
AcDbLine
 62
7
  6
CONTINUOUS
 10
53.1384689062
 20
74.244804067
 11
53.1384689062
 21
64.0108964631
  0
LINE
  5
358
100
AcDbEntity
  8
0
100
AcDbLine
 62
7
  6
CONTINUOUS
 10
53.2798902625
 20
64.210866002
 11
53.2798902625
 21
74.1033827108
  0
LINE
  5
359
100
AcDbEntity
  8
0
100
AcDbLine
 62
7
  6
CONTINUOUS
 10
53.8131247406
 20
85.3244694874
 11
53.8131247406
 21
84.9619613546
  0
LINE
  5
35A
100
AcDbEntity
  8
0
100
AcDbLine
 62
7
  6
CONTINUOUS
 10
53.8131247406
 20
63.9619613546
 11
53.8131247406
 21
63.60799068
  0
LINE
  5
35B
100
AcDbEntity
  8
0
100
AcDbLine
 62
7
  6
CONTINUOUS
 10
54.4731247433
 20
61.0119613546
 11
54.4731247433
 21
61.3660808887
  0
LINE
  5
35C
100
AcDbEntity
  8
0
100
AcDbLine
 62
7
  6
CONTINUOUS
 10
54.4731247433
 20
87.5663794323
 11
54.4731247433
 21
87.7119613546
  0
LINE
  5
35D
100
AcDbEntity
  8
0
100
AcDbLine
 62
7
  6
CONTINUOUS
 10
54.6213116187
 20
75.6023884574
 11
54.6213116187
 21
75.7131686153
  0
LINE
  5
35E
100
AcDbEntity
  8
0
100
AcDbLine
 62
7
  6
CONTINUOUS
 10
54.6213116187
 20
83.2131686153
 11
54.6213116187
 21
83.3215875665
  0
LINE
  5
35F
100
AcDbEntity
  8
0
100
AcDbLine
 62
7
  6
CONTINUOUS
 10
54.7345883645
 20
83.3329074375
 11
54.7345883645
 21
83.2131686153
  0
LINE
  5
360
100
AcDbEntity
  8
0
100
AcDbLine
 62
7
  6
CONTINUOUS
 10
54.7345883669
 20
75.7131686154
 11
54.734588367
 21
75.5910152767
  0
LINE
  5
361
100
AcDbEntity
  8
0
100
AcDbLine
 62
7
  6
CONTINUOUS
 10
54.7555344449
 20
75.6119613546
 11
54.7555344449
 21
75.7131686153
  0
LINE
  5
362
100
AcDbEntity
  8
0
100
AcDbLine
 62
7
  6
CONTINUOUS
 10
54.7555344449
 20
83.2131686153
 11
54.7555344449
 21
83.3119613546
  0
LINE
  5
363
100
AcDbEntity
  8
0
100
AcDbLine
 62
7
  6
CONTINUOUS
 10
54.7731247406
 20
61.0119613546
 11
54.7731247406
 21
61.3660808887
  0
LINE
  5
364
100
AcDbEntity
  8
0
100
AcDbLine
 62
7
  6
CONTINUOUS
 10
54.7731247406
 20
87.5663794323
 11
54.7731247406
 21
87.9119613546
  0
LINE
  5
365
100
AcDbEntity
  8
0
100
AcDbLine
 62
7
  6
CONTINUOUS
 10
54.8213060331
 20
73.1619613546
 11
54.8213008606
 21
64.1832681592
  0
LINE
  5
366
100
AcDbEntity
  8
0
100
AcDbLine
 62
7
  6
CONTINUOUS
 10
55.6231247406
 20
87.6119613546
 11
55.6231247406
 21
87.5663794323
  0
LINE
  5
367
100
AcDbEntity
  8
0
100
AcDbLine
 62
7
  6
CONTINUOUS
 10
55.6231247406
 20
61.3660808887
 11
55.6231247406
 21
61.3119613546
  0
LINE
  5
368
100
AcDbEntity
  8
0
100
AcDbLine
 62
7
  6
CONTINUOUS
 10
55.8310309891
 20
63.5119613546
 11
55.8310309891
 21
63.8119613546
  0
LINE
  5
369
100
AcDbEntity
  8
0
100
AcDbLine
 62
7
  6
CONTINUOUS
 10
55.8310309891
 20
85.1119613546
 11
55.8310309891
 21
85.4119613546
  0
LINE
  5
36A
100
AcDbEntity
  8
0
100
AcDbLine
 62
7
  6
CONTINUOUS
 10
54.7555344449
 20
75.6119613546
 11
54.74008324
 21
75.5965101498
  0
LINE
  5
36B
100
AcDbEntity
  8
0
100
AcDbLine
 62
7
  6
CONTINUOUS
 10
64.0713116184
 20
84.2621121146
 11
64.0223765101
 21
84.2131857156
  0
LINE
  5
36C
100
AcDbEntity
  8
0
100
AcDbLine
 62
7
  6
CONTINUOUS
 10
52.5213116187
 20
75.6023884574
 11
51.6213116187
 21
75.5945342764
  0
LINE
  5
36D
100
AcDbEntity
  8
0
100
AcDbLine
 62
7
  6
CONTINUOUS
 10
58.3483116187
 20
75.3131686153
 11
57.6483116187
 21
75.3131686153
  0
LINE
  5
36E
100
AcDbEntity
  8
0
100
AcDbLine
 62
7
  6
CONTINUOUS
 10
57.5764805228
 20
75.5840332508
 11
57.6483116187
 21
75.5840332508
  0
LINE
  5
36F
100
AcDbEntity
  8
0
100
AcDbLine
 62
7
  6
CONTINUOUS
 10
57.321288772
 20
75.5858074086
 11
50.6804381791
 21
75.5858074086
  0
LINE
  5
370
100
AcDbEntity
  8
0
100
AcDbLine
 62
7
  6
CONTINUOUS
 10
58.3483116187
 20
75.5840332508
 11
63.6213116187
 21
75.5858074086
  0
LINE
  5
371
100
AcDbEntity
  8
0
100
AcDbLine
 62
7
  6
CONTINUOUS
 10
57.5694984968
 20
75.5910152767
 11
57.3169253381
 21
75.5910152767
  0
LINE
  5
372
100
AcDbEntity
  8
0
100
AcDbLine
 62
7
  6
CONTINUOUS
 10
54.6213116187
 20
75.6023884574
 11
52.5213116187
 21
75.6023884574
  0
LINE
  5
373
100
AcDbEntity
  8
0
100
AcDbLine
 62
7
  6
CONTINUOUS
 10
62.7771484258
 20
75.6119613546
 11
61.5713116187
 21
75.6119613546
  0
LINE
  5
374
100
AcDbEntity
  8
0
100
AcDbLine
 62
7
  6
CONTINUOUS
 10
60.6713116187
 20
75.6119613546
 11
58.3483116187
 21
75.6119613546
  0
LINE
  5
375
100
AcDbEntity
  8
0
100
AcDbLine
 62
7
  6
CONTINUOUS
 10
57.6483116187
 20
75.6119613546
 11
56.2703094388
 21
75.6119613546
  0
LINE
  5
376
100
AcDbEntity
  8
0
100
AcDbLine
 62
7
  6
CONTINUOUS
 10
55.9263137986
 20
75.6119613546
 11
54.7555344449
 21
75.6119613546
  0
LINE
  5
377
100
AcDbEntity
  8
0
100
AcDbLine
 62
7
  6
CONTINUOUS
 10
36.872103289
 20
75.6119613546
 11
32.0231247406
 21
75.6119613546
  0
LINE
  5
378
100
AcDbEntity
  8
0
100
AcDbLine
 62
7
  6
CONTINUOUS
 10
73.7231247406
 20
75.6619613546
 11
75.8231247406
 21
75.6619613546
  0
LINE
  5
379
100
AcDbEntity
  8
0
100
AcDbLine
 62
7
  6
CONTINUOUS
 10
82.6231247406
 20
75.6619613546
 11
84.7231247406
 21
75.6619613546
  0
LINE
  5
37A
100
AcDbEntity
  8
0
100
AcDbLine
 62
7
  6
CONTINUOUS
 10
91.5231247406
 20
75.6619613546
 11
93.6231247406
 21
75.6619613546
  0
LINE
  5
37B
100
AcDbEntity
  8
0
100
AcDbLine
 62
7
  6
CONTINUOUS
 10
62.8808630404
 20
75.7131686153
 11
51.2983116187
 21
75.7131686153
  0
LINE
  5
37C
100
AcDbEntity
  8
0
100
AcDbLine
 62
7
  6
CONTINUOUS
 10
88.3231428303
 20
75.9619613546
 11
87.5231428303
 21
75.9619613546
  0
LINE
  5
37D
100
AcDbEntity
  8
0
100
AcDbLine
 62
7
  6
CONTINUOUS
 10
79.4231428303
 20
75.9619613546
 11
78.6231428303
 21
75.9619613546
  0
LINE
  5
37E
100
AcDbEntity
  8
0
100
AcDbLine
 62
7
  6
CONTINUOUS
 10
70.5231428303
 20
75.9619613546
 11
69.7231428303
 21
75.9619613546
  0
LINE
  5
37F
100
AcDbEntity
  8
0
100
AcDbLine
 62
7
  6
CONTINUOUS
 10
69.7231428303
 20
76.1619613546
 11
70.5231428303
 21
76.1619613546
  0
LINE
  5
380
100
AcDbEntity
  8
0
100
AcDbLine
 62
7
  6
CONTINUOUS
 10
78.6231428303
 20
76.1619613546
 11
79.4231428303
 21
76.1619613546
  0
LINE
  5
381
100
AcDbEntity
  8
0
100
AcDbLine
 62
7
  6
CONTINUOUS
 10
87.5231428303
 20
76.1619613546
 11
88.3231428303
 21
76.1619613546
  0
LINE
  5
382
100
AcDbEntity
  8
0
100
AcDbLine
 62
7
  6
CONTINUOUS
 10
37.0742106004
 20
76.2662301605
 11
40.5864676021
 21
76.2662301605
  0
LINE
  5
383
100
AcDbEntity
  8
0
100
AcDbLine
 62
7
  6
CONTINUOUS
 10
40.654531359
 20
76.6687093886
 11
40.6294682431
 21
76.6687093886
  0
LINE
  5
384
100
AcDbEntity
  8
0
100
AcDbLine
 62
7
  6
CONTINUOUS
 10
39.4211290559
 20
77.1333765411
 11
39.5162071819
 21
77.133376541
  0
LINE
  5
385
100
AcDbEntity
  8
0
100
AcDbLine
 62
7
  6
CONTINUOUS
 10
67.6553502944
 20
77.1619613546
 11
69.6231428303
 21
77.1619613546
  0
LINE
  5
386
100
AcDbEntity
  8
0
100
AcDbLine
 62
7
  6
CONTINUOUS
 10
70.6231428303
 20
77.1619613546
 11
72.5909353662
 21
77.1619613546
  0
LINE
  5
387
100
AcDbEntity
  8
0
100
AcDbLine
 62
7
  6
CONTINUOUS
 10
76.5553502944
 20
77.1619613546
 11
78.5231428303
 21
77.1619613546
  0
LINE
  5
388
100
AcDbEntity
  8
0
100
AcDbLine
 62
7
  6
CONTINUOUS
 10
79.5231428303
 20
77.1619613546
 11
81.4909353661
 21
77.1619613546
  0
LINE
  5
389
100
AcDbEntity
  8
0
100
AcDbLine
 62
7
  6
CONTINUOUS
 10
85.4553502945
 20
77.1619613546
 11
87.4231428303
 21
77.1619613546
  0
LINE
  5
38A
100
AcDbEntity
  8
0
100
AcDbLine
 62
7
  6
CONTINUOUS
 10
88.4231428303
 20
77.1619613546
 11
90.3909353662
 21
77.1619613546
  0
LINE
  5
38B
100
AcDbEntity
  8
0
100
AcDbLine
 62
7
  6
CONTINUOUS
 10
56.2173053738
 20
72.5619956276
 11
56.9173010685
 21
71.8680949188
  0
LINE
  5
38C
100
AcDbEntity
  8
0
100
AcDbLine
 62
7
  6
CONTINUOUS
 10
64.0503046139
 20
64.6828617457
 11
64.0713116187
 21
64.6618547409
  0
LINE
  5
38D
100
AcDbEntity
  8
0
100
AcDbLine
 62
7
  6
CONTINUOUS
 10
63.1300382507
 20
65.1032155337
 11
63.1213116187
 21
65.1119966378
  0
LINE
  5
38E
100
AcDbEntity
  8
0
100
AcDbLine
 62
7
  6
CONTINUOUS
 10
55.9231247406
 20
61.0119613546
 11
55.9231247406
 21
61.3660808887
  0
LINE
  5
38F
100
AcDbEntity
  8
0
100
AcDbLine
 62
7
  6
CONTINUOUS
 10
55.9231247406
 20
87.5663794323
 11
55.9231247406
 21
87.9119613546
  0
LINE
  5
390
100
AcDbEntity
  8
0
100
AcDbLine
 62
7
  6
CONTINUOUS
 10
56.2173053738
 20
65.1619956276
 11
56.2173053738
 21
72.5619956276
  0
LINE
  5
391
100
AcDbEntity
  8
0
100
AcDbLine
 62
7
  6
CONTINUOUS
 10
56.8131247406
 20
87.5022353908
 11
56.8131247406
 21
85.502086119
  0
LINE
  5
392
100
AcDbEntity
  8
0
100
AcDbLine
 62
7
  6
CONTINUOUS
 10
56.8131247406
 20
63.430374202
 11
56.8131247406
 21
61.4302249301
  0
LINE
  5
393
100
AcDbEntity
  8
0
100
AcDbLine
 62
7
  6
CONTINUOUS
 10
56.9173053738
 20
71.8680989975
 11
56.9173053738
 21
65.8558922578
  0
LINE
  5
394
100
AcDbEntity
  8
0
100
AcDbLine
 62
7
  6
CONTINUOUS
 10
57.1265109822
 20
71.5549850454
 11
57.1265109818
 21
66.1690007767
  0
LINE
  5
395
100
AcDbEntity
  8
0
100
AcDbLine
 62
7
  6
CONTINUOUS
 10
57.2264957556
 20
66.0690043095
 11
57.2264957556
 21
71.6549793171
  0
LINE
  5
396
100
AcDbEntity
  8
0
100
AcDbLine
 62
7
  6
CONTINUOUS
 10
57.5213116187
 20
74.611988012
 11
57.5213116187
 21
75.3857845619
  0
LINE
  5
397
100
AcDbEntity
  8
0
100
AcDbLine
 62
7
  6
CONTINUOUS
 10
57.5213116187
 20
83.5381914621
 11
57.5213116187
 21
84.311988012
  0
LINE
  5
398
100
AcDbEntity
  8
0
100
AcDbLine
 62
7
  6
CONTINUOUS
 10
57.5510311721
 20
84.311988012
 11
57.5510311721
 21
84.2119613546
  0
LINE
  5
399
100
AcDbEntity
  8
0
100
AcDbLine
 62
7
  6
CONTINUOUS
 10
57.5764805228
 20
74.7689433806
 11
57.5764805228
 21
75.5840332508
  0
LINE
  5
39A
100
AcDbEntity
  8
0
100
AcDbLine
 62
7
  6
CONTINUOUS
 10
57.5764805228
 20
83.3398894585
 11
57.5764805228
 21
84.1549793287
  0
LINE
  5
39B
100
AcDbEntity
  8
0
100
AcDbLine
 62
7
  6
CONTINUOUS
 10
57.6483116187
 20
83.6131686153
 11
57.6483116187
 21
83.2131686153
  0
LINE
  5
39C
100
AcDbEntity
  8
0
100
AcDbLine
 62
7
  6
CONTINUOUS
 10
57.6483116187
 20
75.7131686153
 11
57.6483116187
 21
75.3131686153
  0
LINE
  5
39D
100
AcDbEntity
  8
0
100
AcDbLine
 62
7
  6
CONTINUOUS
 10
57.9010311721
 20
84.2119613546
 11
57.9010311721
 21
84.311988012
  0
LINE
  5
39E
100
AcDbEntity
  8
0
100
AcDbLine
 62
7
  6
CONTINUOUS
 10
58.1283116187
 20
78.0531686153
 11
58.1283116187
 21
80.8531686153
  0
LINE
  5
39F
100
AcDbEntity
  8
0
100
AcDbLine
 62
7
  6
CONTINUOUS
 10
58.2010311721
 20
84.311988012
 11
58.2010311721
 21
84.2119613546
  0
LINE
  5
3A0
100
AcDbEntity
  8
0
100
AcDbLine
 62
7
  6
CONTINUOUS
 10
58.3483116187
 20
75.3131686153
 11
58.3483116187
 21
75.7131686153
  0
LINE
  5
3A1
100
AcDbEntity
  8
0
100
AcDbLine
 62
7
  6
CONTINUOUS
 10
58.3483116187
 20
83.2131686153
 11
58.3483116187
 21
83.6131686153
  0
LINE
  5
3A2
100
AcDbEntity
  8
0
100
AcDbLine
 62
7
  6
CONTINUOUS
 10
58.4666761845
 20
78.2131686153
 11
58.4666761845
 21
80.7131686153
  0
LINE
  5
3A3
100
AcDbEntity
  8
0
100
AcDbLine
 62
7
  6
CONTINUOUS
 10
58.5510311721
 20
84.2119613546
 11
58.5510311721
 21
84.311988012
  0
LINE
  5
3A4
100
AcDbEntity
  8
0
100
AcDbLine
 62
7
  6
CONTINUOUS
 10
58.5631247406
 20
62.1662301605
 11
58.5631247406
 21
63.4089928548
  0
LINE
  5
3A5
100
AcDbEntity
  8
0
100
AcDbLine
 62
7
  6
CONTINUOUS
 10
58.5631247406
 20
85.5234674662
 11
58.5631247406
 21
86.7662301605
  0
LINE
  5
3A6
100
AcDbEntity
  8
0
100
AcDbLine
 62
7
  6
CONTINUOUS
 10
58.6213116187
 20
75.385457497
 11
58.6213116187
 21
74.611988012
  0
LINE
  5
3A7
100
AcDbEntity
  8
0
100
AcDbLine
 62
7
  6
CONTINUOUS
 10
58.6213116187
 20
83.5385185269
 11
58.6213116187
 21
84.311988012
  0
LINE
  5
3A8
100
AcDbEntity
  8
0
100
AcDbLine
 62
7
  6
CONTINUOUS
 10
40.5864676021
 20
64.0113359491
 11
39.7378876595
 21
63.6593473779
  0
LINE
  5
3A9
100
AcDbEntity
  8
0
100
AcDbLine
 62
7
  6
CONTINUOUS
 10
15.0263736497
 20
77.8619606938
 11
14.1263736579
 21
77.8619606712
  0
LINE
  5
3AA
100
AcDbEntity
  8
0
100
AcDbLine
 62
7
  6
CONTINUOUS
 10
31.6231247406
 20
77.9119613546
 11
33.6231247406
 21
77.9119613546
  0
LINE
  5
3AB
100
AcDbEntity
  8
0
100
AcDbLine
 62
7
  6
CONTINUOUS
 10
67.6553502944
 20
77.9619613546
 11
69.6231428303
 21
77.9619613546
  0
LINE
  5
3AC
100
AcDbEntity
  8
0
100
AcDbLine
 62
7
  6
CONTINUOUS
 10
70.6231428303
 20
77.9619613546
 11
72.5909353662
 21
77.9619613546
  0
LINE
  5
3AD
100
AcDbEntity
  8
0
100
AcDbLine
 62
7
  6
CONTINUOUS
 10
76.5553502944
 20
77.9619613546
 11
78.5231428303
 21
77.9619613546
  0
LINE
  5
3AE
100
AcDbEntity
  8
0
100
AcDbLine
 62
7
  6
CONTINUOUS
 10
79.5231428303
 20
77.9619613546
 11
81.4909353661
 21
77.9619613546
  0
LINE
  5
3AF
100
AcDbEntity
  8
0
100
AcDbLine
 62
7
  6
CONTINUOUS
 10
85.4553502945
 20
77.9619613546
 11
87.4231428303
 21
77.9619613546
  0
LINE
  5
3B0
100
AcDbEntity
  8
0
100
AcDbLine
 62
7
  6
CONTINUOUS
 10
88.4231428303
 20
77.9619613546
 11
90.3909353662
 21
77.9619613546
  0
LINE
  5
3B1
100
AcDbEntity
  8
0
100
AcDbLine
 62
7
  6
CONTINUOUS
 10
33.5731428303
 20
78.0119613546
 11
31.6731428303
 21
78.0119613546
  0
LINE
  5
3B2
100
AcDbEntity
  8
0
100
AcDbLine
 62
7
  6
CONTINUOUS
 10
58.1283116187
 20
78.0531686153
 11
62.8808630404
 21
78.0531686153
  0
LINE
  5
3B3
100
AcDbEntity
  8
0
100
AcDbLine
 62
7
  6
CONTINUOUS
 10
62.6666761845
 20
78.2131686153
 11
58.4666761845
 21
78.2131686153
  0
LINE
  5
3B4
100
AcDbEntity
  8
0
100
AcDbLine
 62
7
  6
CONTINUOUS
 10
31.6731428303
 20
78.4119613546
 11
33.5731428303
 21
78.4119613546
  0
LINE
  5
3B5
100
AcDbEntity
  8
0
100
AcDbLine
 62
7
  6
CONTINUOUS
 10
39.5162071819
 20
78.5906004011
 11
39.4211736359
 21
78.5906004119
  0
LINE
  5
3B6
100
AcDbEntity
  8
0
100
AcDbLine
 62
7
  6
CONTINUOUS
 10
33.6231247406
 20
78.7119613546
 11
31.6231247406
 21
78.7119613546
  0
LINE
  5
3B7
100
AcDbEntity
  8
0
100
AcDbLine
 62
7
  6
CONTINUOUS
 10
88.3231428303
 20
78.9619613546
 11
87.5231428303
 21
78.9619613546
  0
LINE
  5
3B8
100
AcDbEntity
  8
0
100
AcDbLine
 62
7
  6
CONTINUOUS
 10
79.4231428303
 20
78.9619613546
 11
78.6231428303
 21
78.9619613546
  0
LINE
  5
3B9
100
AcDbEntity
  8
0
100
AcDbLine
 62
7
  6
CONTINUOUS
 10
70.5231428303
 20
78.9619613546
 11
69.7231428303
 21
78.9619613546
  0
LINE
  5
3BA
100
AcDbEntity
  8
0
100
AcDbLine
 62
7
  6
CONTINUOUS
 10
69.7231428303
 20
79.1619613546
 11
70.5231428303
 21
79.1619613546
  0
LINE
  5
3BB
100
AcDbEntity
  8
0
100
AcDbLine
 62
7
  6
CONTINUOUS
 10
78.6231428303
 20
79.1619613546
 11
79.4231428303
 21
79.1619613546
  0
LINE
  5
3BC
100
AcDbEntity
  8
0
100
AcDbLine
 62
7
  6
CONTINUOUS
 10
87.5231428303
 20
79.1619613546
 11
88.3231428303
 21
79.1619613546
  0
LINE
  5
3BD
100
AcDbEntity
  8
0
100
AcDbLine
 62
7
  6
CONTINUOUS
 10
39.4278877853
 20
79.4619613546
 11
39.5162071819
 21
79.4619613546
  0
LINE
  5
3BE
100
AcDbEntity
  8
0
100
AcDbLine
 62
7
  6
CONTINUOUS
 10
93.6231247406
 20
79.6619613546
 11
91.5231247406
 21
79.6619613546
  0
LINE
  5
3BF
100
AcDbEntity
  8
0
100
AcDbLine
 62
7
  6
CONTINUOUS
 10
84.7231247406
 20
79.6619613546
 11
82.6231247406
 21
79.6619613546
  0
LINE
  5
3C0
100
AcDbEntity
  8
0
100
AcDbLine
 62
7
  6
CONTINUOUS
 10
75.8231247406
 20
79.6619613546
 11
73.7231247406
 21
79.6619613546
  0
LINE
  5
3C1
100
AcDbEntity
  8
0
100
AcDbLine
 62
7
  6
CONTINUOUS
 10
62.6666761845
 20
80.0869613546
 11
62.7666761845
 21
80.0869613546
  0
LINE
  5
3C2
100
AcDbEntity
  8
0
100
AcDbLine
 62
7
  6
CONTINUOUS
 10
39.4213046954
 20
80.1089300358
 11
39.5162071819
 21
80.1089300358
  0
LINE
  5
3C3
100
AcDbEntity
  8
0
100
AcDbLine
 62
7
  6
CONTINUOUS
 10
39.5162071819
 20
80.501988012
 11
39.4169792005
 21
80.501988012
  0
LINE
  5
3C4
100
AcDbEntity
  8
0
100
AcDbLine
 62
7
  6
CONTINUOUS
 10
40.5864676021
 20
84.9211243719
 11
39.7378876595
 21
85.2731129431
  0
LINE
  5
3C5
100
AcDbEntity
  8
0
100
AcDbLine
 62
7
  6
CONTINUOUS
 10
58.9231247406
 20
62.9119613546
 11
58.9231247406
 21
63.5119613546
  0
LINE
  5
3C6
100
AcDbEntity
  8
0
100
AcDbLine
 62
7
  6
CONTINUOUS
 10
58.9231247406
 20
85.4119613546
 11
58.9231247406
 21
86.0119613546
  0
LINE
  5
3C7
100
AcDbEntity
  8
0
100
AcDbLine
 62
7
  6
CONTINUOUS
 10
59.4666761845
 20
78.2131686153
 11
59.4666761845
 21
80.7131686153
  0
LINE
  5
3C8
100
AcDbEntity
  8
0
100
AcDbLine
 62
7
  6
CONTINUOUS
 10
60.012501238
 20
71.6549793171
 11
60.012501238
 21
66.0690043095
  0
LINE
  5
3C9
100
AcDbEntity
  8
0
100
AcDbLine
 62
7
  6
CONTINUOUS
 10
60.1124860108
 20
66.1689985689
 11
60.1124860087
 21
71.5549933268
  0
LINE
  5
3CA
100
AcDbEntity
  8
0
100
AcDbLine
 62
7
  6
CONTINUOUS
 10
60.3295229888
 20
65.8558922578
 11
60.3295229888
 21
71.8680989975
  0
LINE
  5
3CB
100
AcDbEntity
  8
0
100
AcDbLine
 62
7
  6
CONTINUOUS
 10
61.0295229888
 20
72.5619956276
 11
61.0295229888
 21
65.1619956276
  0
LINE
  5
3CC
100
AcDbEntity
  8
0
100
AcDbLine
 62
7
  6
CONTINUOUS
 10
61.6650562013
 20
86.7662301605
 11
61.6650562013
 21
86.0119613546
  0
LINE
  5
3CD
100
AcDbEntity
  8
0
100
AcDbLine
 62
7
  6
CONTINUOUS
 10
61.6650562013
 20
62.9119613546
 11
61.6650562013
 21
62.1662301605
  0
LINE
  5
3CE
100
AcDbEntity
  8
0
100
AcDbLine
 62
7
  6
CONTINUOUS
 10
60.0195137273
 20
71.6619918203
 11
60.012577329
 21
71.6549793078
  0
LINE
  5
3CF
100
AcDbEntity
  8
0
100
AcDbLine
 62
7
  6
CONTINUOUS
 10
57.1194984967
 20
66.1619793927
 11
57.1265109818
 21
66.1690007767
  0
LINE
  5
3D0
100
AcDbEntity
  8
0
100
AcDbLine
 62
7
  6
CONTINUOUS
 10
60.1194984969
 20
71.562005516
 11
60.1124860087
 21
71.5549933268
  0
LINE
  5
3D1
100
AcDbEntity
  8
0
100
AcDbLine
 62
7
  6
CONTINUOUS
 10
61.0295229888
 20
72.5619956276
 11
60.3295317642
 21
71.8680989975
  0
LINE
  5
3D2
100
AcDbEntity
  8
0
100
AcDbLine
 62
7
  6
CONTINUOUS
 10
39.7378876595
 20
61.659198106
 11
40.7131247406
 21
62.0637237017
  0
LINE
  5
3D3
100
AcDbEntity
  8
0
100
AcDbLine
 62
7
  6
CONTINUOUS
 10
62.6666761845
 20
80.6869613546
 11
62.7666761845
 21
80.6869613546
  0
LINE
  5
3D4
100
AcDbEntity
  8
0
100
AcDbLine
 62
7
  6
CONTINUOUS
 10
58.4666761845
 20
80.7131686153
 11
62.6666761845
 21
80.7131686153
  0
LINE
  5
3D5
100
AcDbEntity
  8
0
100
AcDbLine
 62
7
  6
CONTINUOUS
 10
58.1283116187
 20
80.8531686153
 11
62.8808630404
 21
80.8531686153
  0
LINE
  5
3D6
100
AcDbEntity
  8
0
100
AcDbLine
 62
7
  6
CONTINUOUS
 10
39.4104340497
 20
80.9685331628
 11
39.5162071819
 21
80.9685331628
  0
LINE
  5
3D7
100
AcDbEntity
  8
0
100
AcDbLine
 62
7
  6
CONTINUOUS
 10
17.5231247406
 20
82.0619613546
 11
15.0231247406
 21
82.0619613546
  0
LINE
  5
3D8
100
AcDbEntity
  8
0
100
AcDbLine
 62
7
  6
CONTINUOUS
 10
73.7231247406
 20
82.0619613546
 11
75.8231247406
 21
82.0619613546
  0
LINE
  5
3D9
100
AcDbEntity
  8
0
100
AcDbLine
 62
7
  6
CONTINUOUS
 10
82.6231247406
 20
82.0619613546
 11
84.7231247406
 21
82.0619613546
  0
LINE
  5
3DA
100
AcDbEntity
  8
0
100
AcDbLine
 62
7
  6
CONTINUOUS
 10
91.5231247406
 20
82.0619613546
 11
93.6231247406
 21
82.0619613546
  0
LINE
  5
3DB
100
AcDbEntity
  8
0
100
AcDbLine
 62
7
  6
CONTINUOUS
 10
15.0231247406
 20
82.3619618408
 11
14.1263801589
 21
82.3619674731
  0
LINE
  5
3DC
100
AcDbEntity
  8
0
100
AcDbLine
 62
7
  6
CONTINUOUS
 10
88.3231428303
 20
82.3619613546
 11
87.5231428303
 21
82.3619613546
  0
LINE
  5
3DD
100
AcDbEntity
  8
0
100
AcDbLine
 62
7
  6
CONTINUOUS
 10
79.4231428303
 20
82.3619613546
 11
78.6231428303
 21
82.3619613546
  0
LINE
  5
3DE
100
AcDbEntity
  8
0
100
AcDbLine
 62
7
  6
CONTINUOUS
 10
70.5231428303
 20
82.3619613546
 11
69.7231428303
 21
82.3619613546
  0
LINE
  5
3DF
100
AcDbEntity
  8
0
100
AcDbLine
 62
7
  6
CONTINUOUS
 10
21.5231247406
 20
82.3619613546
 11
20.7231247406
 21
82.3619613546
  0
LINE
  5
3E0
100
AcDbEntity
  8
0
100
AcDbLine
 62
7
  6
CONTINUOUS
 10
20.7231247406
 20
82.5619613546
 11
21.5231247406
 21
82.5619613546
  0
LINE
  5
3E1
100
AcDbEntity
  8
0
100
AcDbLine
 62
7
  6
CONTINUOUS
 10
69.7231428303
 20
82.5619613546
 11
70.5231428303
 21
82.5619613546
  0
LINE
  5
3E2
100
AcDbEntity
  8
0
100
AcDbLine
 62
7
  6
CONTINUOUS
 10
78.6231428303
 20
82.5619613546
 11
79.4231428303
 21
82.5619613546
  0
LINE
  5
3E3
100
AcDbEntity
  8
0
100
AcDbLine
 62
7
  6
CONTINUOUS
 10
87.5231428303
 20
82.5619613546
 11
88.3231428303
 21
82.5619613546
  0
LINE
  5
3E4
100
AcDbEntity
  8
0
100
AcDbLine
 62
7
  6
CONTINUOUS
 10
51.2983116187
 20
83.2131686153
 11
62.8808630404
 21
83.2131686153
  0
LINE
  5
3E5
100
AcDbEntity
  8
0
100
AcDbLine
 62
7
  6
CONTINUOUS
 10
62.7771484258
 20
83.3119613546
 11
61.5713116187
 21
83.3119613546
  0
LINE
  5
3E6
100
AcDbEntity
  8
0
100
AcDbLine
 62
7
  6
CONTINUOUS
 10
60.6713116187
 20
83.3119613546
 11
58.3483116187
 21
83.3119613546
  0
LINE
  5
3E7
100
AcDbEntity
  8
0
100
AcDbLine
 62
7
  6
CONTINUOUS
 10
57.6483116187
 20
83.3119613546
 11
56.271840184
 21
83.3119613546
  0
LINE
  5
3E8
100
AcDbEntity
  8
0
100
AcDbLine
 62
7
  6
CONTINUOUS
 10
55.9247830534
 20
83.3119613546
 11
54.7555344449
 21
83.3119613546
  0
LINE
  5
3E9
100
AcDbEntity
  8
0
100
AcDbLine
 62
7
  6
CONTINUOUS
 10
52.5213116187
 20
83.3215875665
 11
54.6213116187
 21
83.3215875665
  0
LINE
  5
3EA
100
AcDbEntity
  8
0
100
AcDbLine
 62
7
  6
CONTINUOUS
 10
57.3169253381
 20
83.3329074554
 11
57.5695793399
 21
83.3329074572
  0
LINE
  5
3EB
100
AcDbEntity
  8
0
100
AcDbLine
 62
7
  6
CONTINUOUS
 10
50.6804381791
 20
83.3381686153
 11
57.321288772
 21
83.3381686153
  0
LINE
  5
3EC
100
AcDbEntity
  8
0
100
AcDbLine
 62
7
  6
CONTINUOUS
 10
63.6213116187
 20
83.3381686153
 11
58.3483116187
 21
83.3398894585
  0
LINE
  5
3ED
100
AcDbEntity
  8
0
100
AcDbLine
 62
7
  6
CONTINUOUS
 10
57.6483116187
 20
83.3398894585
 11
57.5764805228
 21
83.3398894585
  0
LINE
  5
3EE
100
AcDbEntity
  8
0
100
AcDbLine
 62
7
  6
CONTINUOUS
 10
18.6553322047
 20
83.5619613546
 11
20.6231247406
 21
83.5619613546
  0
LINE
  5
3EF
100
AcDbEntity
  8
0
100
AcDbLine
 62
7
  6
CONTINUOUS
 10
21.6231247406
 20
83.5619613546
 11
23.5909172764
 21
83.5619613546
  0
LINE
  5
3F0
100
AcDbEntity
  8
0
100
AcDbLine
 62
7
  6
CONTINUOUS
 10
67.6553502944
 20
83.5619613546
 11
69.6231428303
 21
83.5619613546
  0
LINE
  5
3F1
100
AcDbEntity
  8
0
100
AcDbLine
 62
7
  6
CONTINUOUS
 10
70.6231428303
 20
83.5619613546
 11
72.5909353662
 21
83.5619613546
  0
LINE
  5
3F2
100
AcDbEntity
  8
0
100
AcDbLine
 62
7
  6
CONTINUOUS
 10
76.5553502944
 20
83.5619613546
 11
78.5231428303
 21
83.5619613546
  0
LINE
  5
3F3
100
AcDbEntity
  8
0
100
AcDbLine
 62
7
  6
CONTINUOUS
 10
79.5231428303
 20
83.5619613546
 11
81.4909353661
 21
83.5619613546
  0
LINE
  5
3F4
100
AcDbEntity
  8
0
100
AcDbLine
 62
7
  6
CONTINUOUS
 10
85.4553502945
 20
83.5619613546
 11
87.4231428303
 21
83.5619613546
  0
LINE
  5
3F5
100
AcDbEntity
  8
0
100
AcDbLine
 62
7
  6
CONTINUOUS
 10
88.4231428303
 20
83.5619613546
 11
90.3909353662
 21
83.5619613546
  0
LINE
  5
3F6
100
AcDbEntity
  8
0
100
AcDbLine
 62
7
  6
CONTINUOUS
 10
51.6213116187
 20
83.3294417476
 11
52.5213116187
 21
83.3215875665
  0
LINE
  5
3F7
100
AcDbEntity
  8
0
100
AcDbLine
 62
7
  6
CONTINUOUS
 10
40.7043951504
 20
86.8723576287
 11
39.7378876595
 21
87.2732622149
  0
LINE
  5
3F8
100
AcDbEntity
  8
0
100
AcDbLine
 62
7
  6
CONTINUOUS
 10
54.7555344449
 20
83.3119613546
 11
54.7400324413
 21
83.32746336
  0
LINE
  5
3F9
100
AcDbEntity
  8
0
100
AcDbLine
 62
7
  6
CONTINUOUS
 10
63.8378170481
 20
73.2205399983
 11
63.8224069713
 21
74.1033827108
  0
LINE
  5
3FA
100
AcDbEntity
  8
0
100
AcDbLine
 62
7
  6
CONTINUOUS
 10
64.0223765102
 20
74.2448040695
 11
64.0377865872
 21
73.3619613546
  0
LINE
  5
3FB
100
AcDbEntity
  8
0
100
AcDbLine
 62
7
  6
CONTINUOUS
 10
64.0707956529
 20
78.6843944567
 11
64.1444984968
 21
74.4619613546
  0
LINE
  5
3FC
100
AcDbEntity
  8
0
100
AcDbLine
 62
7
  6
CONTINUOUS
 10
64.1945208396
 20
74.4617721967
 11
64.0710593361
 21
81.5348769947
  0
LINE
  5
3FD
100
AcDbEntity
  8
0
100
AcDbLine
 62
7
  6
CONTINUOUS
 10
61.721272548
 20
65.1119966502
 11
61.7212725494
 21
72.612002376
  0
LINE
  5
3FE
100
AcDbEntity
  8
0
100
AcDbLine
 62
7
  6
CONTINUOUS
 10
61.9231247406
 20
86.0119613546
 11
61.9231247406
 21
85.4119613546
  0
LINE
  5
3FF
100
AcDbEntity
  8
0
100
AcDbLine
 62
7
  6
CONTINUOUS
 10
61.9231247406
 20
63.5119613546
 11
61.9231247406
 21
62.9119613546
  0
LINE
  5
400
100
AcDbEntity
  8
0
100
AcDbLine
 62
7
  6
CONTINUOUS
 10
62.5944541515
 20
75.7131686153
 11
62.5944541515
 21
78.0531686153
  0
LINE
  5
401
100
AcDbEntity
  8
0
100
AcDbLine
 62
7
  6
CONTINUOUS
 10
62.5944541515
 20
80.8531686153
 11
62.5944541515
 21
83.2131686153
  0
LINE
  5
402
100
AcDbEntity
  8
0
100
AcDbLine
 62
7
  6
CONTINUOUS
 10
62.6666761845
 20
78.0531686153
 11
62.6666761845
 21
80.8531686153
  0
LINE
  5
403
100
AcDbEntity
  8
0
100
AcDbLine
 62
7
  6
CONTINUOUS
 10
62.7666761845
 20
83.3329074326
 11
62.7666761845
 21
83.2131686153
  0
LINE
  5
404
100
AcDbEntity
  8
0
100
AcDbLine
 62
7
  6
CONTINUOUS
 10
62.7666761845
 20
80.8531686153
 11
62.7666761845
 21
78.0531686153
  0
LINE
  5
405
100
AcDbEntity
  8
0
100
AcDbLine
 62
7
  6
CONTINUOUS
 10
62.7666761845
 20
75.7131686153
 11
62.7666761845
 21
75.5910152767
  0
LINE
  5
406
100
AcDbEntity
  8
0
100
AcDbLine
 62
7
  6
CONTINUOUS
 10
62.8699368408
 20
83.2131686153
 11
62.8699368408
 21
80.8531686153
  0
LINE
  5
407
100
AcDbEntity
  8
0
100
AcDbLine
 62
7
  6
CONTINUOUS
 10
62.8699368408
 20
78.0531686153
 11
62.8699368408
 21
75.7131686153
  0
LINE
  5
408
100
AcDbEntity
  8
0
100
AcDbLine
 62
7
  6
CONTINUOUS
 10
62.8808630404
 20
83.2131686153
 11
62.8808630404
 21
80.8531686153
  0
LINE
  5
409
100
AcDbEntity
  8
0
100
AcDbLine
 62
7
  6
CONTINUOUS
 10
62.8808630404
 20
78.0531686153
 11
62.8808630404
 21
75.7131686153
  0
LINE
  5
40A
100
AcDbEntity
  8
0
100
AcDbLine
 62
7
  6
CONTINUOUS
 10
62.9944984968
 20
75.5901708428
 11
62.9944984968
 21
83.3338051812
  0
LINE
  5
40B
100
AcDbEntity
  8
0
100
AcDbLine
 62
7
  6
CONTINUOUS
 10
63.1213116187
 20
72.6120023884
 11
63.1213116187
 21
65.1119966378
  0
LINE
  5
40C
100
AcDbEntity
  8
0
100
AcDbLine
 62
7
  6
CONTINUOUS
 10
63.1300383255
 20
65.1032156081
 11
63.1300383255
 21
72.6207834181
  0
LINE
  5
40D
100
AcDbEntity
  8
0
100
AcDbLine
 62
7
  6
CONTINUOUS
 10
63.1430682407
 20
75.5902146885
 11
63.1430682408
 21
83.333757972
  0
LINE
  5
40E
100
AcDbEntity
  8
0
100
AcDbLine
 62
7
  6
CONTINUOUS
 10
63.3224831237
 20
84.9130795607
 11
63.3224831237
 21
84.713110022
  0
LINE
  5
40F
100
AcDbEntity
  8
0
100
AcDbLine
 62
7
  6
CONTINUOUS
 10
63.3504112273
 20
64.1832242071
 11
63.3504112276
 21
63.9829683593
  0
LINE
  5
410
100
AcDbEntity
  8
0
100
AcDbLine
 62
7
  6
CONTINUOUS
 10
63.4150562013
 20
62.1662301605
 11
63.4150562013
 21
63.3876115076
  0
LINE
  5
411
100
AcDbEntity
  8
0
100
AcDbLine
 62
7
  6
CONTINUOUS
 10
63.4150562013
 20
85.5448488133
 11
63.4150562013
 21
86.7662301605
  0
LINE
  5
412
100
AcDbEntity
  8
0
100
AcDbLine
 62
7
  6
CONTINUOUS
 10
63.6213116187
 20
83.3381686153
 11
63.6213116187
 21
75.5858074086
  0
LINE
  5
413
100
AcDbEntity
  8
0
100
AcDbLine
 62
7
  6
CONTINUOUS
 10
63.8224069713
 20
84.2131861744
 11
63.8224069713
 21
74.1033827108
  0
LINE
  5
414
100
AcDbEntity
  8
0
100
AcDbLine
 62
7
  6
CONTINUOUS
 10
63.8378170482
 20
73.2205399983
 11
63.8378170482
 21
73.1619613546
  0
LINE
  5
415
100
AcDbEntity
  8
0
100
AcDbLine
 62
7
  6
CONTINUOUS
 10
63.8503350752
 20
73.1619613546
 11
63.8503350752
 21
64.6828617457
  0
LINE
  5
416
100
AcDbEntity
  8
0
100
AcDbLine
 62
7
  6
CONTINUOUS
 10
64.0223765102
 20
74.2448040695
 11
64.0223765101
 21
84.2131857156
  0
LINE
  5
417
100
AcDbEntity
  8
0
100
AcDbLine
 62
7
  6
CONTINUOUS
 10
64.0503046139
 20
64.6828617457
 11
64.0503046141
 21
73.3619613514
  0
LINE
  5
418
100
AcDbEntity
  8
0
100
AcDbLine
 62
7
  6
CONTINUOUS
 10
64.0713116166
 20
84.2620928698
 11
64.0713116186
 21
64.6618547402
  0
LINE
  5
419
100
AcDbEntity
  8
0
100
AcDbLine
 62
7
  6
CONTINUOUS
 10
64.0707956547
 20
70.2395283597
 11
64.1444984968
 21
74.4619613546
  0
LINE
  5
41A
100
AcDbEntity
  8
0
100
AcDbLine
 62
7
  6
CONTINUOUS
 10
64.0710593392
 20
67.3890458941
 11
64.1945165983
 21
74.4619075292
  0
LINE
  5
41B
100
AcDbEntity
  8
0
100
AcDbLine
 62
7
  6
CONTINUOUS
 10
57.2194836431
 20
66.0619918204
 11
57.2264957556
 21
66.0690043095
  0
LINE
  5
41C
100
AcDbEntity
  8
0
100
AcDbLine
 62
7
  6
CONTINUOUS
 10
56.2173053738
 20
65.1619956276
 11
56.9172965984
 21
65.8558922578
  0
LINE
  5
41D
100
AcDbEntity
  8
0
100
AcDbLine
 62
7
  6
CONTINUOUS
 10
56.8131284766
 20
85.502086119
 11
47.0004921466
 21
84.9211243719
  0
LINE
  5
41E
100
AcDbEntity
  8
0
100
AcDbLine
 62
7
  6
CONTINUOUS
 10
57.6483116187
 20
83.6131686153
 11
58.3483116187
 21
83.6131686153
  0
LINE
  5
41F
100
AcDbEntity
  8
0
100
AcDbLine
 62
7
  6
CONTINUOUS
 10
40.5864676021
 20
83.7207148798
 11
40.0162071819
 21
83.7207148798
  0
LINE
  5
420
100
AcDbEntity
  8
0
100
AcDbLine
 62
7
  6
CONTINUOUS
 10
39.6604293307
 20
83.8619880121
 11
40.5864676021
 21
83.8619880121
  0
LINE
  5
421
100
AcDbEntity
  8
0
100
AcDbLine
 62
7
  6
CONTINUOUS
 10
40.5864676021
 20
83.8707148799
 11
39.6517024627
 21
83.8707148799
  0
LINE
  5
422
100
AcDbEntity
  8
0
100
AcDbLine
 62
7
  6
CONTINUOUS
 10
57.5708884087
 20
83.9619613546
 11
57.5213116187
 21
83.9619613546
  0
LINE
  5
423
100
AcDbEntity
  8
0
100
AcDbLine
 62
7
  6
CONTINUOUS
 10
57.5764805228
 20
84.1549793287
 11
58.6213116187
 21
84.1549793287
  0
LINE
  5
424
100
AcDbEntity
  8
0
100
AcDbLine
 62
7
  6
CONTINUOUS
 10
58.6213116187
 20
84.2119613546
 11
58.5510311721
 21
84.2119613546
  0
LINE
  5
425
100
AcDbEntity
  8
0
100
AcDbLine
 62
7
  6
CONTINUOUS
 10
58.2010311721
 20
84.2119613546
 11
57.9010311721
 21
84.2119613546
  0
LINE
  5
426
100
AcDbEntity
  8
0
100
AcDbLine
 62
7
  6
CONTINUOUS
 10
57.5510311721
 20
84.2119613546
 11
57.5213116187
 21
84.2119613546
  0
LINE
  5
427
100
AcDbEntity
  8
0
100
AcDbLine
 62
7
  6
CONTINUOUS
 10
36.9202314946
 20
84.2131861744
 11
37.1202010333
 21
84.2131861744
  0
LINE
  5
428
100
AcDbEntity
  8
0
100
AcDbLine
 62
7
  6
CONTINUOUS
 10
63.8224069713
 20
84.2131861744
 11
64.0223765102
 21
84.2131861744
  0
LINE
  5
429
100
AcDbEntity
  8
0
100
AcDbLine
 62
7
  6
CONTINUOUS
 10
58.6213116187
 20
84.311988012
 11
57.5213116187
 21
84.311988012
  0
LINE
  5
42A
100
AcDbEntity
  8
0
100
AcDbLine
 62
7
  6
CONTINUOUS
 10
18.6553322047
 20
84.3619613546
 11
20.6231247406
 21
84.3619613546
  0
LINE
  5
42B
100
AcDbEntity
  8
0
100
AcDbLine
 62
7
  6
CONTINUOUS
 10
21.6231247406
 20
84.3619613546
 11
23.5909172764
 21
84.3619613546
  0
LINE
  5
42C
100
AcDbEntity
  8
0
100
AcDbLine
 62
7
  6
CONTINUOUS
 10
67.6553502944
 20
84.3619613546
 11
69.6231428303
 21
84.3619613546
  0
LINE
  5
42D
100
AcDbEntity
  8
0
100
AcDbLine
 62
7
  6
CONTINUOUS
 10
70.6231428303
 20
84.3619613546
 11
72.5909353662
 21
84.3619613546
  0
LINE
  5
42E
100
AcDbEntity
  8
0
100
AcDbLine
 62
7
  6
CONTINUOUS
 10
76.5553502944
 20
84.3619613546
 11
78.5231428303
 21
84.3619613546
  0
LINE
  5
42F
100
AcDbEntity
  8
0
100
AcDbLine
 62
7
  6
CONTINUOUS
 10
79.5231428303
 20
84.3619613546
 11
81.4909353661
 21
84.3619613546
  0
LINE
  5
430
100
AcDbEntity
  8
0
100
AcDbLine
 62
7
  6
CONTINUOUS
 10
85.4553502945
 20
84.3619613546
 11
87.4231428303
 21
84.3619613546
  0
LINE
  5
431
100
AcDbEntity
  8
0
100
AcDbLine
 62
7
  6
CONTINUOUS
 10
88.4231428303
 20
84.3619613546
 11
90.3909353662
 21
84.3619613546
  0
LINE
  5
432
100
AcDbEntity
  8
0
100
AcDbLine
 62
7
  6
CONTINUOUS
 10
40.6294681713
 20
84.463764561
 11
40.6545307431
 21
84.4637645096
  0
LINE
  5
433
100
AcDbEntity
  8
0
100
AcDbLine
 62
7
  6
CONTINUOUS
 10
37.6201248809
 20
84.713110022
 11
40.5864676021
 21
84.713110022
  0
LINE
  5
434
100
AcDbEntity
  8
0
100
AcDbLine
 62
7
  6
CONTINUOUS
 10
47.0004921466
 20
84.713110022
 11
63.3224831237
 21
84.713110022
  0
LINE
  5
435
100
AcDbEntity
  8
0
100
AcDbLine
 62
7
  6
CONTINUOUS
 10
63.3224829147
 20
84.9130795607
 11
47.0004921466
 21
84.9130795607
  0
LINE
  5
436
100
AcDbEntity
  8
0
100
AcDbLine
 62
7
  6
CONTINUOUS
 10
40.5864676021
 20
84.9130795607
 11
37.6201249987
 21
84.9130795607
  0
LINE
  5
437
100
AcDbEntity
  8
0
100
AcDbLine
 62
7
  6
CONTINUOUS
 10
37.5477558041
 20
84.9619613546
 11
40.4880171202
 21
84.9619613546
  0
LINE
  5
438
100
AcDbEntity
  8
0
100
AcDbLine
 62
7
  6
CONTINUOUS
 10
47.6902423105
 20
84.9619613546
 11
63.3948674242
 21
84.9619613546
  0
LINE
  5
439
100
AcDbEntity
  8
0
100
AcDbLine
 62
7
  6
CONTINUOUS
 10
35.1242984229
 20
85.1119613546
 11
40.126394608
 21
85.1119613546
  0
LINE
  5
43A
100
AcDbEntity
  8
0
100
AcDbLine
 62
7
  6
CONTINUOUS
 10
55.8310309891
 20
85.1119613546
 11
65.8231247406
 21
85.1119613546
  0
LINE
  5
43B
100
AcDbEntity
  8
0
100
AcDbLine
 62
7
  6
CONTINUOUS
 10
88.3231428303
 20
85.3619613546
 11
87.5231428303
 21
85.3619613546
  0
LINE
  5
43C
100
AcDbEntity
  8
0
100
AcDbLine
 62
7
  6
CONTINUOUS
 10
79.4231428303
 20
85.3619613546
 11
78.6231428303
 21
85.3619613546
  0
LINE
  5
43D
100
AcDbEntity
  8
0
100
AcDbLine
 62
7
  6
CONTINUOUS
 10
70.5231428303
 20
85.3619613546
 11
69.7231428303
 21
85.3619613546
  0
LINE
  5
43E
100
AcDbEntity
  8
0
100
AcDbLine
 62
7
  6
CONTINUOUS
 10
21.5231247406
 20
85.3619613546
 11
20.7231247406
 21
85.3619613546
  0
LINE
  5
43F
100
AcDbEntity
  8
0
100
AcDbLine
 62
7
  6
CONTINUOUS
 10
65.8231247406
 20
85.4119613546
 11
55.8310309891
 21
85.4119613546
  0
LINE
  5
440
100
AcDbEntity
  8
0
100
AcDbLine
 62
7
  6
CONTINUOUS
 10
36.8097877219
 20
85.4119613546
 11
35.5113696573
 21
85.4119613546
  0
LINE
  5
441
100
AcDbEntity
  8
0
100
AcDbLine
 62
7
  6
CONTINUOUS
 10
58.9231247406
 20
85.5234674662
 11
58.5630681599
 21
85.5234674662
  0
LINE
  5
442
100
AcDbEntity
  8
0
100
AcDbLine
 62
7
  6
CONTINUOUS
 10
20.7231247406
 20
85.5619613546
 11
21.5231247406
 21
85.5619613546
  0
LINE
  5
443
100
AcDbEntity
  8
0
100
AcDbLine
 62
7
  6
CONTINUOUS
 10
69.7231428303
 20
85.5619613546
 11
70.5231428303
 21
85.5619613546
  0
LINE
  5
444
100
AcDbEntity
  8
0
100
AcDbLine
 62
7
  6
CONTINUOUS
 10
78.6231428303
 20
85.5619613546
 11
79.4231428303
 21
85.5619613546
  0
LINE
  5
445
100
AcDbEntity
  8
0
100
AcDbLine
 62
7
  6
CONTINUOUS
 10
87.5231428303
 20
85.5619613546
 11
88.3231428303
 21
85.5619613546
  0
LINE
  5
446
100
AcDbEntity
  8
0
100
AcDbLine
 62
7
  6
CONTINUOUS
 10
58.9231247406
 20
86.0119613546
 11
61.9231247406
 21
86.0119613546
  0
LINE
  5
447
100
AcDbEntity
  8
0
100
AcDbLine
 62
7
  6
CONTINUOUS
 10
93.6231247406
 20
86.0619613546
 11
91.5231247406
 21
86.0619613546
  0
LINE
  5
448
100
AcDbEntity
  8
0
100
AcDbLine
 62
7
  6
CONTINUOUS
 10
84.7231247406
 20
86.0619613546
 11
82.6231247406
 21
86.0619613546
  0
LINE
  5
449
100
AcDbEntity
  8
0
100
AcDbLine
 62
7
  6
CONTINUOUS
 10
75.8231247406
 20
86.0619613546
 11
73.7231247406
 21
86.0619613546
  0
LINE
  5
44A
100
AcDbEntity
  8
0
100
AcDbLine
 62
7
  6
CONTINUOUS
 10
17.5231247406
 20
86.0619613546
 11
15.4231247406
 21
86.0619613546
  0
LINE
  5
44B
100
AcDbEntity
  8
0
100
AcDbLine
 62
7
  6
CONTINUOUS
 10
45.7131247406
 20
86.0723796023
 11
40.9131247406
 21
86.0723796023
  0
LINE
  5
44C
100
AcDbEntity
  8
0
100
AcDbLine
 62
7
  6
CONTINUOUS
 10
15.5731247406
 20
86.2619613546
 11
17.0731247406
 21
86.2619613546
  0
LINE
  5
44D
100
AcDbEntity
  8
0
100
AcDbLine
 62
7
  6
CONTINUOUS
 10
74.1731247406
 20
86.2619613546
 11
75.6731247406
 21
86.2619613546
  0
LINE
  5
44E
100
AcDbEntity
  8
0
100
AcDbLine
 62
7
  6
CONTINUOUS
 10
83.0731247406
 20
86.2619613546
 11
84.5731247406
 21
86.2619613546
  0
LINE
  5
44F
100
AcDbEntity
  8
0
100
AcDbLine
 62
7
  6
CONTINUOUS
 10
91.9731247406
 20
86.2619613546
 11
93.4731247406
 21
86.2619613546
  0
LINE
  5
450
100
AcDbEntity
  8
0
100
AcDbLine
 62
7
  6
CONTINUOUS
 10
40.9131247406
 20
86.2723796023
 11
45.7131247406
 21
86.2723796023
  0
LINE
  5
451
100
AcDbEntity
  8
0
100
AcDbLine
 62
7
  6
CONTINUOUS
 10
36.8097877219
 20
86.3119613546
 11
35.1371616767
 21
86.3119613546
  0
LINE
  5
452
100
AcDbEntity
  8
0
100
AcDbLine
 62
7
  6
CONTINUOUS
 10
35.1338237165
 20
86.3112533146
 11
35.1242984229
 21
86.3117269796
  0
LINE
  5
453
100
AcDbEntity
  8
0
100
AcDbLine
 62
7
  6
CONTINUOUS
 10
39.7378876595
 20
85.2731129431
 11
36.8097877219
 21
85.4264469478
  0
LINE
  5
454
100
AcDbEntity
  8
0
100
AcDbLine
 62
7
  6
CONTINUOUS
 10
55.8310309891
 20
85.1119613546
 11
55.5399432876
 21
85.1845419998
  0
LINE
  5
455
100
AcDbEntity
  8
0
100
AcDbLine
 62
7
  6
CONTINUOUS
 10
57.5213116187
 20
84.241680908
 11
57.5510311721
 21
84.2119613546
  0
LINE
  5
456
100
AcDbEntity
  8
0
100
AcDbLine
 62
7
  6
CONTINUOUS
 10
58.1010045148
 20
84.311988012
 11
58.2010311721
 21
84.2119613546
  0
LINE
  5
457
100
AcDbEntity
  8
0
100
AcDbLine
 62
7
  6
CONTINUOUS
 10
65.8231247406
 20
87.6119613546
 11
65.8231247406
 21
61.3119613546
  0
LINE
  5
458
100
AcDbEntity
  8
0
100
AcDbLine
 62
7
  6
CONTINUOUS
 10
66.1231247406
 20
61.0119613546
 11
66.1231247406
 21
87.9119613546
  0
LINE
  5
459
100
AcDbEntity
  8
0
100
AcDbLine
 62
7
  6
CONTINUOUS
 10
56.9481915714
 20
61.3660808887
 11
58.0150572671
 21
62.1662301605
  0
LINE
  5
45A
100
AcDbEntity
  8
0
100
AcDbLine
 62
7
  6
CONTINUOUS
 10
56.8131247406
 20
87.5022353908
 11
46.9951109125
 21
86.9209550451
  0
LINE
  5
45B
100
AcDbEntity
  8
0
100
AcDbLine
 62
7
  6
CONTINUOUS
 10
41.2080209184
 20
87.5425781762
 11
37.2306148058
 21
87.4045590271
  0
LINE
  5
45C
100
AcDbEntity
  8
0
100
AcDbLine
 62
7
  6
CONTINUOUS
 10
46.416987662
 20
87.5663794323
 11
43.2563535831
 21
87.5519375929
  0
LINE
  5
45D
100
AcDbEntity
  8
0
100
AcDbLine
 62
7
  6
CONTINUOUS
 10
41.3813283726
 20
87.5433700674
 11
41.2080209184
 21
87.5425781762
  0
LINE
  5
45E
100
AcDbEntity
  8
0
100
AcDbLine
 62
7
  6
CONTINUOUS
 10
40.7131247406
 20
86.5723796023
 11
46.0630793137
 21
86.5723796023
  0
LINE
  5
45F
100
AcDbEntity
  8
0
100
AcDbLine
 62
7
  6
CONTINUOUS
 10
58.0150572671
 20
86.7662301605
 11
63.4150562013
 21
86.7662301605
  0
LINE
  5
460
100
AcDbEntity
  8
0
100
AcDbLine
 62
7
  6
CONTINUOUS
 10
46.1352817264
 20
86.8723572132
 11
46.0630792778
 21
86.8723572132
  0
LINE
  5
461
100
AcDbEntity
  8
0
100
AcDbLine
 62
7
  6
CONTINUOUS
 10
46.0209515356
 20
86.8723572132
 11
40.7043961521
 21
86.8723572132
  0
LINE
  5
462
100
AcDbEntity
  8
0
100
AcDbLine
 62
7
  6
CONTINUOUS
 10
42.3131247406
 20
87.1320371963
 11
47.1131247406
 21
87.1320371963
  0
LINE
  5
463
100
AcDbEntity
  8
0
100
AcDbLine
 62
7
  6
CONTINUOUS
 10
37.1864690085
 20
87.3019613546
 11
36.7566931888
 21
87.3019613546
  0
LINE
  5
464
100
AcDbEntity
  8
0
100
AcDbLine
 62
7
  6
CONTINUOUS
 10
56.9481915714
 20
87.5663794323
 11
46.416987662
 21
87.5663794323
  0
LINE
  5
465
100
AcDbEntity
  8
0
100
AcDbLine
 62
7
  6
CONTINUOUS
 10
15.0231247406
 20
87.6119613546
 11
51.1731247406
 21
87.6119613546
  0
LINE
  5
466
100
AcDbEntity
  8
0
100
AcDbLine
 62
7
  6
CONTINUOUS
 10
54.4731247406
 20
87.6119613546
 11
94.0231247406
 21
87.6119613546
  0
LINE
  5
467
100
AcDbEntity
  8
0
100
AcDbLine
 62
7
  6
CONTINUOUS
 10
51.155967453
 20
87.7119613546
 11
51.1731247433
 21
87.7119613546
  0
LINE
  5
468
100
AcDbEntity
  8
0
100
AcDbLine
 62
7
  6
CONTINUOUS
 10
54.4731247433
 20
87.7119613546
 11
54.4902820281
 21
87.7119613546
  0
LINE
  5
469
100
AcDbEntity
  8
0
100
AcDbLine
 62
7
  6
CONTINUOUS
 10
93.7231247406
 20
87.9119613546
 11
54.7731247406
 21
87.9119613546
  0
LINE
  5
46A
100
AcDbEntity
  8
0
100
AcDbLine
 62
7
  6
CONTINUOUS
 10
15.3231247406
 20
87.9119613546
 11
50.8731247406
 21
87.9119613546
  0
LINE
  5
46B
100
AcDbEntity
  8
0
100
AcDbLine
 62
7
  6
CONTINUOUS
 10
37.2306148058
 20
87.4045590271
 11
39.7378876595
 21
87.2732622149
  0
LINE
  5
46C
100
AcDbEntity
  8
0
100
AcDbLine
 62
7
  6
CONTINUOUS
 10
58.0150572671
 20
86.7662301605
 11
56.9481915714
 21
87.5663794323
  0
LINE
  5
46D
100
AcDbEntity
  8
0
100
AcDbLine
 62
7
  6
CONTINUOUS
 10
69.7231428303
 20
85.5619613546
 11
69.7231428303
 21
84.4619613546
  0
LINE
  5
46E
100
AcDbEntity
  8
0
100
AcDbLine
 62
7
  6
CONTINUOUS
 10
69.7231428303
 20
83.4619613546
 11
69.7231428303
 21
82.3619613546
  0
LINE
  5
46F
100
AcDbEntity
  8
0
100
AcDbLine
 62
7
  6
CONTINUOUS
 10
69.7231428303
 20
79.1619613546
 11
69.7231428303
 21
78.0619613546
  0
LINE
  5
470
100
AcDbEntity
  8
0
100
AcDbLine
 62
7
  6
CONTINUOUS
 10
69.7231428303
 20
77.0619613546
 11
69.7231428303
 21
75.9619613546
  0
LINE
  5
471
100
AcDbEntity
  8
0
100
AcDbLine
 62
7
  6
CONTINUOUS
 10
69.7231428303
 20
72.7619613546
 11
69.7231428303
 21
71.6619613546
  0
LINE
  5
472
100
AcDbEntity
  8
0
100
AcDbLine
 62
7
  6
CONTINUOUS
 10
69.7231428303
 20
70.6619613546
 11
69.7231428303
 21
69.5619613546
  0
LINE
  5
473
100
AcDbEntity
  8
0
100
AcDbLine
 62
7
  6
CONTINUOUS
 10
69.7231428303
 20
66.3619613546
 11
69.7231428303
 21
65.2619613546
  0
LINE
  5
474
100
AcDbEntity
  8
0
100
AcDbLine
 62
7
  6
CONTINUOUS
 10
69.7231428303
 20
64.2619613546
 11
69.7231428303
 21
63.1619613546
  0
LINE
  5
475
100
AcDbEntity
  8
0
100
AcDbLine
 62
7
  6
CONTINUOUS
 10
70.5231428303
 20
63.1619613546
 11
70.5231428303
 21
64.2619613546
  0
LINE
  5
476
100
AcDbEntity
  8
0
100
AcDbLine
 62
7
  6
CONTINUOUS
 10
70.5231428303
 20
65.2619613546
 11
70.5231428303
 21
66.3619613546
  0
LINE
  5
477
100
AcDbEntity
  8
0
100
AcDbLine
 62
7
  6
CONTINUOUS
 10
70.5231428303
 20
69.5619613546
 11
70.5231428303
 21
70.6619613546
  0
LINE
  5
478
100
AcDbEntity
  8
0
100
AcDbLine
 62
7
  6
CONTINUOUS
 10
70.5231428303
 20
71.6619613546
 11
70.5231428303
 21
72.7619613546
  0
LINE
  5
479
100
AcDbEntity
  8
0
100
AcDbLine
 62
7
  6
CONTINUOUS
 10
70.5231428303
 20
75.9619613546
 11
70.5231428303
 21
77.0619613546
  0
LINE
  5
47A
100
AcDbEntity
  8
0
100
AcDbLine
 62
7
  6
CONTINUOUS
 10
70.5231428303
 20
78.0619613546
 11
70.5231428303
 21
79.1619613546
  0
LINE
  5
47B
100
AcDbEntity
  8
0
100
AcDbLine
 62
7
  6
CONTINUOUS
 10
70.5231428303
 20
82.3619613546
 11
70.5231428303
 21
83.4619613546
  0
LINE
  5
47C
100
AcDbEntity
  8
0
100
AcDbLine
 62
7
  6
CONTINUOUS
 10
70.5231428303
 20
84.4619613546
 11
70.5231428303
 21
85.5619613546
  0
LINE
  5
47D
100
AcDbEntity
  8
0
100
AcDbLine
 62
7
  6
CONTINUOUS
 10
73.7231247406
 20
86.0619613546
 11
73.7231247406
 21
82.0619613546
  0
LINE
  5
47E
100
AcDbEntity
  8
0
100
AcDbLine
 62
7
  6
CONTINUOUS
 10
73.7231247406
 20
79.6619613546
 11
73.7231247406
 21
75.6619613546
  0
LINE
  5
47F
100
AcDbEntity
  8
0
100
AcDbLine
 62
7
  6
CONTINUOUS
 10
73.7231247406
 20
73.2619613546
 11
73.7231247406
 21
69.2619613546
  0
LINE
  5
480
100
AcDbEntity
  8
0
100
AcDbLine
 62
7
  6
CONTINUOUS
 10
73.7231247406
 20
66.8619613546
 11
73.7231247406
 21
62.8619613546
  0
LINE
  5
481
100
AcDbEntity
  8
0
100
AcDbLine
 62
7
  6
CONTINUOUS
 10
74.1731247406
 20
86.2619613546
 11
74.1731247406
 21
86.0619613546
  0
LINE
  5
482
100
AcDbEntity
  8
0
100
AcDbLine
 62
7
  6
CONTINUOUS
 10
74.1731247406
 20
62.6619613546
 11
74.1731247406
 21
62.8619613546
  0
LINE
  5
483
100
AcDbEntity
  8
0
100
AcDbLine
 62
7
  6
CONTINUOUS
 10
74.8731247406
 20
62.6619613546
 11
74.8731247406
 21
62.8619613546
  0
LINE
  5
484
100
AcDbEntity
  8
0
100
AcDbLine
 62
7
  6
CONTINUOUS
 10
74.8731247406
 20
86.0619613546
 11
74.8731247406
 21
86.2619613546
  0
LINE
  5
485
100
AcDbEntity
  8
0
100
AcDbLine
 62
7
  6
CONTINUOUS
 10
74.9731247406
 20
86.2619613546
 11
74.9731247406
 21
86.0619613546
  0
LINE
  5
486
100
AcDbEntity
  8
0
100
AcDbLine
 62
7
  6
CONTINUOUS
 10
74.9731247406
 20
62.8619613546
 11
74.9731247406
 21
62.6619613546
  0
LINE
  5
487
100
AcDbEntity
  8
0
100
AcDbLine
 62
7
  6
CONTINUOUS
 10
75.6731247406
 20
86.2619613546
 11
75.6731247406
 21
86.0619613546
  0
LINE
  5
488
100
AcDbEntity
  8
0
100
AcDbLine
 62
7
  6
CONTINUOUS
 10
75.6731247406
 20
62.6619613546
 11
75.6731247406
 21
62.8619613546
  0
LINE
  5
489
100
AcDbEntity
  8
0
100
AcDbLine
 62
7
  6
CONTINUOUS
 10
76.2231247406
 20
61.3119613546
 11
76.2231247406
 21
62.4619613546
  0
LINE
  5
48A
100
AcDbEntity
  8
0
100
AcDbLine
 62
7
  6
CONTINUOUS
 10
76.2231247406
 20
67.2619613546
 11
76.2231247406
 21
68.8619613546
  0
LINE
  5
48B
100
AcDbEntity
  8
0
100
AcDbLine
 62
7
  6
CONTINUOUS
 10
76.2231247406
 20
73.6619613546
 11
76.2231247406
 21
75.2619613546
  0
LINE
  5
48C
100
AcDbEntity
  8
0
100
AcDbLine
 62
7
  6
CONTINUOUS
 10
76.2231247406
 20
80.0619613546
 11
76.2231247406
 21
81.6619613546
  0
LINE
  5
48D
100
AcDbEntity
  8
0
100
AcDbLine
 62
7
  6
CONTINUOUS
 10
76.2231247406
 20
86.4619613546
 11
76.2231247406
 21
87.6119613546
  0
LINE
  5
48E
100
AcDbEntity
  8
0
100
AcDbLine
 62
7
  6
CONTINUOUS
 10
78.6231428303
 20
85.5619613546
 11
78.6231428303
 21
84.4619613546
  0
LINE
  5
48F
100
AcDbEntity
  8
0
100
AcDbLine
 62
7
  6
CONTINUOUS
 10
78.6231428303
 20
83.4619613546
 11
78.6231428303
 21
82.3619613546
  0
LINE
  5
490
100
AcDbEntity
  8
0
100
AcDbLine
 62
7
  6
CONTINUOUS
 10
78.6231428303
 20
79.1619613546
 11
78.6231428303
 21
78.0619613546
  0
LINE
  5
491
100
AcDbEntity
  8
0
100
AcDbLine
 62
7
  6
CONTINUOUS
 10
78.6231428303
 20
77.0619613546
 11
78.6231428303
 21
75.9619613546
  0
LINE
  5
492
100
AcDbEntity
  8
0
100
AcDbLine
 62
7
  6
CONTINUOUS
 10
78.6231428303
 20
72.7619613546
 11
78.6231428303
 21
71.6619613546
  0
LINE
  5
493
100
AcDbEntity
  8
0
100
AcDbLine
 62
7
  6
CONTINUOUS
 10
78.6231428303
 20
70.6619613546
 11
78.6231428303
 21
69.5619613546
  0
LINE
  5
494
100
AcDbEntity
  8
0
100
AcDbLine
 62
7
  6
CONTINUOUS
 10
78.6231428303
 20
66.3619613546
 11
78.6231428303
 21
65.2619613546
  0
LINE
  5
495
100
AcDbEntity
  8
0
100
AcDbLine
 62
7
  6
CONTINUOUS
 10
78.6231428303
 20
64.2619613546
 11
78.6231428303
 21
63.1619613546
  0
LINE
  5
496
100
AcDbEntity
  8
0
100
AcDbLine
 62
7
  6
CONTINUOUS
 10
79.4231428303
 20
63.1619613546
 11
79.4231428303
 21
64.2619613546
  0
LINE
  5
497
100
AcDbEntity
  8
0
100
AcDbLine
 62
7
  6
CONTINUOUS
 10
79.4231428303
 20
65.2619613546
 11
79.4231428303
 21
66.3619613546
  0
LINE
  5
498
100
AcDbEntity
  8
0
100
AcDbLine
 62
7
  6
CONTINUOUS
 10
79.4231428303
 20
69.5619613546
 11
79.4231428303
 21
70.6619613546
  0
LINE
  5
499
100
AcDbEntity
  8
0
100
AcDbLine
 62
7
  6
CONTINUOUS
 10
79.4231428303
 20
71.6619613546
 11
79.4231428303
 21
72.7619613546
  0
LINE
  5
49A
100
AcDbEntity
  8
0
100
AcDbLine
 62
7
  6
CONTINUOUS
 10
79.4231428303
 20
75.9619613546
 11
79.4231428303
 21
77.0619613546
  0
LINE
  5
49B
100
AcDbEntity
  8
0
100
AcDbLine
 62
7
  6
CONTINUOUS
 10
79.4231428303
 20
78.0619613546
 11
79.4231428303
 21
79.1619613546
  0
LINE
  5
49C
100
AcDbEntity
  8
0
100
AcDbLine
 62
7
  6
CONTINUOUS
 10
79.4231428303
 20
82.3619613546
 11
79.4231428303
 21
83.4619613546
  0
LINE
  5
49D
100
AcDbEntity
  8
0
100
AcDbLine
 62
7
  6
CONTINUOUS
 10
79.4231428303
 20
84.4619613546
 11
79.4231428303
 21
85.5619613546
  0
LINE
  5
49E
100
AcDbEntity
  8
0
100
AcDbLine
 62
7
  6
CONTINUOUS
 10
82.6231247406
 20
86.0619613546
 11
82.6231247406
 21
82.0619613546
  0
LINE
  5
49F
100
AcDbEntity
  8
0
100
AcDbLine
 62
7
  6
CONTINUOUS
 10
82.6231247406
 20
79.6619613546
 11
82.6231247406
 21
75.6619613546
  0
LINE
  5
4A0
100
AcDbEntity
  8
0
100
AcDbLine
 62
7
  6
CONTINUOUS
 10
82.6231247406
 20
73.2619613546
 11
82.6231247406
 21
69.2619613546
  0
LINE
  5
4A1
100
AcDbEntity
  8
0
100
AcDbLine
 62
7
  6
CONTINUOUS
 10
82.6231247406
 20
66.8619613546
 11
82.6231247406
 21
62.8619613546
  0
LINE
  5
4A2
100
AcDbEntity
  8
0
100
AcDbLine
 62
7
  6
CONTINUOUS
 10
83.0731247406
 20
86.2619613546
 11
83.0731247406
 21
86.0619613546
  0
LINE
  5
4A3
100
AcDbEntity
  8
0
100
AcDbLine
 62
7
  6
CONTINUOUS
 10
83.0731247406
 20
62.6619613546
 11
83.0731247406
 21
62.8619613546
  0
LINE
  5
4A4
100
AcDbEntity
  8
0
100
AcDbLine
 62
7
  6
CONTINUOUS
 10
83.7731247406
 20
62.6619613546
 11
83.7731247406
 21
62.8619613546
  0
LINE
  5
4A5
100
AcDbEntity
  8
0
100
AcDbLine
 62
7
  6
CONTINUOUS
 10
83.7731247406
 20
86.0619613546
 11
83.7731247406
 21
86.2619613546
  0
LINE
  5
4A6
100
AcDbEntity
  8
0
100
AcDbLine
 62
7
  6
CONTINUOUS
 10
83.8731247406
 20
86.2619613546
 11
83.8731247406
 21
86.0619613546
  0
LINE
  5
4A7
100
AcDbEntity
  8
0
100
AcDbLine
 62
7
  6
CONTINUOUS
 10
83.8731247406
 20
62.8619613546
 11
83.8731247406
 21
62.6619613546
  0
LINE
  5
4A8
100
AcDbEntity
  8
0
100
AcDbLine
 62
7
  6
CONTINUOUS
 10
84.5731247406
 20
86.2619613546
 11
84.5731247406
 21
86.0619613546
  0
LINE
  5
4A9
100
AcDbEntity
  8
0
100
AcDbLine
 62
7
  6
CONTINUOUS
 10
84.5731247406
 20
62.6619613546
 11
84.5731247406
 21
62.8619613546
  0
LINE
  5
4AA
100
AcDbEntity
  8
0
100
AcDbLine
 62
7
  6
CONTINUOUS
 10
85.1231247406
 20
61.3119613546
 11
85.1231247406
 21
62.4619613546
  0
LINE
  5
4AB
100
AcDbEntity
  8
0
100
AcDbLine
 62
7
  6
CONTINUOUS
 10
85.1231247406
 20
67.2619613546
 11
85.1231247406
 21
68.8619613546
  0
LINE
  5
4AC
100
AcDbEntity
  8
0
100
AcDbLine
 62
7
  6
CONTINUOUS
 10
85.1231247406
 20
73.6619613546
 11
85.1231247406
 21
75.2619613546
  0
LINE
  5
4AD
100
AcDbEntity
  8
0
100
AcDbLine
 62
7
  6
CONTINUOUS
 10
85.1231247406
 20
80.0619613546
 11
85.1231247406
 21
81.6619613546
  0
LINE
  5
4AE
100
AcDbEntity
  8
0
100
AcDbLine
 62
7
  6
CONTINUOUS
 10
85.1231247406
 20
86.4619613546
 11
85.1231247406
 21
87.6119613546
  0
LINE
  5
4AF
100
AcDbEntity
  8
0
100
AcDbLine
 62
7
  6
CONTINUOUS
 10
87.5231428303
 20
85.5619613546
 11
87.5231428303
 21
84.4619613546
  0
LINE
  5
4B0
100
AcDbEntity
  8
0
100
AcDbLine
 62
7
  6
CONTINUOUS
 10
87.5231428303
 20
83.4619613546
 11
87.5231428303
 21
82.3619613546
  0
LINE
  5
4B1
100
AcDbEntity
  8
0
100
AcDbLine
 62
7
  6
CONTINUOUS
 10
87.5231428303
 20
79.1619613546
 11
87.5231428303
 21
78.0619613546
  0
LINE
  5
4B2
100
AcDbEntity
  8
0
100
AcDbLine
 62
7
  6
CONTINUOUS
 10
87.5231428303
 20
77.0619613546
 11
87.5231428303
 21
75.9619613546
  0
LINE
  5
4B3
100
AcDbEntity
  8
0
100
AcDbLine
 62
7
  6
CONTINUOUS
 10
87.5231428303
 20
72.7619613546
 11
87.5231428303
 21
71.6619613546
  0
LINE
  5
4B4
100
AcDbEntity
  8
0
100
AcDbLine
 62
7
  6
CONTINUOUS
 10
87.5231428303
 20
70.6619613546
 11
87.5231428303
 21
69.5619613546
  0
LINE
  5
4B5
100
AcDbEntity
  8
0
100
AcDbLine
 62
7
  6
CONTINUOUS
 10
87.5231428303
 20
66.3619613546
 11
87.5231428303
 21
65.2619613546
  0
LINE
  5
4B6
100
AcDbEntity
  8
0
100
AcDbLine
 62
7
  6
CONTINUOUS
 10
87.5231428303
 20
64.2619613546
 11
87.5231428303
 21
63.1619613546
  0
LINE
  5
4B7
100
AcDbEntity
  8
0
100
AcDbLine
 62
7
  6
CONTINUOUS
 10
88.3231428303
 20
63.1619613546
 11
88.3231428303
 21
64.2619613546
  0
LINE
  5
4B8
100
AcDbEntity
  8
0
100
AcDbLine
 62
7
  6
CONTINUOUS
 10
88.3231428303
 20
65.2619613546
 11
88.3231428303
 21
66.3619613546
  0
LINE
  5
4B9
100
AcDbEntity
  8
0
100
AcDbLine
 62
7
  6
CONTINUOUS
 10
88.3231428303
 20
69.5619613546
 11
88.3231428303
 21
70.6619613546
  0
LINE
  5
4BA
100
AcDbEntity
  8
0
100
AcDbLine
 62
7
  6
CONTINUOUS
 10
88.3231428303
 20
71.6619613546
 11
88.3231428303
 21
72.7619613546
  0
LINE
  5
4BB
100
AcDbEntity
  8
0
100
AcDbLine
 62
7
  6
CONTINUOUS
 10
88.3231428303
 20
75.9619613546
 11
88.3231428303
 21
77.0619613546
  0
LINE
  5
4BC
100
AcDbEntity
  8
0
100
AcDbLine
 62
7
  6
CONTINUOUS
 10
88.3231428303
 20
78.0619613546
 11
88.3231428303
 21
79.1619613546
  0
LINE
  5
4BD
100
AcDbEntity
  8
0
100
AcDbLine
 62
7
  6
CONTINUOUS
 10
88.3231428303
 20
82.3619613546
 11
88.3231428303
 21
83.4619613546
  0
LINE
  5
4BE
100
AcDbEntity
  8
0
100
AcDbLine
 62
7
  6
CONTINUOUS
 10
88.3231428303
 20
84.4619613546
 11
88.3231428303
 21
85.5619613546
  0
LINE
  5
4BF
100
AcDbEntity
  8
0
100
AcDbLine
 62
7
  6
CONTINUOUS
 10
91.5231247406
 20
86.0619613546
 11
91.5231247406
 21
82.0619613546
  0
LINE
  5
4C0
100
AcDbEntity
  8
0
100
AcDbLine
 62
7
  6
CONTINUOUS
 10
91.5231247406
 20
79.6619613546
 11
91.5231247406
 21
75.6619613546
  0
LINE
  5
4C1
100
AcDbEntity
  8
0
100
AcDbLine
 62
7
  6
CONTINUOUS
 10
91.5231247406
 20
73.2619613546
 11
91.5231247406
 21
69.2619613546
  0
LINE
  5
4C2
100
AcDbEntity
  8
0
100
AcDbLine
 62
7
  6
CONTINUOUS
 10
91.5231247406
 20
66.8619613546
 11
91.5231247406
 21
62.8619613546
  0
LINE
  5
4C3
100
AcDbEntity
  8
0
100
AcDbLine
 62
7
  6
CONTINUOUS
 10
91.9731247406
 20
86.2619613546
 11
91.9731247406
 21
86.0619613546
  0
LINE
  5
4C4
100
AcDbEntity
  8
0
100
AcDbLine
 62
7
  6
CONTINUOUS
 10
91.9731247406
 20
62.6619613546
 11
91.9731247406
 21
62.8619613546
  0
LINE
  5
4C5
100
AcDbEntity
  8
0
100
AcDbLine
 62
7
  6
CONTINUOUS
 10
92.6731247406
 20
62.6619613546
 11
92.6731247406
 21
62.8619613546
  0
LINE
  5
4C6
100
AcDbEntity
  8
0
100
AcDbLine
 62
7
  6
CONTINUOUS
 10
92.6731247406
 20
86.0619613546
 11
92.6731247406
 21
86.2619613546
  0
LINE
  5
4C7
100
AcDbEntity
  8
0
100
AcDbLine
 62
7
  6
CONTINUOUS
 10
92.7731247406
 20
86.2619613546
 11
92.7731247406
 21
86.0619613546
  0
LINE
  5
4C8
100
AcDbEntity
  8
0
100
AcDbLine
 62
7
  6
CONTINUOUS
 10
92.7731247406
 20
62.8619613546
 11
92.7731247406
 21
62.6619613546
  0
LINE
  5
4C9
100
AcDbEntity
  8
0
100
AcDbLine
 62
7
  6
CONTINUOUS
 10
93.4731247406
 20
86.2619613546
 11
93.4731247406
 21
86.0619613546
  0
LINE
  5
4CA
100
AcDbEntity
  8
0
100
AcDbLine
 62
7
  6
CONTINUOUS
 10
93.4731247406
 20
62.6619613546
 11
93.4731247406
 21
62.8619613546
  0
LINE
  5
4CB
100
AcDbEntity
  8
0
100
AcDbLine
 62
7
  6
CONTINUOUS
 10
94.0231247406
 20
61.3119613546
 11
94.0231247406
 21
87.6119613546
  0
ARC
  5
4CC
100
AcDbEntity
  8
0
100
AcDbCircle
 62
7
  6
CONTINUOUS
 10
46.4908681419
 20
37.9215722862
 40
23.9814960389
100
AcDbArc
 50
88.5131571823
 51
88.8722070354
  0
ARC
  5
4CD
100
AcDbEntity
  8
0
100
AcDbCircle
 62
7
  6
CONTINUOUS
 10
42.8260879964
 20
38.8047414779
 40
22.627971293
100
AcDbArc
 50
89.0583728004
 51
89.1986124845
  0
ARC
  5
4CE
100
AcDbEntity
  8
0
100
AcDbCircle
 62
7
  6
CONTINUOUS
 10
41.7914825826
 20
39.4179418419
 40
22.0147110169
100
AcDbArc
 50
90.7598490665
 51
90.9530758033
  0
ARC
  5
4CF
100
AcDbEntity
  8
0
100
AcDbCircle
 62
7
  6
CONTINUOUS
 10
15.4231247406
 20
62.4619613546
 40
0.4
100
AcDbArc
 50
90.0
 51
180.0
  0
ARC
  5
4D0
100
AcDbEntity
  8
0
100
AcDbCircle
 62
7
  6
CONTINUOUS
 10
15.3231247406
 20
61.3119613546
 40
0.3
100
AcDbArc
 50
180.0
 51
270.0
  0
ARC
  5
4D1
100
AcDbEntity
  8
0
100
AcDbCircle
 62
7
  6
CONTINUOUS
 10
17.8231247406
 20
61.3119613546
 40
0.3
100
AcDbArc
 50
180.0
 51
270.0
  0
ARC
  5
4D2
100
AcDbEntity
  8
0
100
AcDbCircle
 62
7
  6
CONTINUOUS
 10
20.6231247406
 20
64.2619613546
 40
0.1
100
AcDbArc
 50
0.0
 51
90.0
  0
ARC
  5
4D3
100
AcDbEntity
  8
0
100
AcDbCircle
 62
7
  6
CONTINUOUS
 10
20.6231247406
 20
65.2619613546
 40
0.1
100
AcDbArc
 50
270.0
 51
360.0
  0
ARC
  5
4D4
100
AcDbEntity
  8
0
100
AcDbCircle
 62
7
  6
CONTINUOUS
 10
21.6231247406
 20
64.2619613546
 40
0.1
100
AcDbArc
 50
90.0
 51
180.0
  0
CIRCLE
  5
4D5
100
AcDbEntity
  8
0
100
AcDbCircle
 62
7
  6
CONTINUOUS
 10
21.1231247406
 20
64.8619613546
 40
2.6
  0
ARC
  5
4D6
100
AcDbEntity
  8
0
100
AcDbCircle
 62
7
  6
CONTINUOUS
 10
21.1231247406
 20
64.8619613546
 40
2.55
100
AcDbArc
 50
328.9527497351
 51
346.7265773257
  0
ARC
  5
4D7
100
AcDbEntity
  8
0
100
AcDbCircle
 62
7
  6
CONTINUOUS
 10
21.1231247406
 20
64.8619613546
 40
2.55
100
AcDbArc
 50
348.5326503177
 51
210.8325981336
  0
ARC
  5
4D8
100
AcDbEntity
  8
0
100
AcDbCircle
 62
7
  6
CONTINUOUS
 10
21.1231247406
 20
64.7619613546
 40
2.5
100
AcDbArc
 50
300.1394339292
 51
239.964958557
  0
ARC
  5
4D9
100
AcDbEntity
  8
0
100
AcDbCircle
 62
7
  6
CONTINUOUS
 10
21.1231247406
 20
64.7619613546
 40
2.2
100
AcDbArc
 50
10.4756816964
 51
169.5243183036
  0
ARC
  5
4DA
100
AcDbEntity
  8
0
100
AcDbCircle
 62
7
  6
CONTINUOUS
 10
21.1231247406
 20
64.7619613546
 40
2.2
100
AcDbArc
 50
190.4756816964
 51
349.5243183036
  0
ARC
  5
4DB
100
AcDbEntity
  8
0
100
AcDbCircle
 62
7
  6
CONTINUOUS
 10
21.1231247406
 20
64.7619613546
 40
1.3876815526
100
AcDbArc
 50
73.2467507844
 51
106.7532492156
  0
ARC
  5
4DC
100
AcDbEntity
  8
0
100
AcDbCircle
 62
7
  6
CONTINUOUS
 10
21.1231247406
 20
64.7619613546
 40
1.3876815526
100
AcDbArc
 50
253.2467507844
 51
286.7532492156
  0
ARC
  5
4DD
100
AcDbEntity
  8
0
100
AcDbCircle
 62
7
  6
CONTINUOUS
 10
21.1231247406
 20
64.7619613546
 40
1.3876815526
100
AcDbArc
 50
343.2467507844
 51
16.7532492156
  0
ARC
  5
4DE
100
AcDbEntity
  8
0
100
AcDbCircle
 62
7
  6
CONTINUOUS
 10
21.1231247406
 20
64.7619613546
 40
1.3876815526
100
AcDbArc
 50
163.2467507844
 51
196.7532492156
  0
ARC
  5
4DF
100
AcDbEntity
  8
0
100
AcDbCircle
 62
7
  6
CONTINUOUS
 10
21.1231247406
 20
64.7619613546
 40
0.7597753402
100
AcDbArc
 50
58.2326487549
 51
121.7673512451
  0
ARC
  5
4E0
100
AcDbEntity
  8
0
100
AcDbCircle
 62
7
  6
CONTINUOUS
 10
21.1231247406
 20
64.7619613546
 40
0.7597753402
100
AcDbArc
 50
328.232648755
 51
31.767351245
  0
ARC
  5
4E1
100
AcDbEntity
  8
0
100
AcDbCircle
 62
7
  6
CONTINUOUS
 10
21.1231247406
 20
64.7619613546
 40
0.7597753402
100
AcDbArc
 50
238.232648755
 51
301.767351245
  0
ARC
  5
4E2
100
AcDbEntity
  8
0
100
AcDbCircle
 62
7
  6
CONTINUOUS
 10
21.1231247406
 20
64.7619613546
 40
0.7597753402
100
AcDbArc
 50
148.232648755
 51
211.767351245
  0
CIRCLE
  5
4E3
100
AcDbEntity
  8
0
100
AcDbCircle
 62
7
  6
CONTINUOUS
 10
21.1231247406
 20
64.7619613546
 40
0.4
  0
ARC
  5
4E4
100
AcDbEntity
  8
0
100
AcDbCircle
 62
7
  6
CONTINUOUS
 10
21.6231247406
 20
65.2619613546
 40
0.1
100
AcDbArc
 50
180.0
 51
270.0
  0
ARC
  5
4E5
100
AcDbEntity
  8
0
100
AcDbCircle
 62
7
  6
CONTINUOUS
 10
28.4731247406
 20
73.0079649718
 40
2.1
100
AcDbArc
 50
60.0000000002
 51
240.0
  0
ARC
  5
4E6
100
AcDbEntity
  8
0
100
AcDbCircle
 62
7
  6
CONTINUOUS
 10
14.1263737377
 20
74.3619611573
 40
2.0
100
AcDbArc
 50
90.0000014931
 51
269.9999974804
  0
ARC
  5
4E7
100
AcDbEntity
  8
0
100
AcDbCircle
 62
7
  6
CONTINUOUS
 10
28.4731247406
 20
73.0079649718
 40
1.9
100
AcDbArc
 50
60.0
 51
240.0
  0
ARC
  5
4E8
100
AcDbEntity
  8
0
100
AcDbCircle
 62
7
  6
CONTINUOUS
 10
43.2642676333
 20
58.9152886618
 40
2.5123339979
100
AcDbArc
 50
87.5413766129
 51
87.9976665303
  0
ARC
  5
4E9
100
AcDbEntity
  8
0
100
AcDbCircle
 62
7
  6
CONTINUOUS
 10
37.8731247406
 20
64.9369613546
 40
1.0
100
AcDbArc
 50
257.161431859
 51
270.0
  0
ARC
  5
4EA
100
AcDbEntity
  8
0
100
AcDbCircle
 62
7
  6
CONTINUOUS
 10
37.5711777658
 20
64.6618382515
 40
0.6998813793
100
AcDbArc
 50
179.996755347
 51
257.6744808237
  0
ARC
  5
4EB
100
AcDbEntity
  8
0
100
AcDbCircle
 62
7
  6
CONTINUOUS
 10
37.5477515539
 20
64.4619613546
 40
0.5
100
AcDbArc
 50
255.4056403588
 51
270.0
  0
ARC
  5
4EC
100
AcDbEntity
  8
0
100
AcDbCircle
 62
7
  6
CONTINUOUS
 10
37.7231247406
 20
61.3119613546
 40
0.3
100
AcDbArc
 50
269.9999999999
 51
360.0
  0
ARC
  5
4ED
100
AcDbEntity
  8
0
100
AcDbCircle
 62
7
  6
CONTINUOUS
 10
49.7231247406
 20
61.3119613546
 40
0.3
100
AcDbArc
 50
270.0
 51
360.0
  0
ARC
  5
4EE
100
AcDbEntity
  8
0
100
AcDbCircle
 62
7
  6
CONTINUOUS
 10
50.8731247406
 20
61.3119613546
 40
0.3
100
AcDbArc
 50
270.0
 51
360.0
  0
ARC
  5
4EF
100
AcDbEntity
  8
0
100
AcDbCircle
 62
7
  6
CONTINUOUS
 10
41.5231247406
 20
61.5119613546
 40
0.2
100
AcDbArc
 50
205.5961547933
 51
270.0
  0
ARC
  5
4F0
100
AcDbEntity
  8
0
100
AcDbCircle
 62
7
  6
CONTINUOUS
 10
43.1231247406
 20
61.5119613546
 40
0.2
100
AcDbArc
 50
270.0
 51
334.1719408938
  0
ARC
  5
4F1
100
AcDbEntity
  8
0
100
AcDbCircle
 62
7
  6
CONTINUOUS
 10
40.2231247406
 20
66.5119613546
 40
0.1
100
AcDbArc
 50
239.8811302188
 51
269.9999999898
  0
ARC
  5
4F2
100
AcDbEntity
  8
0
100
AcDbCircle
 62
7
  6
CONTINUOUS
 10
46.1345969573
 20
69.2511713961
 40
7.1908953843
100
AcDbArc
 50
269.5366165527
 51
269.7793204178
  0
ARC
  5
4F3
100
AcDbEntity
  8
0
100
AcDbCircle
 62
7
  6
CONTINUOUS
 10
32.6231247406
 20
70.6119613546
 40
2.1
100
AcDbArc
 50
240.0
 51
59.9999999999
  0
ARC
  5
4F4
100
AcDbEntity
  8
0
100
AcDbCircle
 62
7
  6
CONTINUOUS
 10
32.6231247406
 20
70.6119613546
 40
1.9
100
AcDbArc
 50
240.0
 51
60.0
  0
ARC
  5
4F5
100
AcDbEntity
  8
0
100
AcDbCircle
 62
7
  6
CONTINUOUS
 10
40.6731247406
 20
69.5619613546
 40
0.5
100
AcDbArc
 50
101.3774493747
 51
179.9999999971
  0
ARC
  5
4F6
100
AcDbEntity
  8
0
100
AcDbCircle
 62
7
  6
CONTINUOUS
 10
40.6731247406
 20
66.9619613546
 40
0.5
100
AcDbArc
 50
180.0
 51
258.6225506254
  0
ARC
  5
4F7
100
AcDbEntity
  8
0
100
AcDbCircle
 62
7
  6
CONTINUOUS
 10
40.0162071819
 20
72.5207148798
 40
0.5
100
AcDbArc
 50
180.0
 51
270.0
  0
ARC
  5
4F8
100
AcDbEntity
  8
0
100
AcDbCircle
 62
7
  6
CONTINUOUS
 10
39.660421457
 20
71.3119749115
 40
0.2499874074
100
AcDbArc
 50
179.99914746
 51
270.0022505764
  0
ARC
  5
4F9
100
AcDbEntity
  8
0
100
AcDbCircle
 62
7
  6
CONTINUOUS
 10
39.6516945892
 20
71.3032480436
 40
0.2499874073
100
AcDbArc
 50
179.9991474376
 51
270.0022506448
  0
ARC
  5
4FA
100
AcDbEntity
  8
0
100
AcDbCircle
 62
7
  6
CONTINUOUS
 10
40.2231247406
 20
70.0119613547
 40
0.1
100
AcDbArc
 50
90.0000000174
 51
179.9999999917
  0
ARC
  5
4FB
100
AcDbEntity
  8
0
100
AcDbCircle
 62
7
  6
CONTINUOUS
 10
52.8231247406
 20
63.0619613546
 40
3.1
100
AcDbArc
 50
163.6049806084
 51
165.3840353523
  0
ARC
  5
4FC
100
AcDbEntity
  8
0
100
AcDbCircle
 62
7
  6
CONTINUOUS
 10
52.8231247406
 20
63.0619613546
 40
3.1
100
AcDbArc
 50
14.0008023863
 51
17.1534081575
  0
ARC
  5
4FD
100
AcDbEntity
  8
0
100
AcDbCircle
 62
7
  6
CONTINUOUS
 10
52.8231247406
 20
63.0619613546
 40
2.8
100
AcDbArc
 50
161.6822223373
 51
164.1159162228
  0
ARC
  5
4FE
100
AcDbEntity
  8
0
100
AcDbCircle
 62
7
  6
CONTINUOUS
 10
52.8231247406
 20
63.0619613546
 40
2.8
100
AcDbArc
 50
9.0625344128
 51
18.3188796068
  0
ARC
  5
4FF
100
AcDbEntity
  8
0
100
AcDbCircle
 62
7
  6
CONTINUOUS
 10
52.8231247406
 20
63.0619613546
 40
1.95
100
AcDbArc
 50
15.3182243104
 51
27.7165992547
  0
ARC
  5
500
100
AcDbEntity
  8
0
100
AcDbCircle
 62
7
  6
CONTINUOUS
 10
52.8231247406
 20
63.0619613546
 40
1.95
100
AcDbArc
 50
153.0501734911
 51
158.173703767
  0
ARC
  5
501
100
AcDbEntity
  8
0
100
AcDbCircle
 62
7
  6
CONTINUOUS
 10
52.8231247406
 20
63.0619613546
 40
1.65
100
AcDbArc
 50
18.7318431637
 51
33.7255238285
  0
ARC
  5
502
100
AcDbEntity
  8
0
100
AcDbCircle
 62
7
  6
CONTINUOUS
 10
52.8231247406
 20
63.0619613546
 40
1.65
100
AcDbArc
 50
147.5163174477
 51
154.8594915085
  0
ARC
  5
503
100
AcDbEntity
  8
0
100
AcDbCircle
 62
7
  6
CONTINUOUS
 10
52.8231247433
 20
62.9619613546
 40
1.65
100
AcDbArc
 50
22.5156097214
 51
38.3514215964
  0
ARC
  5
504
100
AcDbEntity
  8
0
100
AcDbCircle
 62
7
  6
CONTINUOUS
 10
52.8231247433
 20
62.9619613546
 40
1.65
100
AcDbArc
 50
142.932548834
 51
151.1070206027
  0
ARC
  5
505
100
AcDbEntity
  8
0
100
AcDbCircle
 62
7
  6
CONTINUOUS
 10
55.9231247406
 20
61.3119613546
 40
0.3
100
AcDbArc
 50
180.0
 51
270.0
  0
ARC
  5
506
100
AcDbEntity
  8
0
100
AcDbCircle
 62
7
  6
CONTINUOUS
 10
54.7731247406
 20
61.3119613546
 40
0.3
100
AcDbArc
 50
180.0
 51
270.0
  0
ARC
  5
507
100
AcDbEntity
  8
0
100
AcDbCircle
 62
7
  6
CONTINUOUS
 10
60.3731247406
 20
64.9369613546
 40
1.0
100
AcDbArc
 50
257.161431859
 51
270.0
  0
ARC
  5
508
100
AcDbEntity
  8
0
100
AcDbCircle
 62
7
  6
CONTINUOUS
 10
52.5731247406
 20
64.9369613546
 40
1.0
100
AcDbArc
 50
270.0
 51
282.838568141
  0
ARC
  5
509
100
AcDbEntity
  8
0
100
AcDbCircle
 62
7
  6
CONTINUOUS
 10
55.8310309891
 20
63.8119613546
 40
0.3
100
AcDbArc
 50
194.0008023861
 51
270.0
  0
ARC
  5
50A
100
AcDbEntity
  8
0
100
AcDbCircle
 62
7
  6
CONTINUOUS
 10
60.0125023668
 20
66.1689879501
 40
0.0999836407
100
AcDbArc
 50
269.999135568
 51
0.0006469195
  0
ARC
  5
50B
100
AcDbEntity
  8
0
100
AcDbCircle
 62
7
  6
CONTINUOUS
 10
57.2264945128
 20
66.1689878385
 40
0.099983529
100
AcDbArc
 50
179.9951343446
 51
270.0007121792
  0
ARC
  5
50C
100
AcDbEntity
  8
0
100
AcDbCircle
 62
7
  6
CONTINUOUS
 10
57.2194463102
 20
66.1619396349
 40
0.0999478217
100
AcDbArc
 50
179.9766829254
 51
270.0219269764
  0
ARC
  5
50D
100
AcDbEntity
  8
0
100
AcDbCircle
 62
7
  6
CONTINUOUS
 10
60.0195508371
 20
66.16193948
 40
0.099947667
100
AcDbArc
 50
269.977853902
 51
0.0217991021
  0
ARC
  5
50E
100
AcDbEntity
  8
0
100
AcDbCircle
 62
7
  6
CONTINUOUS
 10
66.1231247406
 20
61.3119613546
 40
0.3
100
AcDbArc
 50
180.0
 51
270.0
  0
ARC
  5
50F
100
AcDbEntity
  8
0
100
AcDbCircle
 62
7
  6
CONTINUOUS
 10
63.3948716835
 20
64.4619613546
 40
0.5
100
AcDbArc
 50
270.0
 51
284.6037681239
  0
ARC
  5
510
100
AcDbEntity
  8
0
100
AcDbCircle
 62
7
  6
CONTINUOUS
 10
63.0731247406
 20
64.9369613546
 40
1.0
100
AcDbArc
 50
270.0
 51
282.838568141
  0
ARC
  5
511
100
AcDbEntity
  8
0
100
AcDbCircle
 62
7
  6
CONTINUOUS
 10
63.0731247406
 20
64.9369613546
 40
1.0
100
AcDbArc
 50
323.9775856503
 51
335.9845442545
  0
ARC
  5
512
100
AcDbEntity
  8
0
100
AcDbCircle
 62
7
  6
CONTINUOUS
 10
63.0731247406
 20
64.9369613546
 40
1.0
100
AcDbArc
 50
358.9791666326
 51
360.0
  0
ARC
  5
513
100
AcDbEntity
  8
0
100
AcDbCircle
 62
7
  6
CONTINUOUS
 10
69.6231428303
 20
64.2619613546
 40
0.1
100
AcDbArc
 50
0.0
 51
90.0
  0
CIRCLE
  5
514
100
AcDbEntity
  8
0
100
AcDbCircle
 62
7
  6
CONTINUOUS
 10
70.1231247406
 20
64.8619613546
 40
2.6
  0
ARC
  5
515
100
AcDbEntity
  8
0
100
AcDbCircle
 62
7
  6
CONTINUOUS
 10
70.1231247406
 20
64.8619613546
 40
2.55
100
AcDbArc
 50
328.9535364563
 51
346.7266843508
  0
ARC
  5
516
100
AcDbEntity
  8
0
100
AcDbCircle
 62
7
  6
CONTINUOUS
 10
70.1231247406
 20
64.8619613546
 40
2.55
100
AcDbArc
 50
348.5327578756
 51
210.8333901804
  0
ARC
  5
517
100
AcDbEntity
  8
0
100
AcDbCircle
 62
7
  6
CONTINUOUS
 10
70.1231428303
 20
64.7619613546
 40
2.5
100
AcDbArc
 50
300.1396537623
 51
239.9651763264
  0
ARC
  5
518
100
AcDbEntity
  8
0
100
AcDbCircle
 62
7
  6
CONTINUOUS
 10
70.1231428303
 20
64.7619613546
 40
2.2
100
AcDbArc
 50
10.4756816964
 51
169.5243183036
  0
ARC
  5
519
100
AcDbEntity
  8
0
100
AcDbCircle
 62
7
  6
CONTINUOUS
 10
70.1231428303
 20
64.7619613546
 40
2.2
100
AcDbArc
 50
190.4756816964
 51
349.5243183036
  0
ARC
  5
51A
100
AcDbEntity
  8
0
100
AcDbCircle
 62
7
  6
CONTINUOUS
 10
70.1231428303
 20
64.7619613546
 40
1.3876815526
100
AcDbArc
 50
73.2467507844
 51
106.7532492152
  0
ARC
  5
51B
100
AcDbEntity
  8
0
100
AcDbCircle
 62
7
  6
CONTINUOUS
 10
70.1231428303
 20
64.7619613546
 40
1.3876815526
100
AcDbArc
 50
253.2467507844
 51
286.7532492156
  0
ARC
  5
51C
100
AcDbEntity
  8
0
100
AcDbCircle
 62
7
  6
CONTINUOUS
 10
70.1231428303
 20
64.7619613546
 40
1.3876815526
100
AcDbArc
 50
343.2467507844
 51
16.7532492156
  0
ARC
  5
51D
100
AcDbEntity
  8
0
100
AcDbCircle
 62
7
  6
CONTINUOUS
 10
70.1231428303
 20
64.7619613546
 40
1.3876815526
100
AcDbArc
 50
163.2467507844
 51
196.7532492156
  0
ARC
  5
51E
100
AcDbEntity
  8
0
100
AcDbCircle
 62
7
  6
CONTINUOUS
 10
70.1231428303
 20
64.7619613546
 40
0.7597753402
100
AcDbArc
 50
58.2326487549
 51
121.7673512444
  0
ARC
  5
51F
100
AcDbEntity
  8
0
100
AcDbCircle
 62
7
  6
CONTINUOUS
 10
70.1231428303
 20
64.7619613546
 40
0.7597753402
100
AcDbArc
 50
328.232648755
 51
31.767351245
  0
ARC
  5
520
100
AcDbEntity
  8
0
100
AcDbCircle
 62
7
  6
CONTINUOUS
 10
70.1231428303
 20
64.7619613546
 40
0.7597753402
100
AcDbArc
 50
238.2326487557
 51
301.767351245
  0
ARC
  5
521
100
AcDbEntity
  8
0
100
AcDbCircle
 62
7
  6
CONTINUOUS
 10
70.1231428303
 20
64.7619613546
 40
0.7597753402
100
AcDbArc
 50
148.2326487547
 51
211.7673512453
  0
CIRCLE
  5
522
100
AcDbEntity
  8
0
100
AcDbCircle
 62
7
  6
CONTINUOUS
 10
70.1231428303
 20
64.7619613546
 40
0.4
  0
ARC
  5
523
100
AcDbEntity
  8
0
100
AcDbCircle
 62
7
  6
CONTINUOUS
 10
69.6231428303
 20
65.2619613546
 40
0.1
100
AcDbArc
 50
270.0
 51
360.0
  0
ARC
  5
524
100
AcDbEntity
  8
0
100
AcDbCircle
 62
7
  6
CONTINUOUS
 10
57.2265324341
 20
71.5549578829
 40
0.1000214548
100
AcDbArc
 50
90.021011411
 51
179.9789892487
  0
ARC
  5
525
100
AcDbEntity
  8
0
100
AcDbCircle
 62
7
  6
CONTINUOUS
 10
60.0124841874
 20
71.5549659642
 40
0.1000018243
100
AcDbArc
 50
0.0155912709
 51
89.9836103471
  0
CIRCLE
  5
526
100
AcDbEntity
  8
0
100
AcDbCircle
 62
7
  6
CONTINUOUS
 10
70.1231247406
 20
71.2619613546
 40
2.6
  0
ARC
  5
527
100
AcDbEntity
  8
0
100
AcDbCircle
 62
7
  6
CONTINUOUS
 10
70.1231247406
 20
71.2619613546
 40
2.55
100
AcDbArc
 50
328.9535364563
 51
210.8333901804
  0
ARC
  5
528
100
AcDbEntity
  8
0
100
AcDbCircle
 62
7
  6
CONTINUOUS
 10
70.1231428303
 20
71.1619613546
 40
2.5
100
AcDbArc
 50
300.1396537623
 51
239.9651763264
  0
ARC
  5
529
100
AcDbEntity
  8
0
100
AcDbCircle
 62
7
  6
CONTINUOUS
 10
70.1231428303
 20
71.1619613546
 40
2.2
100
AcDbArc
 50
190.4756816964
 51
349.5243183036
  0
ARC
  5
52A
100
AcDbEntity
  8
0
100
AcDbCircle
 62
7
  6
CONTINUOUS
 10
70.1231428303
 20
71.1619613546
 40
2.2
100
AcDbArc
 50
10.4756816964
 51
169.5243183036
  0
ARC
  5
52B
100
AcDbEntity
  8
0
100
AcDbCircle
 62
7
  6
CONTINUOUS
 10
70.1231428303
 20
71.1619613546
 40
1.3876815526
100
AcDbArc
 50
163.2467507844
 51
196.7532492156
  0
ARC
  5
52C
100
AcDbEntity
  8
0
100
AcDbCircle
 62
7
  6
CONTINUOUS
 10
70.1231428303
 20
71.1619613546
 40
1.3876815526
100
AcDbArc
 50
343.2467507844
 51
16.7532492156
  0
ARC
  5
52D
100
AcDbEntity
  8
0
100
AcDbCircle
 62
7
  6
CONTINUOUS
 10
70.1231428303
 20
71.1619613546
 40
1.3876815526
100
AcDbArc
 50
253.2467507844
 51
286.7532492156
  0
ARC
  5
52E
100
AcDbEntity
  8
0
100
AcDbCircle
 62
7
  6
CONTINUOUS
 10
70.1231428303
 20
71.1619613546
 40
1.3876815526
100
AcDbArc
 50
73.2467507844
 51
106.7532492152
  0
ARC
  5
52F
100
AcDbEntity
  8
0
100
AcDbCircle
 62
7
  6
CONTINUOUS
 10
70.1231428303
 20
71.1619613546
 40
0.7597753402
100
AcDbArc
 50
148.2326487547
 51
211.7673512453
  0
ARC
  5
530
100
AcDbEntity
  8
0
100
AcDbCircle
 62
7
  6
CONTINUOUS
 10
70.1231428303
 20
71.1619613546
 40
0.7597753402
100
AcDbArc
 50
238.2326487556
 51
301.7673512451
  0
ARC
  5
531
100
AcDbEntity
  8
0
100
AcDbCircle
 62
7
  6
CONTINUOUS
 10
70.1231428303
 20
71.1619613546
 40
0.7597753402
100
AcDbArc
 50
328.232648755
 51
31.767351245
  0
ARC
  5
532
100
AcDbEntity
  8
0
100
AcDbCircle
 62
7
  6
CONTINUOUS
 10
70.1231428303
 20
71.1619613546
 40
0.7597753402
100
AcDbArc
 50
58.2326487549
 51
121.7673512444
  0
CIRCLE
  5
533
100
AcDbEntity
  8
0
100
AcDbCircle
 62
7
  6
CONTINUOUS
 10
70.1231428303
 20
71.1619613546
 40
0.4
  0
ARC
  5
534
100
AcDbEntity
  8
0
100
AcDbCircle
 62
7
  6
CONTINUOUS
 10
69.6231428303
 20
70.6619613546
 40
0.1
100
AcDbArc
 50
0.0
 51
90.0
  0
ARC
  5
535
100
AcDbEntity
  8
0
100
AcDbCircle
 62
7
  6
CONTINUOUS
 10
69.6231428303
 20
71.6619613546
 40
0.1
100
AcDbArc
 50
270.0
 51
360.0
  0
ARC
  5
536
100
AcDbEntity
  8
0
100
AcDbCircle
 62
7
  6
CONTINUOUS
 10
63.837741921
 20
73.3620044105
 40
0.2000331564
100
AcDbArc
 50
270.0215177004
 51
359.9876681474
  0
ARC
  5
537
100
AcDbEntity
  8
0
100
AcDbCircle
 62
7
  6
CONTINUOUS
 10
75.8231247406
 20
62.4619613546
 40
0.4
100
AcDbArc
 50
0.0
 51
90.0
  0
ARC
  5
538
100
AcDbEntity
  8
0
100
AcDbCircle
 62
7
  6
CONTINUOUS
 10
75.9231247406
 20
61.3119613546
 40
0.3
100
AcDbArc
 50
270.0
 51
360.0
  0
ARC
  5
539
100
AcDbEntity
  8
0
100
AcDbCircle
 62
7
  6
CONTINUOUS
 10
78.5231428303
 20
64.2619613546
 40
0.1
100
AcDbArc
 50
0.0
 51
90.0
  0
ARC
  5
53A
100
AcDbEntity
  8
0
100
AcDbCircle
 62
7
  6
CONTINUOUS
 10
70.6231428303
 20
64.2619613546
 40
0.1
100
AcDbArc
 50
90.0
 51
180.0
  0
ARC
  5
53B
100
AcDbEntity
  8
0
100
AcDbCircle
 62
7
  6
CONTINUOUS
 10
70.6231428303
 20
65.2619613546
 40
0.1
100
AcDbArc
 50
180.0
 51
270.0
  0
CIRCLE
  5
53C
100
AcDbEntity
  8
0
100
AcDbCircle
 62
7
  6
CONTINUOUS
 10
79.0231247406
 20
64.8619613546
 40
2.6
  0
ARC
  5
53D
100
AcDbEntity
  8
0
100
AcDbCircle
 62
7
  6
CONTINUOUS
 10
79.0231247406
 20
64.8619613546
 40
2.55
100
AcDbArc
 50
328.9535364567
 51
346.7266843508
  0
ARC
  5
53E
100
AcDbEntity
  8
0
100
AcDbCircle
 62
7
  6
CONTINUOUS
 10
79.0231247406
 20
64.8619613546
 40
2.55
100
AcDbArc
 50
348.5327578756
 51
210.8333901808
  0
ARC
  5
53F
100
AcDbEntity
  8
0
100
AcDbCircle
 62
7
  6
CONTINUOUS
 10
79.0231428303
 20
64.7619613546
 40
2.5
100
AcDbArc
 50
300.1396537624
 51
303.4219990221
  0
ARC
  5
540
100
AcDbEntity
  8
0
100
AcDbCircle
 62
7
  6
CONTINUOUS
 10
79.0231428303
 20
64.7619613546
 40
2.5
100
AcDbArc
 50
310.0247905225
 51
239.9651763265
  0
ARC
  5
541
100
AcDbEntity
  8
0
100
AcDbCircle
 62
7
  6
CONTINUOUS
 10
79.0231428303
 20
64.7619613546
 40
2.2
100
AcDbArc
 50
10.4756816964
 51
169.5243183036
  0
ARC
  5
542
100
AcDbEntity
  8
0
100
AcDbCircle
 62
7
  6
CONTINUOUS
 10
79.0231428303
 20
64.7619613546
 40
2.2
100
AcDbArc
 50
190.4756816964
 51
349.5243183036
  0
ARC
  5
543
100
AcDbEntity
  8
0
100
AcDbCircle
 62
7
  6
CONTINUOUS
 10
79.0231428303
 20
64.7619613546
 40
1.3876815526
100
AcDbArc
 50
163.2467507844
 51
196.7532492156
  0
ARC
  5
544
100
AcDbEntity
  8
0
100
AcDbCircle
 62
7
  6
CONTINUOUS
 10
79.0231428303
 20
64.7619613546
 40
1.3876815526
100
AcDbArc
 50
73.2467507844
 51
106.7532492156
  0
ARC
  5
545
100
AcDbEntity
  8
0
100
AcDbCircle
 62
7
  6
CONTINUOUS
 10
79.0231428303
 20
64.7619613546
 40
1.3876815526
100
AcDbArc
 50
253.2467507844
 51
286.7532492152
  0
ARC
  5
546
100
AcDbEntity
  8
0
100
AcDbCircle
 62
7
  6
CONTINUOUS
 10
79.0231428303
 20
64.7619613546
 40
1.3876815526
100
AcDbArc
 50
343.2467507844
 51
16.7532492156
  0
ARC
  5
547
100
AcDbEntity
  8
0
100
AcDbCircle
 62
7
  6
CONTINUOUS
 10
79.0231428303
 20
64.7619613546
 40
0.7597753402
100
AcDbArc
 50
238.232648755
 51
301.7673512443
  0
ARC
  5
548
100
AcDbEntity
  8
0
100
AcDbCircle
 62
7
  6
CONTINUOUS
 10
79.0231428303
 20
64.7619613546
 40
0.7597753402
100
AcDbArc
 50
148.232648755
 51
211.767351245
  0
ARC
  5
549
100
AcDbEntity
  8
0
100
AcDbCircle
 62
7
  6
CONTINUOUS
 10
79.0231428303
 20
64.7619613546
 40
0.7597753402
100
AcDbArc
 50
58.2326487556
 51
121.7673512451
  0
ARC
  5
54A
100
AcDbEntity
  8
0
100
AcDbCircle
 62
7
  6
CONTINUOUS
 10
79.0231428303
 20
64.7619613546
 40
0.7597753402
100
AcDbArc
 50
328.2326487547
 51
31.7673512453
  0
CIRCLE
  5
54B
100
AcDbEntity
  8
0
100
AcDbCircle
 62
7
  6
CONTINUOUS
 10
79.0231428303
 20
64.7619613546
 40
0.4
  0
ARC
  5
54C
100
AcDbEntity
  8
0
100
AcDbCircle
 62
7
  6
CONTINUOUS
 10
78.5231428303
 20
65.2619613546
 40
0.1
100
AcDbArc
 50
270.0
 51
360.0
  0
ARC
  5
54D
100
AcDbEntity
  8
0
100
AcDbCircle
 62
7
  6
CONTINUOUS
 10
75.8231247406
 20
67.2619613546
 40
0.4
100
AcDbArc
 50
270.0
 51
360.0
  0
ARC
  5
54E
100
AcDbEntity
  8
0
100
AcDbCircle
 62
7
  6
CONTINUOUS
 10
84.7231247406
 20
62.4619613546
 40
0.4
100
AcDbArc
 50
0.0
 51
90.0
  0
ARC
  5
54F
100
AcDbEntity
  8
0
100
AcDbCircle
 62
7
  6
CONTINUOUS
 10
84.8231247406
 20
61.3119613546
 40
0.3
100
AcDbArc
 50
270.0
 51
360.0
  0
ARC
  5
550
100
AcDbEntity
  8
0
100
AcDbCircle
 62
7
  6
CONTINUOUS
 10
88.4231428303
 20
64.2619613546
 40
0.1
100
AcDbArc
 50
90.0
 51
180.0
  0
ARC
  5
551
100
AcDbEntity
  8
0
100
AcDbCircle
 62
7
  6
CONTINUOUS
 10
87.4231428303
 20
64.2619613546
 40
0.1
100
AcDbArc
 50
0.0
 51
90.0
  0
ARC
  5
552
100
AcDbEntity
  8
0
100
AcDbCircle
 62
7
  6
CONTINUOUS
 10
79.5231428303
 20
64.2619613546
 40
0.1
100
AcDbArc
 50
90.0
 51
180.0000000213
  0
ARC
  5
553
100
AcDbEntity
  8
0
100
AcDbCircle
 62
7
  6
CONTINUOUS
 10
79.5231428303
 20
65.2619613546
 40
0.1
100
AcDbArc
 50
179.9999999787
 51
270.0
  0
CIRCLE
  5
554
100
AcDbEntity
  8
0
100
AcDbCircle
 62
7
  6
CONTINUOUS
 10
87.9231247406
 20
64.8619613546
 40
2.6
  0
ARC
  5
555
100
AcDbEntity
  8
0
100
AcDbCircle
 62
7
  6
CONTINUOUS
 10
87.9231247406
 20
64.8619613546
 40
2.55
100
AcDbArc
 50
328.9535364567
 51
210.8333901808
  0
ARC
  5
556
100
AcDbEntity
  8
0
100
AcDbCircle
 62
7
  6
CONTINUOUS
 10
87.9231428303
 20
64.7619613546
 40
2.5
100
AcDbArc
 50
300.1396537624
 51
239.9651763265
  0
ARC
  5
557
100
AcDbEntity
  8
0
100
AcDbCircle
 62
7
  6
CONTINUOUS
 10
87.9231428303
 20
64.7619613546
 40
2.2
100
AcDbArc
 50
190.4756816964
 51
349.5243183036
  0
ARC
  5
558
100
AcDbEntity
  8
0
100
AcDbCircle
 62
7
  6
CONTINUOUS
 10
87.9231428303
 20
64.7619613546
 40
2.2
100
AcDbArc
 50
10.4756816964
 51
169.5243183036
  0
ARC
  5
559
100
AcDbEntity
  8
0
100
AcDbCircle
 62
7
  6
CONTINUOUS
 10
87.9231428303
 20
64.7619613546
 40
1.3876815526
100
AcDbArc
 50
343.2467507844
 51
16.7532492156
  0
ARC
  5
55A
100
AcDbEntity
  8
0
100
AcDbCircle
 62
7
  6
CONTINUOUS
 10
87.9231428303
 20
64.7619613546
 40
1.3876815526
100
AcDbArc
 50
163.2467507844
 51
196.7532492156
  0
ARC
  5
55B
100
AcDbEntity
  8
0
100
AcDbCircle
 62
7
  6
CONTINUOUS
 10
87.9231428303
 20
64.7619613546
 40
1.3876815526
100
AcDbArc
 50
253.2467507844
 51
286.7532492156
  0
ARC
  5
55C
100
AcDbEntity
  8
0
100
AcDbCircle
 62
7
  6
CONTINUOUS
 10
87.9231428303
 20
64.7619613546
 40
1.3876815526
100
AcDbArc
 50
73.2467507844
 51
106.7532492156
  0
ARC
  5
55D
100
AcDbEntity
  8
0
100
AcDbCircle
 62
7
  6
CONTINUOUS
 10
87.9231428303
 20
64.7619613546
 40
0.7597753402
100
AcDbArc
 50
328.2326487549
 51
31.7673512451
  0
ARC
  5
55E
100
AcDbEntity
  8
0
100
AcDbCircle
 62
7
  6
CONTINUOUS
 10
87.9231428303
 20
64.7619613546
 40
0.7597753402
100
AcDbArc
 50
148.2326487549
 51
211.7673512451
  0
ARC
  5
55F
100
AcDbEntity
  8
0
100
AcDbCircle
 62
7
  6
CONTINUOUS
 10
87.9231428303
 20
64.7619613546
 40
0.7597753402
100
AcDbArc
 50
58.2326487549
 51
121.7673512451
  0
ARC
  5
560
100
AcDbEntity
  8
0
100
AcDbCircle
 62
7
  6
CONTINUOUS
 10
87.9231428303
 20
64.7619613546
 40
0.7597753402
100
AcDbArc
 50
238.232648755
 51
301.767351245
  0
CIRCLE
  5
561
100
AcDbEntity
  8
0
100
AcDbCircle
 62
7
  6
CONTINUOUS
 10
87.9231428303
 20
64.7619613546
 40
0.4
  0
ARC
  5
562
100
AcDbEntity
  8
0
100
AcDbCircle
 62
7
  6
CONTINUOUS
 10
87.4231428303
 20
65.2619613546
 40
0.1
100
AcDbArc
 50
270.0
 51
360.0
  0
ARC
  5
563
100
AcDbEntity
  8
0
100
AcDbCircle
 62
7
  6
CONTINUOUS
 10
88.4231428303
 20
65.2619613546
 40
0.1
100
AcDbArc
 50
180.0
 51
270.0
  0
ARC
  5
564
100
AcDbEntity
  8
0
100
AcDbCircle
 62
7
  6
CONTINUOUS
 10
84.7231247406
 20
67.2619613546
 40
0.4
100
AcDbArc
 50
270.0
 51
360.0
  0
ARC
  5
565
100
AcDbEntity
  8
0
100
AcDbCircle
 62
7
  6
CONTINUOUS
 10
70.6231428303
 20
70.6619613546
 40
0.1
100
AcDbArc
 50
90.0
 51
180.0
  0
ARC
  5
566
100
AcDbEntity
  8
0
100
AcDbCircle
 62
7
  6
CONTINUOUS
 10
75.8231247406
 20
68.8619613546
 40
0.4
100
AcDbArc
 50
0.0
 51
90.0
  0
ARC
  5
567
100
AcDbEntity
  8
0
100
AcDbCircle
 62
7
  6
CONTINUOUS
 10
79.0231428303
 20
71.1619613546
 40
2.5
100
AcDbArc
 50
300.1396537624
 51
239.9651763265
  0
ARC
  5
568
100
AcDbEntity
  8
0
100
AcDbCircle
 62
7
  6
CONTINUOUS
 10
79.0231428303
 20
71.1619613546
 40
2.2
100
AcDbArc
 50
190.4756816964
 51
349.5243183036
  0
ARC
  5
569
100
AcDbEntity
  8
0
100
AcDbCircle
 62
7
  6
CONTINUOUS
 10
79.0231428303
 20
71.1619613546
 40
2.2
100
AcDbArc
 50
10.4756816964
 51
169.5243183036
  0
ARC
  5
56A
100
AcDbEntity
  8
0
100
AcDbCircle
 62
7
  6
CONTINUOUS
 10
79.0231428303
 20
71.1619613546
 40
1.3876815526
100
AcDbArc
 50
163.2467507844
 51
196.7532492156
  0
ARC
  5
56B
100
AcDbEntity
  8
0
100
AcDbCircle
 62
7
  6
CONTINUOUS
 10
79.0231428303
 20
71.1619613546
 40
1.3876815526
100
AcDbArc
 50
343.2467507844
 51
16.7532492156
  0
ARC
  5
56C
100
AcDbEntity
  8
0
100
AcDbCircle
 62
7
  6
CONTINUOUS
 10
79.0231428303
 20
71.1619613546
 40
1.3876815526
100
AcDbArc
 50
253.2467507844
 51
286.7532492152
  0
ARC
  5
56D
100
AcDbEntity
  8
0
100
AcDbCircle
 62
7
  6
CONTINUOUS
 10
79.0231428303
 20
71.1619613546
 40
1.3876815526
100
AcDbArc
 50
73.2467507844
 51
106.7532492156
  0
ARC
  5
56E
100
AcDbEntity
  8
0
100
AcDbCircle
 62
7
  6
CONTINUOUS
 10
79.0231428303
 20
71.1619613546
 40
0.7597753402
100
AcDbArc
 50
148.232648755
 51
211.767351245
  0
ARC
  5
56F
100
AcDbEntity
  8
0
100
AcDbCircle
 62
7
  6
CONTINUOUS
 10
79.0231428303
 20
71.1619613546
 40
0.7597753402
100
AcDbArc
 50
238.2326487549
 51
301.7673512444
  0
ARC
  5
570
100
AcDbEntity
  8
0
100
AcDbCircle
 62
7
  6
CONTINUOUS
 10
79.0231428303
 20
71.1619613546
 40
0.7597753402
100
AcDbArc
 50
328.2326487547
 51
31.7673512453
  0
ARC
  5
571
100
AcDbEntity
  8
0
100
AcDbCircle
 62
7
  6
CONTINUOUS
 10
79.0231428303
 20
71.1619613546
 40
0.7597753402
100
AcDbArc
 50
58.2326487556
 51
121.7673512451
  0
CIRCLE
  5
572
100
AcDbEntity
  8
0
100
AcDbCircle
 62
7
  6
CONTINUOUS
 10
79.0231428303
 20
71.1619613546
 40
0.4
  0
ARC
  5
573
100
AcDbEntity
  8
0
100
AcDbCircle
 62
7
  6
CONTINUOUS
 10
78.5231428303
 20
70.6619613546
 40
0.1
100
AcDbArc
 50
0.0
 51
90.0
  0
CIRCLE
  5
574
100
AcDbEntity
  8
0
100
AcDbCircle
 62
7
  6
CONTINUOUS
 10
79.0231247406
 20
71.2619613546
 40
2.6
  0
ARC
  5
575
100
AcDbEntity
  8
0
100
AcDbCircle
 62
7
  6
CONTINUOUS
 10
79.0231247406
 20
71.2619613546
 40
2.55
100
AcDbArc
 50
328.9535364567
 51
346.7266843508
  0
ARC
  5
576
100
AcDbEntity
  8
0
100
AcDbCircle
 62
7
  6
CONTINUOUS
 10
79.0231247406
 20
71.2619613546
 40
2.55
100
AcDbArc
 50
348.5327578756
 51
210.8333901808
  0
ARC
  5
577
100
AcDbEntity
  8
0
100
AcDbCircle
 62
7
  6
CONTINUOUS
 10
75.8231247406
 20
73.6619613546
 40
0.4
100
AcDbArc
 50
270.0
 51
360.0
  0
ARC
  5
578
100
AcDbEntity
  8
0
100
AcDbCircle
 62
7
  6
CONTINUOUS
 10
78.5231428303
 20
71.6619613546
 40
0.1
100
AcDbArc
 50
270.0
 51
360.0
  0
ARC
  5
579
100
AcDbEntity
  8
0
100
AcDbCircle
 62
7
  6
CONTINUOUS
 10
70.6231428303
 20
71.6619613546
 40
0.1
100
AcDbArc
 50
180.0
 51
270.0
  0
ARC
  5
57A
100
AcDbEntity
  8
0
100
AcDbCircle
 62
7
  6
CONTINUOUS
 10
79.5231428303
 20
70.6619613546
 40
0.1
100
AcDbArc
 50
90.0
 51
180.0000000213
  0
ARC
  5
57B
100
AcDbEntity
  8
0
100
AcDbCircle
 62
7
  6
CONTINUOUS
 10
84.7231247406
 20
68.8619613546
 40
0.4
100
AcDbArc
 50
0.0
 51
90.0
  0
ARC
  5
57C
100
AcDbEntity
  8
0
100
AcDbCircle
 62
7
  6
CONTINUOUS
 10
87.9231428303
 20
71.1619613546
 40
2.5
100
AcDbArc
 50
300.1396537624
 51
239.9651763265
  0
ARC
  5
57D
100
AcDbEntity
  8
0
100
AcDbCircle
 62
7
  6
CONTINUOUS
 10
87.9231428303
 20
71.1619613546
 40
2.2
100
AcDbArc
 50
190.4756816964
 51
349.5243183036
  0
ARC
  5
57E
100
AcDbEntity
  8
0
100
AcDbCircle
 62
7
  6
CONTINUOUS
 10
87.9231428303
 20
71.1619613546
 40
2.2
100
AcDbArc
 50
10.4756816964
 51
169.5243183036
  0
ARC
  5
57F
100
AcDbEntity
  8
0
100
AcDbCircle
 62
7
  6
CONTINUOUS
 10
87.9231428303
 20
71.1619613546
 40
1.3876815526
100
AcDbArc
 50
163.2467507844
 51
196.7532492156
  0
ARC
  5
580
100
AcDbEntity
  8
0
100
AcDbCircle
 62
7
  6
CONTINUOUS
 10
87.9231428303
 20
71.1619613546
 40
1.3876815526
100
AcDbArc
 50
343.2467507844
 51
16.7532492156
  0
ARC
  5
581
100
AcDbEntity
  8
0
100
AcDbCircle
 62
7
  6
CONTINUOUS
 10
87.9231428303
 20
71.1619613546
 40
1.3876815526
100
AcDbArc
 50
253.2467507844
 51
286.7532492156
  0
ARC
  5
582
100
AcDbEntity
  8
0
100
AcDbCircle
 62
7
  6
CONTINUOUS
 10
87.9231428303
 20
71.1619613546
 40
1.3876815526
100
AcDbArc
 50
73.2467507844
 51
106.7532492156
  0
ARC
  5
583
100
AcDbEntity
  8
0
100
AcDbCircle
 62
7
  6
CONTINUOUS
 10
87.9231428303
 20
71.1619613546
 40
0.7597753402
100
AcDbArc
 50
148.2326487549
 51
211.7673512451
  0
ARC
  5
584
100
AcDbEntity
  8
0
100
AcDbCircle
 62
7
  6
CONTINUOUS
 10
87.9231428303
 20
71.1619613546
 40
0.7597753402
100
AcDbArc
 50
238.2326487549
 51
301.7673512451
  0
ARC
  5
585
100
AcDbEntity
  8
0
100
AcDbCircle
 62
7
  6
CONTINUOUS
 10
87.9231428303
 20
71.1619613546
 40
0.7597753402
100
AcDbArc
 50
328.2326487549
 51
31.7673512451
  0
ARC
  5
586
100
AcDbEntity
  8
0
100
AcDbCircle
 62
7
  6
CONTINUOUS
 10
87.9231428303
 20
71.1619613546
 40
0.7597753402
100
AcDbArc
 50
58.2326487549
 51
121.7673512451
  0
CIRCLE
  5
587
100
AcDbEntity
  8
0
100
AcDbCircle
 62
7
  6
CONTINUOUS
 10
87.9231428303
 20
71.1619613546
 40
0.4
  0
ARC
  5
588
100
AcDbEntity
  8
0
100
AcDbCircle
 62
7
  6
CONTINUOUS
 10
88.4231428303
 20
70.6619613546
 40
0.1
100
AcDbArc
 50
90.0
 51
180.0
  0
ARC
  5
589
100
AcDbEntity
  8
0
100
AcDbCircle
 62
7
  6
CONTINUOUS
 10
87.4231428303
 20
70.6619613546
 40
0.1
100
AcDbArc
 50
0.0
 51
90.0
  0
CIRCLE
  5
58A
100
AcDbEntity
  8
0
100
AcDbCircle
 62
7
  6
CONTINUOUS
 10
87.9231247406
 20
71.2619613546
 40
2.6
  0
ARC
  5
58B
100
AcDbEntity
  8
0
100
AcDbCircle
 62
7
  6
CONTINUOUS
 10
87.9231247406
 20
71.2619613546
 40
2.55
100
AcDbArc
 50
328.9535364567
 51
210.8333901808
  0
ARC
  5
58C
100
AcDbEntity
  8
0
100
AcDbCircle
 62
7
  6
CONTINUOUS
 10
84.7231247406
 20
73.6619613546
 40
0.4
100
AcDbArc
 50
270.0000000003
 51
360.0
  0
ARC
  5
58D
100
AcDbEntity
  8
0
100
AcDbCircle
 62
7
  6
CONTINUOUS
 10
87.4231428303
 20
71.6619613546
 40
0.1
100
AcDbArc
 50
270.0
 51
360.0
  0
ARC
  5
58E
100
AcDbEntity
  8
0
100
AcDbCircle
 62
7
  6
CONTINUOUS
 10
88.4231428303
 20
71.6619613546
 40
0.1
100
AcDbArc
 50
180.0
 51
270.0
  0
ARC
  5
58F
100
AcDbEntity
  8
0
100
AcDbCircle
 62
7
  6
CONTINUOUS
 10
79.5231428303
 20
71.6619613546
 40
0.1
100
AcDbArc
 50
179.9999999787
 51
270.0
  0
CIRCLE
  5
590
100
AcDbEntity
  8
0
100
AcDbCircle
 62
7
  6
CONTINUOUS
 10
21.1231247406
 20
84.0619613546
 40
2.6
  0
ARC
  5
591
100
AcDbEntity
  8
0
100
AcDbCircle
 62
7
  6
CONTINUOUS
 10
21.1231247406
 20
84.0619613546
 40
2.55
100
AcDbArc
 50
328.9527497351
 51
346.7265773257
  0
ARC
  5
592
100
AcDbEntity
  8
0
100
AcDbCircle
 62
7
  6
CONTINUOUS
 10
21.1231247406
 20
84.0619613546
 40
2.55
100
AcDbArc
 50
348.5326503177
 51
210.8325981336
  0
ARC
  5
593
100
AcDbEntity
  8
0
100
AcDbCircle
 62
7
  6
CONTINUOUS
 10
21.1231247406
 20
83.9619613546
 40
2.5
100
AcDbArc
 50
300.1394339292
 51
303.4219990221
  0
ARC
  5
594
100
AcDbEntity
  8
0
100
AcDbCircle
 62
7
  6
CONTINUOUS
 10
21.1231247406
 20
83.9619613546
 40
2.5
100
AcDbArc
 50
310.0225851368
 51
239.964958557
  0
ARC
  5
595
100
AcDbEntity
  8
0
100
AcDbCircle
 62
7
  6
CONTINUOUS
 10
21.1231247406
 20
83.9619613546
 40
2.2
100
AcDbArc
 50
190.4756816964
 51
349.5243183036
  0
ARC
  5
596
100
AcDbEntity
  8
0
100
AcDbCircle
 62
7
  6
CONTINUOUS
 10
21.1231247406
 20
83.9619613546
 40
2.2
100
AcDbArc
 50
10.4756816964
 51
169.5243183036
  0
ARC
  5
597
100
AcDbEntity
  8
0
100
AcDbCircle
 62
7
  6
CONTINUOUS
 10
21.1231247406
 20
83.9619613546
 40
1.3876815526
100
AcDbArc
 50
163.2467507844
 51
196.7532492156
  0
ARC
  5
598
100
AcDbEntity
  8
0
100
AcDbCircle
 62
7
  6
CONTINUOUS
 10
21.1231247406
 20
83.9619613546
 40
1.3876815526
100
AcDbArc
 50
343.2467507844
 51
16.7532492156
  0
ARC
  5
599
100
AcDbEntity
  8
0
100
AcDbCircle
 62
7
  6
CONTINUOUS
 10
21.1231247406
 20
83.9619613546
 40
1.3876815526
100
AcDbArc
 50
253.2467507844
 51
286.7532492156
  0
ARC
  5
59A
100
AcDbEntity
  8
0
100
AcDbCircle
 62
7
  6
CONTINUOUS
 10
21.1231247406
 20
83.9619613546
 40
1.3876815526
100
AcDbArc
 50
73.2467507844
 51
106.7532492156
  0
ARC
  5
59B
100
AcDbEntity
  8
0
100
AcDbCircle
 62
7
  6
CONTINUOUS
 10
21.1231247406
 20
83.9619613546
 40
0.7597753402
100
AcDbArc
 50
148.232648755
 51
211.767351245
  0
ARC
  5
59C
100
AcDbEntity
  8
0
100
AcDbCircle
 62
7
  6
CONTINUOUS
 10
21.1231247406
 20
83.9619613546
 40
0.7597753402
100
AcDbArc
 50
238.2326487549
 51
301.7673512451
  0
ARC
  5
59D
100
AcDbEntity
  8
0
100
AcDbCircle
 62
7
  6
CONTINUOUS
 10
21.1231247406
 20
83.9619613546
 40
0.7597753402
100
AcDbArc
 50
328.232648755
 51
31.767351245
  0
ARC
  5
59E
100
AcDbEntity
  8
0
100
AcDbCircle
 62
7
  6
CONTINUOUS
 10
21.1231247406
 20
83.9619613546
 40
0.7597753402
100
AcDbArc
 50
58.232648755
 51
121.767351245
  0
CIRCLE
  5
59F
100
AcDbEntity
  8
0
100
AcDbCircle
 62
7
  6
CONTINUOUS
 10
21.1231247406
 20
83.9619613546
 40
0.4
  0
ARC
  5
5A0
100
AcDbEntity
  8
0
100
AcDbCircle
 62
7
  6
CONTINUOUS
 10
21.6231247406
 20
83.4619613546
 40
0.1
100
AcDbArc
 50
90.0
 51
180.0
  0
ARC
  5
5A1
100
AcDbEntity
  8
0
100
AcDbCircle
 62
7
  6
CONTINUOUS
 10
20.6231247406
 20
83.4619613546
 40
0.1
100
AcDbArc
 50
0.0
 51
90.0
  0
CIRCLE
  5
5A2
100
AcDbEntity
  8
0
100
AcDbCircle
 62
7
  6
CONTINUOUS
 10
32.6231247406
 20
78.3119613546
 40
2.1
  0
CIRCLE
  5
5A3
100
AcDbEntity
  8
0
100
AcDbCircle
 62
7
  6
CONTINUOUS
 10
32.6231247406
 20
78.3119613546
 40
1.9
  0
ARC
  5
5A4
100
AcDbEntity
  8
0
100
AcDbCircle
 62
7
  6
CONTINUOUS
 10
15.4231247406
 20
86.4619613546
 40
0.4
100
AcDbArc
 50
180.0
 51
270.0
  0
ARC
  5
5A5
100
AcDbEntity
  8
0
100
AcDbCircle
 62
7
  6
CONTINUOUS
 10
15.3231247406
 20
87.6119613546
 40
0.3
100
AcDbArc
 50
90.0
 51
180.0
  0
ARC
  5
5A6
100
AcDbEntity
  8
0
100
AcDbCircle
 62
7
  6
CONTINUOUS
 10
17.8231247406
 20
87.6119613546
 40
0.3
100
AcDbArc
 50
90.0
 51
180.0
  0
ARC
  5
5A7
100
AcDbEntity
  8
0
100
AcDbCircle
 62
7
  6
CONTINUOUS
 10
20.6231247406
 20
84.4619613546
 40
0.1
100
AcDbArc
 50
270.0
 51
360.0
  0
ARC
  5
5A8
100
AcDbEntity
  8
0
100
AcDbCircle
 62
7
  6
CONTINUOUS
 10
21.6231247406
 20
84.4619613546
 40
0.1
100
AcDbArc
 50
180.0
 51
270.0
  0
ARC
  5
5A9
100
AcDbEntity
  8
0
100
AcDbCircle
 62
7
  6
CONTINUOUS
 10
40.0162071819
 20
83.2207148798
 40
0.5
100
AcDbArc
 50
90.0
 51
180.0
  0
ARC
  5
5AA
100
AcDbEntity
  8
0
100
AcDbCircle
 62
7
  6
CONTINUOUS
 10
39.6516945893
 20
83.6207279803
 40
0.2499874074
100
AcDbArc
 50
89.9977453476
 51
180.0008566178
  0
ARC
  5
5AB
100
AcDbEntity
  8
0
100
AcDbCircle
 62
7
  6
CONTINUOUS
 10
39.660421457
 20
83.6120011126
 40
0.2499874073
100
AcDbArc
 50
89.997745282
 51
180.0008566429
  0
ARC
  5
5AC
100
AcDbEntity
  8
0
100
AcDbCircle
 62
7
  6
CONTINUOUS
 10
43.2583176533
 20
90.171767683
 40
2.6670438138
100
AcDbArc
 50
271.943041833
 51
272.4260261148
  0
ARC
  5
5AD
100
AcDbEntity
  8
0
100
AcDbCircle
 62
7
  6
CONTINUOUS
 10
37.5711777823
 20
84.2621376884
 40
0.6998813972
100
AcDbArc
 50
102.2177764136
 51
180.0032358375
  0
ARC
  5
5AE
100
AcDbEntity
  8
0
100
AcDbCircle
 62
7
  6
CONTINUOUS
 10
37.5477515539
 20
84.4619613546
 40
0.5
100
AcDbArc
 50
89.9987000526
 51
104.4423607071
  0
ARC
  5
5AF
100
AcDbEntity
  8
0
100
AcDbCircle
 62
7
  6
CONTINUOUS
 10
37.7231247406
 20
87.6119613546
 40
0.3
100
AcDbArc
 50
0.0
 51
90.0
  0
ARC
  5
5B0
100
AcDbEntity
  8
0
100
AcDbCircle
 62
7
  6
CONTINUOUS
 10
49.7231247406
 20
87.6119613546
 40
0.3
100
AcDbArc
 50
0.0
 51
90.0
  0
ARC
  5
5B1
100
AcDbEntity
  8
0
100
AcDbCircle
 62
7
  6
CONTINUOUS
 10
50.8731247406
 20
87.6119613546
 40
0.3
100
AcDbArc
 50
0.0
 51
90.0
  0
ARC
  5
5B2
100
AcDbEntity
  8
0
100
AcDbCircle
 62
7
  6
CONTINUOUS
 10
41.5231247406
 20
87.4119613546
 40
0.2
100
AcDbArc
 50
90.0
 51
151.8780792374
  0
ARC
  5
5B3
100
AcDbEntity
  8
0
100
AcDbCircle
 62
7
  6
CONTINUOUS
 10
43.1231247406
 20
87.4119613546
 40
0.2
100
AcDbArc
 50
28.3556298322
 51
90.0
  0
ARC
  5
5B4
100
AcDbEntity
  8
0
100
AcDbCircle
 62
7
  6
CONTINUOUS
 10
46.4907146145
 20
111.0175229941
 40
23.9881327582
100
AcDbArc
 50
271.1275442408
 51
271.4867981881
  0
ARC
  5
5B5
100
AcDbEntity
  8
0
100
AcDbCircle
 62
7
  6
CONTINUOUS
 10
42.8287181025
 20
109.9481413098
 40
22.4483745031
100
AcDbArc
 50
270.8027513004
 51
270.9490127657
  0
ARC
  5
5B6
100
AcDbEntity
  8
0
100
AcDbCircle
 62
7
  6
CONTINUOUS
 10
41.7882373824
 20
109.2960228318
 40
21.7961914221
100
AcDbArc
 50
269.0391690531
 51
269.2394486525
  0
ARC
  5
5B7
100
AcDbEntity
  8
0
100
AcDbCircle
 62
7
  6
CONTINUOUS
 10
56.0983116187
 20
75.7131686153
 40
0.2
100
AcDbArc
 50
180.0
 51
219.4246625826
  0
ARC
  5
5B8
100
AcDbEntity
  8
0
100
AcDbCircle
 62
7
  6
CONTINUOUS
 10
56.0983116187
 20
75.7131686153
 40
0.2
100
AcDbArc
 50
320.5753374174
 51
360.0
  0
ARC
  5
5B9
100
AcDbEntity
  8
0
100
AcDbCircle
 62
7
  6
CONTINUOUS
 10
61.7213116187
 20
75.5631686153
 40
0.15
100
AcDbArc
 50
102.4654166611
 51
169.2027583687
  0
ARC
  5
5BA
100
AcDbEntity
  8
0
100
AcDbCircle
 62
7
  6
CONTINUOUS
 10
60.5213116187
 20
75.5631686153
 40
0.15
100
AcDbArc
 50
10.7967018159
 51
90.0
  0
ARC
  5
5BB
100
AcDbEntity
  8
0
100
AcDbCircle
 62
7
  6
CONTINUOUS
 10
53.8387507937
 20
79.461988012
 40
4.9999714641
100
AcDbArc
 50
129.1731536854
 51
230.8268463147
  0
ARC
  5
5BC
100
AcDbEntity
  8
0
100
AcDbCircle
 62
7
  6
CONTINUOUS
 10
53.8387507937
 20
79.461988012
 40
4.6
100
AcDbArc
 50
122.7805113517
 51
237.2194886484
  0
CIRCLE
  5
5BD
100
AcDbEntity
  8
0
100
AcDbCircle
 62
7
  6
CONTINUOUS
 10
61.1666761845
 20
79.4631686153
 40
1.0
  0
CIRCLE
  5
5BE
100
AcDbEntity
  8
0
100
AcDbCircle
 62
7
  6
CONTINUOUS
 10
61.1666761845
 20
79.4631686153
 40
0.5
  0
ARC
  5
5BF
100
AcDbEntity
  8
0
100
AcDbCircle
 62
7
  6
CONTINUOUS
 10
69.6231428303
 20
77.0619613546
 40
0.1
100
AcDbArc
 50
0.0
 51
90.0
  0
CIRCLE
  5
5C0
100
AcDbEntity
  8
0
100
AcDbCircle
 62
7
  6
CONTINUOUS
 10
70.1231247406
 20
77.6619613546
 40
2.6
  0
ARC
  5
5C1
100
AcDbEntity
  8
0
100
AcDbCircle
 62
7
  6
CONTINUOUS
 10
70.1231247406
 20
77.6619613546
 40
2.55
100
AcDbArc
 50
328.9535364563
 51
346.7266843508
  0
ARC
  5
5C2
100
AcDbEntity
  8
0
100
AcDbCircle
 62
7
  6
CONTINUOUS
 10
70.1231247406
 20
77.6619613546
 40
2.55
100
AcDbArc
 50
348.5327578756
 51
210.8333901804
  0
ARC
  5
5C3
100
AcDbEntity
  8
0
100
AcDbCircle
 62
7
  6
CONTINUOUS
 10
70.1231428303
 20
77.5619613546
 40
2.5
100
AcDbArc
 50
300.1396537623
 51
239.9651763264
  0
ARC
  5
5C4
100
AcDbEntity
  8
0
100
AcDbCircle
 62
7
  6
CONTINUOUS
 10
70.1231428303
 20
77.5619613546
 40
2.2
100
AcDbArc
 50
10.4756816964
 51
169.5243183036
  0
ARC
  5
5C5
100
AcDbEntity
  8
0
100
AcDbCircle
 62
7
  6
CONTINUOUS
 10
70.1231428303
 20
77.5619613546
 40
2.2
100
AcDbArc
 50
190.4756816964
 51
349.5243183036
  0
ARC
  5
5C6
100
AcDbEntity
  8
0
100
AcDbCircle
 62
7
  6
CONTINUOUS
 10
70.1231428303
 20
77.5619613546
 40
1.3876815526
100
AcDbArc
 50
73.2467507844
 51
106.7532492152
  0
ARC
  5
5C7
100
AcDbEntity
  8
0
100
AcDbCircle
 62
7
  6
CONTINUOUS
 10
70.1231428303
 20
77.5619613546
 40
1.3876815526
100
AcDbArc
 50
253.2467507844
 51
286.7532492156
  0
ARC
  5
5C8
100
AcDbEntity
  8
0
100
AcDbCircle
 62
7
  6
CONTINUOUS
 10
70.1231428303
 20
77.5619613546
 40
1.3876815526
100
AcDbArc
 50
343.2467507844
 51
16.7532492156
  0
ARC
  5
5C9
100
AcDbEntity
  8
0
100
AcDbCircle
 62
7
  6
CONTINUOUS
 10
70.1231428303
 20
77.5619613546
 40
1.3876815526
100
AcDbArc
 50
163.2467507844
 51
196.7532492156
  0
ARC
  5
5CA
100
AcDbEntity
  8
0
100
AcDbCircle
 62
7
  6
CONTINUOUS
 10
70.1231428303
 20
77.5619613546
 40
0.7597753402
100
AcDbArc
 50
58.2326487549
 51
121.7673512444
  0
ARC
  5
5CB
100
AcDbEntity
  8
0
100
AcDbCircle
 62
7
  6
CONTINUOUS
 10
70.1231428303
 20
77.5619613546
 40
0.7597753402
100
AcDbArc
 50
328.232648755
 51
31.767351245
  0
ARC
  5
5CC
100
AcDbEntity
  8
0
100
AcDbCircle
 62
7
  6
CONTINUOUS
 10
70.1231428303
 20
77.5619613546
 40
0.7597753402
100
AcDbArc
 50
238.2326487556
 51
301.7673512451
  0
ARC
  5
5CD
100
AcDbEntity
  8
0
100
AcDbCircle
 62
7
  6
CONTINUOUS
 10
70.1231428303
 20
77.5619613546
 40
0.7597753402
100
AcDbArc
 50
148.2326487547
 51
211.7673512453
  0
CIRCLE
  5
5CE
100
AcDbEntity
  8
0
100
AcDbCircle
 62
7
  6
CONTINUOUS
 10
70.1231428303
 20
77.5619613546
 40
0.4
  0
ARC
  5
5CF
100
AcDbEntity
  8
0
100
AcDbCircle
 62
7
  6
CONTINUOUS
 10
69.6231428303
 20
78.0619613546
 40
0.1
100
AcDbArc
 50
270.0
 51
360.0
  0
ARC
  5
5D0
100
AcDbEntity
  8
0
100
AcDbCircle
 62
7
  6
CONTINUOUS
 10
55.8310309891
 20
85.1119613546
 40
0.3
100
AcDbArc
 50
90.0
 51
165.9991976139
  0
ARC
  5
5D1
100
AcDbEntity
  8
0
100
AcDbCircle
 62
7
  6
CONTINUOUS
 10
56.0983116187
 20
83.2131686153
 40
0.2
100
AcDbArc
 50
0.0
 51
38.4570220639
  0
ARC
  5
5D2
100
AcDbEntity
  8
0
100
AcDbCircle
 62
7
  6
CONTINUOUS
 10
56.0983116187
 20
83.2131686153
 40
0.2
100
AcDbArc
 50
141.5429779361
 51
180.0
  0
ARC
  5
5D3
100
AcDbEntity
  8
0
100
AcDbCircle
 62
7
  6
CONTINUOUS
 10
60.5213116187
 20
83.3631686153
 40
0.15
100
AcDbArc
 50
270.0
 51
348.258642753
  0
ARC
  5
5D4
100
AcDbEntity
  8
0
100
AcDbCircle
 62
7
  6
CONTINUOUS
 10
52.8231247406
 20
85.8619613546
 40
3.1
100
AcDbArc
 50
194.4557650336
 51
196.8780541951
  0
ARC
  5
5D5
100
AcDbEntity
  8
0
100
AcDbCircle
 62
7
  6
CONTINUOUS
 10
52.8231247406
 20
85.8619613546
 40
3.1
100
AcDbArc
 50
351.6533807368
 51
352.3193657139
  0
ARC
  5
5D6
100
AcDbEntity
  8
0
100
AcDbCircle
 62
7
  6
CONTINUOUS
 10
52.8231247406
 20
85.8619613546
 40
3.1
100
AcDbArc
 50
342.8398473147
 51
345.9991976137
  0
ARC
  5
5D7
100
AcDbEntity
  8
0
100
AcDbCircle
 62
7
  6
CONTINUOUS
 10
52.8231247406
 20
85.8619613546
 40
2.8
100
AcDbArc
 50
195.7015260204
 51
198.8640072775
  0
ARC
  5
5D8
100
AcDbEntity
  8
0
100
AcDbCircle
 62
7
  6
CONTINUOUS
 10
52.8231247406
 20
85.8619613546
 40
2.8
100
AcDbArc
 50
341.6811203932
 51
351.1148149806
  0
ARC
  5
5D9
100
AcDbEntity
  8
0
100
AcDbCircle
 62
7
  6
CONTINUOUS
 10
52.8231247406
 20
85.8619613546
 40
1.95
100
AcDbArc
 50
201.566961095
 51
207.7165992547
  0
ARC
  5
5DA
100
AcDbEntity
  8
0
100
AcDbCircle
 62
7
  6
CONTINUOUS
 10
52.8231247406
 20
85.8619613546
 40
1.95
100
AcDbArc
 50
332.2836283893
 51
344.9461820884
  0
ARC
  5
5DB
100
AcDbEntity
  8
0
100
AcDbCircle
 62
7
  6
CONTINUOUS
 10
52.8231247406
 20
85.8619613546
 40
1.65
100
AcDbArc
 50
204.834901622
 51
213.7255238285
  0
ARC
  5
5DC
100
AcDbEntity
  8
0
100
AcDbCircle
 62
7
  6
CONTINUOUS
 10
52.8231247406
 20
85.8619613546
 40
1.65
100
AcDbArc
 50
326.2744761715
 51
341.5836138593
  0
ARC
  5
5DD
100
AcDbEntity
  8
0
100
AcDbCircle
 62
7
  6
CONTINUOUS
 10
55.9231247406
 20
87.6119613546
 40
0.3
100
AcDbArc
 50
90.0
 51
180.0
  0
ARC
  5
5DE
100
AcDbEntity
  8
0
100
AcDbCircle
 62
7
  6
CONTINUOUS
 10
54.7731247406
 20
87.6119613546
 40
0.3
100
AcDbArc
 50
90.0
 51
180.0
  0
ARC
  5
5DF
100
AcDbEntity
  8
0
100
AcDbCircle
 62
7
  6
CONTINUOUS
 10
61.7213116187
 20
83.3631686153
 40
0.15
100
AcDbArc
 50
191.7098026068
 51
270.0
  0
ARC
  5
5E0
100
AcDbEntity
  8
0
100
AcDbCircle
 62
7
  6
CONTINUOUS
 10
63.0731247406
 20
83.9369613546
 40
1.0
100
AcDbArc
 50
0.0
 51
1.9984181016
  0
ARC
  5
5E1
100
AcDbEntity
  8
0
100
AcDbCircle
 62
7
  6
CONTINUOUS
 10
63.3714354652
 20
84.2621396824
 40
0.6998761529
100
AcDbArc
 50
359.9961676593
 51
77.7734907792
  0
ARC
  5
5E2
100
AcDbEntity
  8
0
100
AcDbCircle
 62
7
  6
CONTINUOUS
 10
63.3948716835
 20
84.4619613546
 40
0.5
100
AcDbArc
 50
75.5483660705
 51
90.0002440767
  0
ARC
  5
5E3
100
AcDbEntity
  8
0
100
AcDbCircle
 62
7
  6
CONTINUOUS
 10
69.6231428303
 20
83.4619613546
 40
0.1
100
AcDbArc
 50
0.0
 51
90.0
  0
CIRCLE
  5
5E4
100
AcDbEntity
  8
0
100
AcDbCircle
 62
7
  6
CONTINUOUS
 10
70.1231247406
 20
84.0619613546
 40
2.6
  0
ARC
  5
5E5
100
AcDbEntity
  8
0
100
AcDbCircle
 62
7
  6
CONTINUOUS
 10
70.1231247406
 20
84.0619613546
 40
2.55
100
AcDbArc
 50
328.9535364563
 51
346.7266843508
  0
ARC
  5
5E6
100
AcDbEntity
  8
0
100
AcDbCircle
 62
7
  6
CONTINUOUS
 10
70.1231247406
 20
84.0619613546
 40
2.55
100
AcDbArc
 50
348.5327578756
 51
210.8333901804
  0
ARC
  5
5E7
100
AcDbEntity
  8
0
100
AcDbCircle
 62
7
  6
CONTINUOUS
 10
70.1231428303
 20
83.9619613546
 40
2.5
100
AcDbArc
 50
300.1396537623
 51
239.9651763264
  0
ARC
  5
5E8
100
AcDbEntity
  8
0
100
AcDbCircle
 62
7
  6
CONTINUOUS
 10
70.1231428303
 20
83.9619613546
 40
2.2
100
AcDbArc
 50
10.4756816964
 51
169.5243183036
  0
ARC
  5
5E9
100
AcDbEntity
  8
0
100
AcDbCircle
 62
7
  6
CONTINUOUS
 10
70.1231428303
 20
83.9619613546
 40
2.2
100
AcDbArc
 50
190.4756816964
 51
349.5243183036
  0
ARC
  5
5EA
100
AcDbEntity
  8
0
100
AcDbCircle
 62
7
  6
CONTINUOUS
 10
70.1231428303
 20
83.9619613546
 40
1.3876815526
100
AcDbArc
 50
73.2467507844
 51
106.7532492152
  0
ARC
  5
5EB
100
AcDbEntity
  8
0
100
AcDbCircle
 62
7
  6
CONTINUOUS
 10
70.1231428303
 20
83.9619613546
 40
1.3876815526
100
AcDbArc
 50
253.2467507844
 51
286.7532492156
  0
ARC
  5
5EC
100
AcDbEntity
  8
0
100
AcDbCircle
 62
7
  6
CONTINUOUS
 10
70.1231428303
 20
83.9619613546
 40
1.3876815526
100
AcDbArc
 50
343.2467507844
 51
16.7532492156
  0
ARC
  5
5ED
100
AcDbEntity
  8
0
100
AcDbCircle
 62
7
  6
CONTINUOUS
 10
70.1231428303
 20
83.9619613546
 40
1.3876815526
100
AcDbArc
 50
163.2467507844
 51
196.7532492156
  0
ARC
  5
5EE
100
AcDbEntity
  8
0
100
AcDbCircle
 62
7
  6
CONTINUOUS
 10
70.1231428303
 20
83.9619613546
 40
0.7597753402
100
AcDbArc
 50
58.232648755
 51
121.7673512443
  0
ARC
  5
5EF
100
AcDbEntity
  8
0
100
AcDbCircle
 62
7
  6
CONTINUOUS
 10
70.1231428303
 20
83.9619613546
 40
0.7597753402
100
AcDbArc
 50
328.232648755
 51
31.767351245
  0
ARC
  5
5F0
100
AcDbEntity
  8
0
100
AcDbCircle
 62
7
  6
CONTINUOUS
 10
70.1231428303
 20
83.9619613546
 40
0.7597753402
100
AcDbArc
 50
238.2326487556
 51
301.7673512451
  0
ARC
  5
5F1
100
AcDbEntity
  8
0
100
AcDbCircle
 62
7
  6
CONTINUOUS
 10
70.1231428303
 20
83.9619613546
 40
0.7597753402
100
AcDbArc
 50
148.2326487547
 51
211.7673512453
  0
CIRCLE
  5
5F2
100
AcDbEntity
  8
0
100
AcDbCircle
 62
7
  6
CONTINUOUS
 10
70.1231428303
 20
83.9619613546
 40
0.4
  0
ARC
  5
5F3
100
AcDbEntity
  8
0
100
AcDbCircle
 62
7
  6
CONTINUOUS
 10
69.6231428303
 20
84.4619613546
 40
0.1
100
AcDbArc
 50
270.0
 51
360.0
  0
ARC
  5
5F4
100
AcDbEntity
  8
0
100
AcDbCircle
 62
7
  6
CONTINUOUS
 10
66.1231247406
 20
87.6119613546
 40
0.3
100
AcDbArc
 50
90.0
 51
180.0
  0
ARC
  5
5F5
100
AcDbEntity
  8
0
100
AcDbCircle
 62
7
  6
CONTINUOUS
 10
70.6231428303
 20
77.0619613546
 40
0.1
100
AcDbArc
 50
90.0
 51
180.0
  0
ARC
  5
5F6
100
AcDbEntity
  8
0
100
AcDbCircle
 62
7
  6
CONTINUOUS
 10
75.8231247406
 20
75.2619613546
 40
0.4
100
AcDbArc
 50
0.0
 51
90.0000000002
  0
ARC
  5
5F7
100
AcDbEntity
  8
0
100
AcDbCircle
 62
7
  6
CONTINUOUS
 10
79.0231428303
 20
77.5619613546
 40
2.5
100
AcDbArc
 50
300.1396537624
 51
239.9651763265
  0
ARC
  5
5F8
100
AcDbEntity
  8
0
100
AcDbCircle
 62
7
  6
CONTINUOUS
 10
79.0231428303
 20
77.5619613546
 40
2.2
100
AcDbArc
 50
10.4756816964
 51
169.5243183036
  0
ARC
  5
5F9
100
AcDbEntity
  8
0
100
AcDbCircle
 62
7
  6
CONTINUOUS
 10
79.0231428303
 20
77.5619613546
 40
2.2
100
AcDbArc
 50
190.4756816964
 51
349.5243183036
  0
ARC
  5
5FA
100
AcDbEntity
  8
0
100
AcDbCircle
 62
7
  6
CONTINUOUS
 10
79.0231428303
 20
77.5619613546
 40
1.3876815526
100
AcDbArc
 50
343.2467507844
 51
16.7532492156
  0
ARC
  5
5FB
100
AcDbEntity
  8
0
100
AcDbCircle
 62
7
  6
CONTINUOUS
 10
79.0231428303
 20
77.5619613546
 40
1.3876815526
100
AcDbArc
 50
163.2467507844
 51
196.7532492156
  0
ARC
  5
5FC
100
AcDbEntity
  8
0
100
AcDbCircle
 62
7
  6
CONTINUOUS
 10
79.0231428303
 20
77.5619613546
 40
1.3876815526
100
AcDbArc
 50
73.2467507844
 51
106.7532492156
  0
ARC
  5
5FD
100
AcDbEntity
  8
0
100
AcDbCircle
 62
7
  6
CONTINUOUS
 10
79.0231428303
 20
77.5619613546
 40
1.3876815526
100
AcDbArc
 50
253.2467507844
 51
286.7532492152
  0
ARC
  5
5FE
100
AcDbEntity
  8
0
100
AcDbCircle
 62
7
  6
CONTINUOUS
 10
79.0231428303
 20
77.5619613546
 40
0.7597753402
100
AcDbArc
 50
328.2326487547
 51
31.7673512453
  0
ARC
  5
5FF
100
AcDbEntity
  8
0
100
AcDbCircle
 62
7
  6
CONTINUOUS
 10
79.0231428303
 20
77.5619613546
 40
0.7597753402
100
AcDbArc
 50
238.2326487549
 51
301.7673512444
  0
ARC
  5
600
100
AcDbEntity
  8
0
100
AcDbCircle
 62
7
  6
CONTINUOUS
 10
79.0231428303
 20
77.5619613546
 40
0.7597753402
100
AcDbArc
 50
148.232648755
 51
211.767351245
  0
ARC
  5
601
100
AcDbEntity
  8
0
100
AcDbCircle
 62
7
  6
CONTINUOUS
 10
79.0231428303
 20
77.5619613546
 40
0.7597753402
100
AcDbArc
 50
58.2326487556
 51
121.7673512451
  0
CIRCLE
  5
602
100
AcDbEntity
  8
0
100
AcDbCircle
 62
7
  6
CONTINUOUS
 10
79.0231428303
 20
77.5619613546
 40
0.4
  0
ARC
  5
603
100
AcDbEntity
  8
0
100
AcDbCircle
 62
7
  6
CONTINUOUS
 10
78.5231428303
 20
77.0619613546
 40
0.1
100
AcDbArc
 50
0.0
 51
90.0
  0
CIRCLE
  5
604
100
AcDbEntity
  8
0
100
AcDbCircle
 62
7
  6
CONTINUOUS
 10
79.0231247406
 20
77.6619613546
 40
2.6
  0
ARC
  5
605
100
AcDbEntity
  8
0
100
AcDbCircle
 62
7
  6
CONTINUOUS
 10
79.0231247406
 20
77.6619613546
 40
2.55
100
AcDbArc
 50
328.9535364567
 51
346.7266843508
  0
ARC
  5
606
100
AcDbEntity
  8
0
100
AcDbCircle
 62
7
  6
CONTINUOUS
 10
79.0231247406
 20
77.6619613546
 40
2.55
100
AcDbArc
 50
348.5327578756
 51
210.8333901808
  0
ARC
  5
607
100
AcDbEntity
  8
0
100
AcDbCircle
 62
7
  6
CONTINUOUS
 10
75.8231247406
 20
80.0619613546
 40
0.4
100
AcDbArc
 50
270.0
 51
360.0
  0
ARC
  5
608
100
AcDbEntity
  8
0
100
AcDbCircle
 62
7
  6
CONTINUOUS
 10
70.6231428303
 20
78.0619613546
 40
0.1
100
AcDbArc
 50
180.0
 51
270.0
  0
ARC
  5
609
100
AcDbEntity
  8
0
100
AcDbCircle
 62
7
  6
CONTINUOUS
 10
78.5231428303
 20
78.0619613546
 40
0.1
100
AcDbArc
 50
270.0
 51
360.0
  0
ARC
  5
60A
100
AcDbEntity
  8
0
100
AcDbCircle
 62
7
  6
CONTINUOUS
 10
79.5231428303
 20
77.0619613546
 40
0.1
100
AcDbArc
 50
90.0
 51
180.0000000213
  0
ARC
  5
60B
100
AcDbEntity
  8
0
100
AcDbCircle
 62
7
  6
CONTINUOUS
 10
84.7231247406
 20
75.2619613546
 40
0.4
100
AcDbArc
 50
0.0
 51
90.0000000002
  0
ARC
  5
60C
100
AcDbEntity
  8
0
100
AcDbCircle
 62
7
  6
CONTINUOUS
 10
87.9231428303
 20
77.5619613546
 40
2.5
100
AcDbArc
 50
300.1396537624
 51
239.9651763265
  0
ARC
  5
60D
100
AcDbEntity
  8
0
100
AcDbCircle
 62
7
  6
CONTINUOUS
 10
87.9231428303
 20
77.5619613546
 40
2.2
100
AcDbArc
 50
10.4756816964
 51
169.5243183036
  0
ARC
  5
60E
100
AcDbEntity
  8
0
100
AcDbCircle
 62
7
  6
CONTINUOUS
 10
87.9231428303
 20
77.5619613546
 40
2.2
100
AcDbArc
 50
190.4756816964
 51
349.5243183036
  0
ARC
  5
60F
100
AcDbEntity
  8
0
100
AcDbCircle
 62
7
  6
CONTINUOUS
 10
87.9231428303
 20
77.5619613546
 40
1.3876815526
100
AcDbArc
 50
73.2467507844
 51
106.7532492156
  0
ARC
  5
610
100
AcDbEntity
  8
0
100
AcDbCircle
 62
7
  6
CONTINUOUS
 10
87.9231428303
 20
77.5619613546
 40
1.3876815526
100
AcDbArc
 50
253.2467507844
 51
286.7532492156
  0
ARC
  5
611
100
AcDbEntity
  8
0
100
AcDbCircle
 62
7
  6
CONTINUOUS
 10
87.9231428303
 20
77.5619613546
 40
1.3876815526
100
AcDbArc
 50
343.2467507844
 51
16.7532492156
  0
ARC
  5
612
100
AcDbEntity
  8
0
100
AcDbCircle
 62
7
  6
CONTINUOUS
 10
87.9231428303
 20
77.5619613546
 40
1.3876815526
100
AcDbArc
 50
163.2467507844
 51
196.7532492156
  0
ARC
  5
613
100
AcDbEntity
  8
0
100
AcDbCircle
 62
7
  6
CONTINUOUS
 10
87.9231428303
 20
77.5619613546
 40
0.7597753402
100
AcDbArc
 50
58.2326487549
 51
121.7673512451
  0
ARC
  5
614
100
AcDbEntity
  8
0
100
AcDbCircle
 62
7
  6
CONTINUOUS
 10
87.9231428303
 20
77.5619613546
 40
0.7597753402
100
AcDbArc
 50
328.2326487549
 51
31.7673512451
  0
ARC
  5
615
100
AcDbEntity
  8
0
100
AcDbCircle
 62
7
  6
CONTINUOUS
 10
87.9231428303
 20
77.5619613546
 40
0.7597753402
100
AcDbArc
 50
238.2326487549
 51
301.7673512451
  0
ARC
  5
616
100
AcDbEntity
  8
0
100
AcDbCircle
 62
7
  6
CONTINUOUS
 10
87.9231428303
 20
77.5619613546
 40
0.7597753402
100
AcDbArc
 50
148.2326487549
 51
211.7673512451
  0
CIRCLE
  5
617
100
AcDbEntity
  8
0
100
AcDbCircle
 62
7
  6
CONTINUOUS
 10
87.9231428303
 20
77.5619613546
 40
0.4
  0
ARC
  5
618
100
AcDbEntity
  8
0
100
AcDbCircle
 62
7
  6
CONTINUOUS
 10
87.4231428303
 20
77.0619613546
 40
0.1
100
AcDbArc
 50
0.0
 51
90.0
  0
ARC
  5
619
100
AcDbEntity
  8
0
100
AcDbCircle
 62
7
  6
CONTINUOUS
 10
88.4231428303
 20
77.0619613546
 40
0.1
100
AcDbArc
 50
90.0
 51
180.0
  0
CIRCLE
  5
61A
100
AcDbEntity
  8
0
100
AcDbCircle
 62
7
  6
CONTINUOUS
 10
87.9231247406
 20
77.6619613546
 40
2.6
  0
ARC
  5
61B
100
AcDbEntity
  8
0
100
AcDbCircle
 62
7
  6
CONTINUOUS
 10
87.9231247406
 20
77.6619613546
 40
2.55
100
AcDbArc
 50
328.9535364567
 51
346.7266843509
  0
ARC
  5
61C
100
AcDbEntity
  8
0
100
AcDbCircle
 62
7
  6
CONTINUOUS
 10
87.9231247406
 20
77.6619613546
 40
2.55
100
AcDbArc
 50
348.5327578756
 51
210.8333901808
  0
ARC
  5
61D
100
AcDbEntity
  8
0
100
AcDbCircle
 62
7
  6
CONTINUOUS
 10
84.7231247406
 20
80.0619613546
 40
0.4
100
AcDbArc
 50
270.0
 51
360.0
  0
ARC
  5
61E
100
AcDbEntity
  8
0
100
AcDbCircle
 62
7
  6
CONTINUOUS
 10
79.5231428303
 20
78.0619613546
 40
0.1
100
AcDbArc
 50
179.9999999787
 51
270.0
  0
ARC
  5
61F
100
AcDbEntity
  8
0
100
AcDbCircle
 62
7
  6
CONTINUOUS
 10
88.4231428303
 20
78.0619613546
 40
0.1
100
AcDbArc
 50
180.0
 51
270.0
  0
ARC
  5
620
100
AcDbEntity
  8
0
100
AcDbCircle
 62
7
  6
CONTINUOUS
 10
87.4231428303
 20
78.0619613546
 40
0.1
100
AcDbArc
 50
270.0
 51
360.0
  0
ARC
  5
621
100
AcDbEntity
  8
0
100
AcDbCircle
 62
7
  6
CONTINUOUS
 10
70.6231428303
 20
84.4619613546
 40
0.1
100
AcDbArc
 50
180.0
 51
270.0
  0
ARC
  5
622
100
AcDbEntity
  8
0
100
AcDbCircle
 62
7
  6
CONTINUOUS
 10
70.6231428303
 20
83.4619613546
 40
0.1
100
AcDbArc
 50
90.0
 51
180.0
  0
ARC
  5
623
100
AcDbEntity
  8
0
100
AcDbCircle
 62
7
  6
CONTINUOUS
 10
75.8231247406
 20
81.6619613546
 40
0.4
100
AcDbArc
 50
0.0
 51
90.0
  0
CIRCLE
  5
624
100
AcDbEntity
  8
0
100
AcDbCircle
 62
7
  6
CONTINUOUS
 10
79.0231247406
 20
84.0619613546
 40
2.6
  0
ARC
  5
625
100
AcDbEntity
  8
0
100
AcDbCircle
 62
7
  6
CONTINUOUS
 10
79.0231247406
 20
84.0619613546
 40
2.55
100
AcDbArc
 50
328.9535364567
 51
346.7266843508
  0
ARC
  5
626
100
AcDbEntity
  8
0
100
AcDbCircle
 62
7
  6
CONTINUOUS
 10
79.0231247406
 20
84.0619613546
 40
2.55
100
AcDbArc
 50
348.5327578756
 51
210.8333901808
  0
ARC
  5
627
100
AcDbEntity
  8
0
100
AcDbCircle
 62
7
  6
CONTINUOUS
 10
79.0231428303
 20
83.9619613546
 40
2.5
100
AcDbArc
 50
300.1396537624
 51
239.9651763265
  0
ARC
  5
628
100
AcDbEntity
  8
0
100
AcDbCircle
 62
7
  6
CONTINUOUS
 10
79.0231428303
 20
83.9619613546
 40
2.2
100
AcDbArc
 50
10.4756816964
 51
169.5243183036
  0
ARC
  5
629
100
AcDbEntity
  8
0
100
AcDbCircle
 62
7
  6
CONTINUOUS
 10
79.0231428303
 20
83.9619613546
 40
2.2
100
AcDbArc
 50
190.4756816964
 51
349.5243183036
  0
ARC
  5
62A
100
AcDbEntity
  8
0
100
AcDbCircle
 62
7
  6
CONTINUOUS
 10
79.0231428303
 20
83.9619613546
 40
1.3876815526
100
AcDbArc
 50
73.2467507844
 51
106.7532492156
  0
ARC
  5
62B
100
AcDbEntity
  8
0
100
AcDbCircle
 62
7
  6
CONTINUOUS
 10
79.0231428303
 20
83.9619613546
 40
1.3876815526
100
AcDbArc
 50
253.2467507844
 51
286.7532492152
  0
ARC
  5
62C
100
AcDbEntity
  8
0
100
AcDbCircle
 62
7
  6
CONTINUOUS
 10
79.0231428303
 20
83.9619613546
 40
1.3876815526
100
AcDbArc
 50
343.2467507844
 51
16.7532492156
  0
ARC
  5
62D
100
AcDbEntity
  8
0
100
AcDbCircle
 62
7
  6
CONTINUOUS
 10
79.0231428303
 20
83.9619613546
 40
1.3876815526
100
AcDbArc
 50
163.2467507844
 51
196.7532492156
  0
ARC
  5
62E
100
AcDbEntity
  8
0
100
AcDbCircle
 62
7
  6
CONTINUOUS
 10
79.0231428303
 20
83.9619613546
 40
0.7597753402
100
AcDbArc
 50
58.2326487557
 51
121.767351245
  0
ARC
  5
62F
100
AcDbEntity
  8
0
100
AcDbCircle
 62
7
  6
CONTINUOUS
 10
79.0231428303
 20
83.9619613546
 40
0.7597753402
100
AcDbArc
 50
328.2326487547
 51
31.7673512453
  0
ARC
  5
630
100
AcDbEntity
  8
0
100
AcDbCircle
 62
7
  6
CONTINUOUS
 10
79.0231428303
 20
83.9619613546
 40
0.7597753402
100
AcDbArc
 50
238.2326487549
 51
301.7673512444
  0
ARC
  5
631
100
AcDbEntity
  8
0
100
AcDbCircle
 62
7
  6
CONTINUOUS
 10
79.0231428303
 20
83.9619613546
 40
0.7597753402
100
AcDbArc
 50
148.232648755
 51
211.767351245
  0
CIRCLE
  5
632
100
AcDbEntity
  8
0
100
AcDbCircle
 62
7
  6
CONTINUOUS
 10
79.0231428303
 20
83.9619613546
 40
0.4
  0
ARC
  5
633
100
AcDbEntity
  8
0
100
AcDbCircle
 62
7
  6
CONTINUOUS
 10
78.5231428303
 20
84.4619613546
 40
0.1
100
AcDbArc
 50
270.0
 51
360.0
  0
ARC
  5
634
100
AcDbEntity
  8
0
100
AcDbCircle
 62
7
  6
CONTINUOUS
 10
78.5231428303
 20
83.4619613546
 40
0.1
100
AcDbArc
 50
0.0
 51
90.0
  0
ARC
  5
635
100
AcDbEntity
  8
0
100
AcDbCircle
 62
7
  6
CONTINUOUS
 10
75.8231247406
 20
86.4619613546
 40
0.4
100
AcDbArc
 50
270.0
 51
360.0
  0
ARC
  5
636
100
AcDbEntity
  8
0
100
AcDbCircle
 62
7
  6
CONTINUOUS
 10
75.9231247406
 20
87.6119613546
 40
0.3
100
AcDbArc
 50
0.0
 51
90.0
  0
ARC
  5
637
100
AcDbEntity
  8
0
100
AcDbCircle
 62
7
  6
CONTINUOUS
 10
79.5231428303
 20
84.4619613546
 40
0.1
100
AcDbArc
 50
179.9999999787
 51
270.0
  0
ARC
  5
638
100
AcDbEntity
  8
0
100
AcDbCircle
 62
7
  6
CONTINUOUS
 10
79.5231428303
 20
83.4619613546
 40
0.1
100
AcDbArc
 50
90.0
 51
180.0000000213
  0
ARC
  5
639
100
AcDbEntity
  8
0
100
AcDbCircle
 62
7
  6
CONTINUOUS
 10
84.7231247406
 20
81.6619613546
 40
0.4
100
AcDbArc
 50
0.0
 51
90.0
  0
ARC
  5
63A
100
AcDbEntity
  8
0
100
AcDbCircle
 62
7
  6
CONTINUOUS
 10
87.4231428303
 20
83.4619613546
 40
0.1
100
AcDbArc
 50
0.0
 51
90.0
  0
CIRCLE
  5
63B
100
AcDbEntity
  8
0
100
AcDbCircle
 62
7
  6
CONTINUOUS
 10
87.9231247406
 20
84.0619613546
 40
2.6
  0
ARC
  5
63C
100
AcDbEntity
  8
0
100
AcDbCircle
 62
7
  6
CONTINUOUS
 10
87.9231247406
 20
84.0619613546
 40
2.55
100
AcDbArc
 50
328.9535364567
 51
346.7266843509
  0
ARC
  5
63D
100
AcDbEntity
  8
0
100
AcDbCircle
 62
7
  6
CONTINUOUS
 10
87.9231247406
 20
84.0619613546
 40
2.55
100
AcDbArc
 50
348.5327578756
 51
210.8333901808
  0
ARC
  5
63E
100
AcDbEntity
  8
0
100
AcDbCircle
 62
7
  6
CONTINUOUS
 10
87.4231428303
 20
84.4619613546
 40
0.1
100
AcDbArc
 50
270.0
 51
360.0
  0
ARC
  5
63F
100
AcDbEntity
  8
0
100
AcDbCircle
 62
7
  6
CONTINUOUS
 10
88.4231428303
 20
83.4619613546
 40
0.1
100
AcDbArc
 50
90.0
 51
180.0
  0
ARC
  5
640
100
AcDbEntity
  8
0
100
AcDbCircle
 62
7
  6
CONTINUOUS
 10
87.9231428303
 20
83.9619613546
 40
2.5
100
AcDbArc
 50
300.1396537624
 51
239.9651763265
  0
ARC
  5
641
100
AcDbEntity
  8
0
100
AcDbCircle
 62
7
  6
CONTINUOUS
 10
87.9231428303
 20
83.9619613546
 40
2.2
100
AcDbArc
 50
10.4756816964
 51
169.5243183036
  0
ARC
  5
642
100
AcDbEntity
  8
0
100
AcDbCircle
 62
7
  6
CONTINUOUS
 10
87.9231428303
 20
83.9619613546
 40
2.2
100
AcDbArc
 50
190.4756816964
 51
349.5243183036
  0
ARC
  5
643
100
AcDbEntity
  8
0
100
AcDbCircle
 62
7
  6
CONTINUOUS
 10
87.9231428303
 20
83.9619613546
 40
1.3876815526
100
AcDbArc
 50
73.2467507844
 51
106.7532492156
  0
ARC
  5
644
100
AcDbEntity
  8
0
100
AcDbCircle
 62
7
  6
CONTINUOUS
 10
87.9231428303
 20
83.9619613546
 40
1.3876815526
100
AcDbArc
 50
253.2467507844
 51
286.7532492156
  0
ARC
  5
645
100
AcDbEntity
  8
0
100
AcDbCircle
 62
7
  6
CONTINUOUS
 10
87.9231428303
 20
83.9619613546
 40
1.3876815526
100
AcDbArc
 50
343.2467507844
 51
16.7532492156
  0
ARC
  5
646
100
AcDbEntity
  8
0
100
AcDbCircle
 62
7
  6
CONTINUOUS
 10
87.9231428303
 20
83.9619613546
 40
1.3876815526
100
AcDbArc
 50
163.2467507844
 51
196.7532492156
  0
ARC
  5
647
100
AcDbEntity
  8
0
100
AcDbCircle
 62
7
  6
CONTINUOUS
 10
87.9231428303
 20
83.9619613546
 40
0.7597753402
100
AcDbArc
 50
58.232648755
 51
121.767351245
  0
ARC
  5
648
100
AcDbEntity
  8
0
100
AcDbCircle
 62
7
  6
CONTINUOUS
 10
87.9231428303
 20
83.9619613546
 40
0.7597753402
100
AcDbArc
 50
328.2326487549
 51
31.7673512451
  0
ARC
  5
649
100
AcDbEntity
  8
0
100
AcDbCircle
 62
7
  6
CONTINUOUS
 10
87.9231428303
 20
83.9619613546
 40
0.7597753402
100
AcDbArc
 50
238.2326487549
 51
301.7673512451
  0
ARC
  5
64A
100
AcDbEntity
  8
0
100
AcDbCircle
 62
7
  6
CONTINUOUS
 10
87.9231428303
 20
83.9619613546
 40
0.7597753402
100
AcDbArc
 50
148.2326487549
 51
211.7673512451
  0
CIRCLE
  5
64B
100
AcDbEntity
  8
0
100
AcDbCircle
 62
7
  6
CONTINUOUS
 10
87.9231428303
 20
83.9619613546
 40
0.4
  0
ARC
  5
64C
100
AcDbEntity
  8
0
100
AcDbCircle
 62
7
  6
CONTINUOUS
 10
88.4231428303
 20
84.4619613546
 40
0.1
100
AcDbArc
 50
180.0
 51
270.0
  0
ARC
  5
64D
100
AcDbEntity
  8
0
100
AcDbCircle
 62
7
  6
CONTINUOUS
 10
84.7231247406
 20
86.4619613546
 40
0.4
100
AcDbArc
 50
270.0
 51
360.0
  0
ARC
  5
64E
100
AcDbEntity
  8
0
100
AcDbCircle
 62
7
  6
CONTINUOUS
 10
84.8231247406
 20
87.6119613546
 40
0.3
100
AcDbArc
 50
0.0
 51
90.0
  0
ARC
  5
64F
100
AcDbEntity
  8
0
100
AcDbCircle
 62
7
  6
CONTINUOUS
 10
93.6231247406
 20
62.4619613546
 40
0.4
100
AcDbArc
 50
0.0
 51
90.0
  0
ARC
  5
650
100
AcDbEntity
  8
0
100
AcDbCircle
 62
7
  6
CONTINUOUS
 10
93.6231247406
 20
67.2619613546
 40
0.4
100
AcDbArc
 50
270.0
 51
360.0
  0
ARC
  5
651
100
AcDbEntity
  8
0
100
AcDbCircle
 62
7
  6
CONTINUOUS
 10
93.6231247406
 20
68.8619613546
 40
0.4
100
AcDbArc
 50
0.0
 51
90.0
  0
ARC
  5
652
100
AcDbEntity
  8
0
100
AcDbCircle
 62
7
  6
CONTINUOUS
 10
93.6231247406
 20
73.6619613546
 40
0.4
100
AcDbArc
 50
270.0
 51
360.0
  0
ARC
  5
653
100
AcDbEntity
  8
0
100
AcDbCircle
 62
7
  6
CONTINUOUS
 10
93.7231247406
 20
61.3119613546
 40
0.3
100
AcDbArc
 50
270.0
 51
360.0
  0
ARC
  5
654
100
AcDbEntity
  8
0
100
AcDbCircle
 62
7
  6
CONTINUOUS
 10
171.0984167606
 20
77.8619918097
 40
131.6793050836
100
AcDbArc
 50
179.6830033738
 51
180.3170338248
  0
ARC
  5
655
100
AcDbEntity
  8
0
100
AcDbCircle
 62
7
  6
CONTINUOUS
 10
93.6231247406
 20
75.2619613546
 40
0.4
100
AcDbArc
 50
0.0
 51
90.0
  0
ARC
  5
656
100
AcDbEntity
  8
0
100
AcDbCircle
 62
7
  6
CONTINUOUS
 10
93.6231247406
 20
80.0619613546
 40
0.4
100
AcDbArc
 50
270.0
 51
360.0
  0
ARC
  5
657
100
AcDbEntity
  8
0
100
AcDbCircle
 62
7
  6
CONTINUOUS
 10
93.6231247406
 20
81.6619613546
 40
0.4
100
AcDbArc
 50
0.0
 51
90.0
  0
ARC
  5
658
100
AcDbEntity
  8
0
100
AcDbCircle
 62
7
  6
CONTINUOUS
 10
93.6231247406
 20
86.4619613546
 40
0.4
100
AcDbArc
 50
270.0
 51
360.0
  0
ARC
  5
659
100
AcDbEntity
  8
0
100
AcDbCircle
 62
7
  6
CONTINUOUS
 10
93.7231247406
 20
87.6119613546
 40
0.3
100
AcDbArc
 50
0.0
 51
90.0
  0
SPLINE
  5
65A
100
AcDbEntity
  8
0
100
AcDbSpline
 62
7
  6
CONTINUOUS
 70
0
 71
3
 72
17
 73
13
 74
0
 42
0.0000001
 43
0.0000001
 44
0.0000000001
 40
0.0
 40
0.0
 40
0.0
 40
0.0
 40
0.0047626695
 40
0.017143561
 40
0.0374478114
 40
0.0656840626
 40
0.1458244724
 40
0.257243888
 40
0.3994456383
 40
0.5714081077
 40
0.7719780016
 40
1.0
 40
1.0
 40
1.0
 40
1.0
 10
41.2131404587
 20
87.5107879297
 30
0.0
 10
41.2131404587
 20
87.5104546087
 30
0.0
 10
41.2147591812
 20
87.510088297
 30
0.0
 10
41.2169215962
 20
87.5096149117
 30
0.0
 10
41.2213892482
 20
87.5091341183
 30
0.0
 10
41.2302246211
 20
87.5083659351
 30
0.0
 10
41.2456871965
 20
87.507498608
 30
0.0
 10
41.268976136
 20
87.5065148644
 30
0.0
 10
41.2987650626
 20
87.5055551215
 30
0.0
 10
41.3347703813
 20
87.5046148904
 30
0.0
 10
41.376793573
 20
87.5037087062
 30
0.0
 10
41.4067835907
 20
87.5031647587
 30
0.0
 10
41.4227397165
 20
87.502896118
 30
0.0
  0
SPLINE
  5
65B
100
AcDbEntity
  8
0
100
AcDbSpline
 62
7
  6
CONTINUOUS
 70
0
 71
3
 72
9
 73
5
 74
0
 42
0.0000001
 43
0.0000001
 44
0.0000000001
 40
0.0
 40
0.0
 40
0.0
 40
0.0
 40
0.5024338958
 40
1.0
 40
1.0
 40
1.0
 40
1.0
 10
41.4989205063
 20
87.5017516522
 30
0.0
 10
41.7742844059
 20
87.4980493108
 30
0.0
 10
42.3224065826
 20
87.4966027944
 30
0.0
 10
42.8705303914
 20
87.4981402639
 30
0.0
 10
43.1432242043
 20
87.5019700608
 30
0.0
  0
SPLINE
  5
65C
100
AcDbEntity
  8
0
100
AcDbSpline
 62
7
  6
CONTINUOUS
 70
0
 71
3
 72
9
 73
5
 74
0
 42
0.0000001
 43
0.0000001
 44
0.0000000001
 40
0.0
 40
0.0
 40
0.0
 40
0.0
 40
0.3002240125
 40
1.0
 40
1.0
 40
1.0
 40
1.0
 10
43.2005224494
 20
87.5028460487
 30
0.0
 10
43.2153578561
 20
87.5030934136
 30
0.0
 10
43.2647707506
 20
87.503986286
 30
0.0
 10
43.3141826541
 20
87.5050775367
 30
0.0
 10
43.3487463812
 20
87.5062573473
 30
0.0
  0
SPLINE
  5
65D
100
AcDbEntity
  8
0
100
AcDbSpline
 62
7
  6
CONTINUOUS
 70
0
 71
3
 72
13
 73
9
 74
0
 42
0.0000001
 43
0.0000001
 44
0.0000000001
 40
0.0
 40
0.0
 40
0.0
 40
0.0
 40
0.4328445421
 40
0.7440335243
 40
0.8536763347
 40
0.9325723632
 40
0.9808375865
 40
1.0
 40
1.0
 40
1.0
 40
1.0
 10
43.371212264
 20
87.5071143263
 30
0.0
 10
43.3772961836
 20
87.5073764983
 30
0.0
 10
43.3877258675
 20
87.5078767699
 30
0.0
 10
43.3997852288
 20
87.5086548792
 30
0.0
 10
43.4066887161
 20
87.5093219398
 30
0.0
 10
43.4101517293
 20
87.5097672846
 30
0.0
 10
43.4118819063
 20
87.5101498021
 30
0.0
 10
43.4131090225
 20
87.5105183392
 30
0.0
 10
43.4131090225
 20
87.5107879297
 30
0.0
  0
SPLINE
  5
65E
100
AcDbEntity
  8
0
100
AcDbSpline
 62
7
  6
CONTINUOUS
 70
0
 71
3
 72
13
 73
9
 74
0
 42
0.0000001
 43
0.0000001
 44
0.0000000001
 40
0.0
 40
0.0
 40
0.0
 40
0.0
 40
0.0819709689
 40
0.1953529235
 40
0.4818853602
 40
0.7781622403
 40
0.9030590069
 40
1.0
 40
1.0
 40
1.0
 40
1.0
 10
42.3131241057
 20
87.0374663205
 30
0.0
 10
42.440129431
 20
87.0340924863
 30
0.0
 10
42.742880634
 20
87.0289692865
 30
0.0
 10
43.4897326632
 20
87.0211571798
 30
0.0
 10
44.5687944126
 20
87.0174826243
 30
0.0
 10
45.6657025224
 20
87.0197852857
 30
0.0
 10
46.4687235936
 20
87.0263712246
 30
0.0
 10
46.8125320412
 20
87.0310534981
 30
0.0
 10
46.9627552321
 20
87.0340351143
 30
0.0
  0
SPLINE
  5
65F
100
AcDbEntity
  8
0
100
AcDbSpline
 62
7
  6
CONTINUOUS
 70
0
 71
3
 72
13
 73
9
 74
0
 42
0.0000001
 43
0.0000001
 44
0.0000000001
 40
0.0
 40
0.0
 40
0.0
 40
0.0
 40
0.4269532454
 40
0.7390785922
 40
0.8499498201
 40
0.9300672416
 40
0.9794350714
 40
1.0
 40
1.0
 40
1.0
 40
1.0
 10
40.6431168517
 20
72.5153669041
 30
0.0
 10
40.6428017597
 20
72.5223126711
 30
0.0
 10
40.6421868136
 20
72.5343086052
 30
0.0
 10
40.6411789945
 20
72.5481852735
 30
0.0
 10
40.6403074138
 20
72.5562404257
 30
0.0
 10
40.6396841802
 20
72.5602640687
 30
0.0
 10
40.6391997877
 20
72.5623664914
 30
0.0
 10
40.6386405454
 20
72.563749647
 30
0.0
 10
40.6383056467
 20
72.563749647
 30
0.0
  0
SPLINE
  5
660
100
AcDbEntity
  8
0
100
AcDbSpline
 62
7
  6
CONTINUOUS
 70
0
 71
3
 72
13
 73
9
 74
0
 42
0.0000001
 43
0.0000001
 44
0.0000000001
 40
0.0
 40
0.0
 40
0.0
 40
0.0
 40
0.0205935367
 40
0.0700374874
 40
0.1501895274
 40
0.2610268739
 40
0.5731257487
 40
1.0
 40
1.0
 40
1.0
 40
1.0
 10
40.638304796
 20
64.1686978431
 30
0.0
 10
40.6386407504
 20
64.1686978431
 30
0.0
 10
40.6391990104
 20
64.1700878925
 30
0.0
 10
40.6396846847
 20
64.1721945469
 30
0.0
 10
40.6403080482
 20
64.1762274382
 30
0.0
 10
40.6411812361
 20
64.184295926
 30
0.0
 10
40.6421892301
 20
64.198195151
 30
0.0
 10
40.6428046038
 20
64.2102103727
 30
0.0
 10
40.6431201929
 20
64.2171670673
 30
0.0
  0
SPLINE
  5
661
100
AcDbEntity
  8
0
100
AcDbSpline
 62
7
  6
CONTINUOUS
 70
0
 71
3
 72
13
 73
9
 74
0
 42
0.0000001
 43
0.0000001
 44
0.0000000001
 40
0.0
 40
0.0
 40
0.0
 40
0.0
 40
0.0205869285
 40
0.0700163356
 40
0.1501577696
 40
0.2609951432
 40
0.5731209141
 40
1.0
 40
1.0
 40
1.0
 40
1.0
 10
40.638304796
 20
76.3686995776
 30
0.0
 10
40.6386407236
 20
76.3686995776
 30
0.0
 10
40.6391992328
 20
76.3700893004
 30
0.0
 10
40.6396848827
 20
76.3721961714
 30
0.0
 10
40.640308392
 20
76.3762295359
 30
0.0
 10
40.6411816561
 20
76.3843002885
 30
0.0
 10
40.6421896916
 20
76.3982033778
 30
0.0
 10
40.6428051326
 20
76.4102220294
 30
0.0
 10
40.6431208014
 20
76.4171804814
 30
0.0
  0
SPLINE
  5
662
100
AcDbEntity
  8
0
100
AcDbSpline
 62
7
  6
CONTINUOUS
 70
0
 71
3
 72
23
 73
19
 74
0
 42
0.0000001
 43
0.0000001
 44
0.0000000001
 40
0.0
 40
0.0
 40
0.0
 40
0.0
 40
0.0013261812
 40
0.0048664153
 40
0.0106877585
 40
0.0187883891
 40
0.0291579711
 40
0.0417838103
 40
0.0737303288
 40
0.1143561736
 40
0.1633238769
 40
0.220287146
 40
0.2847858775
 40
0.356272382
 40
0.4341954661
 40
0.6069166535
 40
0.7977010815
 40
1.0
 40
1.0
 40
1.0
 40
1.0
 10
63.4150496067
 20
63.3876115891
 30
0.0
 10
63.4150496067
 20
63.3882713759
 30
0.0
 10
63.4116683002
 20
63.3888149833
 30
0.0
 10
63.407356353
 20
63.3897676116
 30
0.0
 10
63.3981860679
 20
63.3905758491
 30
0.0
 10
63.3863643637
 20
63.3915135728
 30
0.0
 10
63.3708315288
 20
63.3924119386
 30
0.0
 10
63.3435707801
 20
63.3937341048
 30
0.0
 10
63.301183485
 20
63.3952706383
 30
0.0
 10
63.2407518049
 20
63.3969777598
 30
0.0
 10
63.1678525177
 20
63.3986211946
 30
0.0
 10
63.0830779673
 20
63.4001881352
 30
0.0
 10
62.987095114
 20
63.4016617541
 30
0.0
 10
62.8806826961
 20
63.4030307992
 30
0.0
 10
62.7204289405
 20
63.4047567782
 30
0.0
 10
62.5008209759
 20
63.4065219156
 30
0.0
 10
62.2193318761
 20
63.4080070306
 30
0.0
 10
62.0237700697
 20
63.4085758192
 30
0.0
 10
61.9231247406
 20
63.4087591612
 30
0.0
  0
SPLINE
  5
663
100
AcDbEntity
  8
0
100
AcDbSpline
 62
7
  6
CONTINUOUS
 70
0
 71
3
 72
24
 73
20
 74
0
 42
0.0000001
 43
0.0000001
 44
0.0000000001
 40
0.0
 40
0.0
 40
0.0
 40
0.0
 40
0.1949705718
 40
0.3825972793
 40
0.5553923065
 40
0.6341914327
 40
0.7068968393
 40
0.7727758912
 40
0.8312233541
 40
0.8816672652
 40
0.9236137853
 40
0.9412834036
 40
0.9566903415
 40
0.9697898442
 40
0.9805487139
 40
0.9889518324
 40
0.9949875854
 40
0.9986516721
 40
1.0
 40
1.0
 40
1.0
 40
1.0
 10
58.5630679922
 20
63.4089928548
 30
0.0
 10
58.4493005832
 20
63.4089928548
 30
0.0
 10
58.2260508835
 20
63.4092570559
 30
0.0
 10
57.901975376
 20
63.410433474
 30
0.0
 10
57.6456900417
 20
63.4120657501
 30
0.0
 10
57.4564653623
 20
63.4137675309
 30
0.0
 10
57.3296272059
 20
63.4151592507
 30
0.0
 10
57.2146672536
 20
63.4166938205
 30
0.0
 10
57.1126996227
 20
63.4183510688
 30
0.0
 10
57.0247030046
 20
63.4201140763
 30
0.0
 10
56.9604979349
 20
63.4217282835
 30
0.0
 10
56.916748543
 20
63.423101666
 30
0.0
 10
56.8898079579
 20
63.4240825476
 30
0.0
 10
56.8669593373
 20
63.4250859244
 30
0.0
 10
56.8480444514
 20
63.4260619002
 30
0.0
 10
56.8336739305
 20
63.4271216761
 30
0.0
 10
56.822470808
 20
63.4279502827
 30
0.0
 10
56.8173074384
 20
63.429110417
 30
0.0
 10
56.8131284766
 20
63.4295874383
 30
0.0
 10
56.8131284766
 20
63.430374202
 30
0.0
  0
SPLINE
  5
664
100
AcDbEntity
  8
0
100
AcDbSpline
 62
7
  6
CONTINUOUS
 70
0
 71
3
 72
17
 73
13
 74
0
 42
0.0000001
 43
0.0000001
 44
0.0000000001
 40
0.0
 40
0.0
 40
0.0
 40
0.0
 40
0.004757506
 40
0.0171433381
 40
0.0374576626
 40
0.0657072398
 40
0.1458784828
 40
0.2573258088
 40
0.3995485318
 40
0.5715160327
 40
0.7720574707
 40
1.0
 40
1.0
 40
1.0
 40
1.0
 10
41.2131411209
 20
61.4216723913
 30
0.0
 10
41.2131411209
 20
61.4220094099
 30
0.0
 10
41.2147828634
 20
61.422374879
 30
0.0
 10
41.2169701229
 20
61.422853791
 30
0.0
 10
41.2214961143
 20
61.4233361129
 30
0.0
 10
41.2304425151
 20
61.4241099213
 30
0.0
 10
41.2460996401
 20
61.4249818593
 30
0.0
 10
41.2696780847
 20
61.4259716898
 30
0.0
 10
41.2998342913
 20
61.42693654
 30
0.0
 10
41.3362784923
 20
61.4278814652
 30
0.0
 10
41.3788068378
 20
61.4287916045
 30
0.0
 10
41.4091548786
 20
61.429337627
 30
0.0
 10
41.4252999253
 20
61.4296071905
 30
0.0
  0
SPLINE
  5
665
100
AcDbEntity
  8
0
100
AcDbSpline
 62
7
  6
CONTINUOUS
 70
0
 71
3
 72
9
 73
5
 74
0
 42
0.0000001
 43
0.0000001
 44
0.0000000001
 40
0.0
 40
0.0
 40
0.0
 40
0.0
 40
0.502422979
 40
1.0
 40
1.0
 40
1.0
 40
1.0
 10
41.4995349484
 20
61.4307169449
 30
0.0
 10
41.7746807816
 20
61.434409942
 30
0.0
 10
42.3223805632
 20
61.4358580012
 30
0.0
 10
42.8700819584
 20
61.4343191729
 30
0.0
 10
43.1425717339
 20
61.4304994294
 30
0.0
  0
SPLINE
  5
666
100
AcDbEntity
  8
0
100
AcDbSpline
 62
7
  6
CONTINUOUS
 70
0
 71
3
 72
9
 73
5
 74
0
 42
0.0000001
 43
0.0000001
 44
0.0000000001
 40
0.0
 40
0.0
 40
0.0
 40
0.0
 40
0.3027806686
 40
1.0
 40
1.0
 40
1.0
 40
1.0
 10
43.1979505365
 20
61.4296570156
 30
0.0
 10
43.2135053589
 20
61.4293998004
 30
0.0
 10
43.2648768261
 20
61.4284747025
 30
0.0
 10
43.3162478744
 20
61.4273468146
 30
0.0
 10
43.3520490821
 20
61.4260886407
 30
0.0
  0
SPLINE
  5
667
100
AcDbEntity
  8
0
100
AcDbSpline
 62
7
  6
CONTINUOUS
 70
0
 71
3
 72
13
 73
9
 74
0
 42
0.0000001
 43
0.0000001
 44
0.0000000001
 40
0.0
 40
0.0
 40
0.0
 40
0.0
 40
0.4327792021
 40
0.74394195
 40
0.8535846212
 40
0.9324894965
 40
0.9807765432
 40
1.0
 40
1.0
 40
1.0
 40
1.0
 10
43.3720414991
 20
61.4253099587
 30
0.0
 10
43.378004723
 20
61.4250501916
 30
0.0
 10
43.3882280246
 20
61.4245548003
 30
0.0
 10
43.400047626
 20
61.4237836618
 30
0.0
 10
43.4068155214
 20
61.423123993
 30
0.0
 10
43.4102085577
 20
61.4226817999
 30
0.0
 10
43.4119082504
 20
61.4223053263
 30
0.0
 10
43.4131083602
 20
61.4219375207
 30
0.0
 10
43.4131083602
 20
61.4216723913
 30
0.0
  0
SPLINE
  5
668
100
AcDbEntity
  8
0
100
AcDbSpline
 62
7
  6
CONTINUOUS
 70
0
 71
3
 72
13
 73
9
 74
0
 42
0.0000001
 43
0.0000001
 44
0.0000000001
 40
0.0
 40
0.0
 40
0.0
 40
0.0
 40
0.0819737794
 40
0.1953604603
 40
0.4818988503
 40
0.7781734645
 40
0.903066356
 40
1.0
 40
1.0
 40
1.0
 40
1.0
 10
42.3131241049
 20
61.8949939902
 30
0.0
 10
42.4401372547
 20
61.8983680398
 30
0.0
 10
42.7429084109
 20
61.9034915381
 30
0.0
 10
43.4898017586
 20
61.9113035752
 30
0.0
 10
44.5689060316
 20
61.9149775337
 30
0.0
 10
45.6658438187
 20
61.9126743016
 30
0.0
 10
46.4688659147
 20
61.9060876912
 30
0.0
 10
46.8126663523
 20
61.9014047799
 30
0.0
 10
46.9628822463
 20
61.898422683
 30
0.0
  0
SPLINE
  5
669
100
AcDbEntity
  8
0
100
AcDbSpline
 62
7
  6
CONTINUOUS
 70
0
 71
3
 72
9
 73
5
 74
0
 42
0.0000001
 43
0.0000001
 44
0.0000000001
 40
0.0
 40
0.0
 40
0.0
 40
0.0
 40
0.7450230348
 40
1.0
 40
1.0
 40
1.0
 40
1.0
 10
46.9074330438
 20
86.9164960288
 30
0.0
 10
46.90859953
 20
86.9164340082
 30
0.0
 10
46.9096141941
 20
86.9159991992
 30
0.0
 10
46.9121009661
 20
86.9163933913
 30
0.0
 10
46.9121009661
 20
86.9159936087
 30
0.0
  0
SPLINE
  5
66A
100
AcDbEntity
  8
0
100
AcDbSpline
 62
7
  6
CONTINUOUS
 70
0
 71
3
 72
9
 73
5
 74
0
 42
0.0000001
 43
0.0000001
 44
0.0000000001
 40
0.0
 40
0.0
 40
0.0
 40
0.0
 40
0.7450228668
 40
1.0
 40
1.0
 40
1.0
 40
1.0
 10
46.8063800897
 20
86.910513139
 30
0.0
 10
46.8075465757
 20
86.9104511183
 30
0.0
 10
46.80856124
 20
86.910016309
 30
0.0
 10
46.8110480125
 20
86.9104105017
 30
0.0
 10
46.8110480125
 20
86.9100107189
 30
0.0
  0
SPLINE
  5
66B
100
AcDbEntity
  8
0
100
AcDbSpline
 62
7
  6
CONTINUOUS
 70
0
 71
3
 72
9
 73
5
 74
0
 42
0.0000001
 43
0.0000001
 44
0.0000000001
 40
0.0
 40
0.0
 40
0.0
 40
0.0
 40
0.7450228666
 40
1.0
 40
1.0
 40
1.0
 40
1.0
 10
46.705327136
 20
86.9045302491
 30
0.0
 10
46.7064936221
 20
86.9044682284
 30
0.0
 10
46.7075082864
 20
86.9040334191
 30
0.0
 10
46.7099950589
 20
86.9044276118
 30
0.0
 10
46.7099950589
 20
86.904027829
 30
0.0
  0
SPLINE
  5
66C
100
AcDbEntity
  8
0
100
AcDbSpline
 62
7
  6
CONTINUOUS
 70
0
 71
3
 72
9
 73
5
 74
0
 42
0.0000001
 43
0.0000001
 44
0.0000000001
 40
0.0
 40
0.0
 40
0.0
 40
0.0
 40
0.7450228669
 40
1.0
 40
1.0
 40
1.0
 40
1.0
 10
46.6042741824
 20
86.8985473591
 30
0.0
 10
46.6054406685
 20
86.8984853385
 30
0.0
 10
46.6064553328
 20
86.8980505292
 30
0.0
 10
46.6089421053
 20
86.8984447219
 30
0.0
 10
46.6089421053
 20
86.8980449391
 30
0.0
  0
SPLINE
  5
66D
100
AcDbEntity
  8
0
100
AcDbSpline
 62
7
  6
CONTINUOUS
 70
0
 71
3
 72
9
 73
5
 74
0
 42
0.0000001
 43
0.0000001
 44
0.0000000001
 40
0.0
 40
0.0
 40
0.0
 40
0.0
 40
0.7450228669
 40
1.0
 40
1.0
 40
1.0
 40
1.0
 10
46.5032212288
 20
86.8925644692
 30
0.0
 10
46.5043877148
 20
86.8925024486
 30
0.0
 10
46.5054023791
 20
86.8920676393
 30
0.0
 10
46.5078891516
 20
86.892461832
 30
0.0
 10
46.5078891516
 20
86.8920620492
 30
0.0
  0
SPLINE
  5
66E
100
AcDbEntity
  8
0
100
AcDbSpline
 62
7
  6
CONTINUOUS
 70
0
 71
3
 72
9
 73
5
 74
0
 42
0.0000001
 43
0.0000001
 44
0.0000000001
 40
0.0
 40
0.0
 40
0.0
 40
0.0
 40
0.745022867
 40
1.0
 40
1.0
 40
1.0
 40
1.0
 10
46.4021682752
 20
86.8865815793
 30
0.0
 10
46.4033347612
 20
86.8865195587
 30
0.0
 10
46.4043494255
 20
86.8860847494
 30
0.0
 10
46.406836198
 20
86.8864789421
 30
0.0
 10
46.406836198
 20
86.8860791592
 30
0.0
  0
SPLINE
  5
66F
100
AcDbEntity
  8
0
100
AcDbSpline
 62
7
  6
CONTINUOUS
 70
0
 71
3
 72
9
 73
5
 74
0
 42
0.0000001
 43
0.0000001
 44
0.0000000001
 40
0.0
 40
0.0
 40
0.0
 40
0.0
 40
0.7450228668
 40
1.0
 40
1.0
 40
1.0
 40
1.0
 10
46.3011153216
 20
86.8805986894
 30
0.0
 10
46.3022818076
 20
86.8805366688
 30
0.0
 10
46.3032964719
 20
86.8801018595
 30
0.0
 10
46.3057832444
 20
86.8804960522
 30
0.0
 10
46.3057832444
 20
86.8800962693
 30
0.0
  0
SPLINE
  5
670
100
AcDbEntity
  8
0
100
AcDbSpline
 62
7
  6
CONTINUOUS
 70
0
 71
3
 72
9
 73
5
 74
0
 42
0.0000001
 43
0.0000001
 44
0.0000000001
 40
0.0
 40
0.0
 40
0.0
 40
0.0
 40
0.4255574146
 40
1.0
 40
1.0
 40
1.0
 40
1.0
 10
46.0209515356
 20
86.8374291857
 30
0.0
 10
46.0209515356
 20
86.8247082891
 30
0.0
 10
46.0338277771
 20
86.7959611964
 30
0.0
 10
46.0515857123
 20
86.7722361284
 30
0.0
 10
46.0630792778
 20
86.7594785587
 30
0.0
  0
SPLINE
  5
671
100
AcDbEntity
  8
0
100
AcDbSpline
 62
7
  6
CONTINUOUS
 70
0
 71
3
 72
11
 73
7
 74
0
 42
0.0000001
 43
0.0000001
 44
0.0000000001
 40
0.0
 40
0.0
 40
0.0
 40
0.0
 40
0.0665550676
 40
0.2618766172
 40
0.5779508014
 40
1.0
 40
1.0
 40
1.0
 40
1.0
 10
46.0778209061
 20
62.0633236138
 30
0.0
 10
46.0778209061
 20
62.0629963504
 30
0.0
 10
46.0757617666
 20
62.0635249379
 30
0.0
 10
46.0736529636
 20
62.0628613065
 30
0.0
 10
46.0686539805
 20
62.0630941833
 30
0.0
 10
46.0651545269
 20
62.0629459767
 30
0.0
 10
46.0630793553
 20
62.0629235236
 30
0.0
  0
SPLINE
  5
672
100
AcDbEntity
  8
0
100
AcDbSpline
 62
7
  6
CONTINUOUS
 70
0
 71
3
 72
9
 73
5
 74
0
 42
0.0000001
 43
0.0000001
 44
0.0000000001
 40
0.0
 40
0.0
 40
0.0
 40
0.0
 40
0.7401855815
 40
1.0
 40
1.0
 40
1.0
 40
1.0
 10
46.0630792778
 20
86.7594785675
 30
0.0
 10
46.0719011577
 20
86.749686531
 30
0.0
 10
46.0771600291
 20
86.7309262237
 30
0.0
 10
46.0778209061
 20
86.713296554
 30
0.0
 10
46.0778209061
 20
86.7086702468
 30
0.0
  0
SPLINE
  5
673
100
AcDbEntity
  8
0
100
AcDbSpline
 62
7
  6
CONTINUOUS
 70
0
 71
3
 72
13
 73
9
 74
0
 42
0.0000001
 43
0.0000001
 44
0.0000000001
 40
0.0
 40
0.0
 40
0.0
 40
0.0
 40
0.0205667296
 40
0.0699416165
 40
0.1500692607
 40
0.2609506981
 40
0.5730761759
 40
1.0
 40
1.0
 40
1.0
 40
1.0
 10
40.6383061032
 20
84.763748341
 30
0.0
 10
40.6386410139
 20
84.763748341
 30
0.0
 10
40.6392001244
 20
84.7623649355
 30
0.0
 10
40.6396845079
 20
84.7602624311
 30
0.0
 10
40.6403076393
 20
84.7562384672
 30
0.0
 10
40.6411790973
 20
84.7481834196
 30
0.0
 10
40.6421868156
 20
84.7343077608
 30
0.0
 10
40.6428017418
 20
84.7223129299
 30
0.0
 10
40.643116802
 20
84.715368001
 30
0.0
  0
SPLINE
  5
674
100
AcDbEntity
  8
0
100
AcDbSpline
 62
7
  6
CONTINUOUS
 70
0
 71
3
 72
23
 73
19
 74
0
 42
0.0000001
 43
0.0000001
 44
0.0000000001
 40
0.0
 40
0.0
 40
0.0
 40
0.0
 40
0.2022962633
 40
0.3930779934
 40
0.5657972846
 40
0.6437197548
 40
0.7152056469
 40
0.7797033769
 40
0.8366648818
 40
0.8856305073
 40
0.9262554634
 40
0.9582038471
 40
0.9708318887
 40
0.9812041369
 40
0.9893075095
 40
0.995131281
 40
0.998673235
 40
1.0
 40
1.0
 40
1.0
 40
1.0
 10
61.9231247406
 20
85.5237010968
 30
0.0
 10
62.0237702741
 20
85.5238844392
 30
0.0
 10
62.2193323812
 20
85.5244532628
 30
0.0
 10
62.5008221404
 20
85.5259384309
 30
0.0
 10
62.7204308425
 20
85.5277035676
 30
0.0
 10
62.8806854736
 20
85.529429548
 30
0.0
 10
62.9870983961
 20
85.5307985968
 30
0.0
 10
63.0830810236
 20
85.5322722193
 30
0.0
 10
63.1678544487
 20
85.533839174
 30
0.0
 10
63.2407524869
 20
85.5354826483
 30
0.0
 10
63.3011845316
 20
85.5371898293
 30
0.0
 10
63.3435740585
 20
85.5387263881
 30
0.0
 10
63.3708385596
 20
85.5400485204
 30
0.0
 10
63.3863754755
 20
85.5409468338
 30
0.0
 10
63.3982011081
 20
85.5418846828
 30
0.0
 10
63.4073754014
 20
85.5426926082
 30
0.0
 10
63.41168897
 20
85.5436457724
 30
0.0
 10
63.4150724435
 20
85.5441887261
 30
0.0
 10
63.4150724435
 20
85.5448488133
 30
0.0
  0
SPLINE
  5
675
100
AcDbEntity
  8
0
100
AcDbSpline
 62
7
  6
CONTINUOUS
 70
0
 71
3
 72
24
 73
20
 74
0
 42
0.0000001
 43
0.0000001
 44
0.0000000001
 40
0.0
 40
0.0
 40
0.0
 40
0.0
 40
0.1949719842
 40
0.3825992607
 40
0.5553915102
 40
0.6341896299
 40
0.7068945581
 40
0.7727737502
 40
0.8312216999
 40
0.8816661639
 40
0.9236136027
 40
0.941283627
 40
0.956690774
 40
0.9697901943
 40
0.9805489299
 40
0.9889519488
 40
0.9949876343
 40
0.9986516831
 40
1.0
 40
1.0
 40
1.0
 40
1.0
 10
58.5630681599
 20
85.5234674662
 30
0.0
 10
58.4492999154
 20
85.5234674662
 30
0.0
 10
58.2260490374
 20
85.5232031774
 30
0.0
 10
57.9019739629
 20
85.5220266871
 30
0.0
 10
57.6456904795
 20
85.5203943812
 30
0.0
 10
57.4564682683
 20
85.5186926408
 30
0.0
 10
57.3296308835
 20
85.5173009584
 30
0.0
 10
57.2146708325
 20
85.515766439
 30
0.0
 10
57.1127025019
 20
85.5141092476
 30
0.0
 10
57.0247047316
 20
85.5123462708
 30
0.0
 10
56.9604985585
 20
85.5107321033
 30
0.0
 10
56.9167482667
 20
85.5093587343
 30
0.0
 10
56.8898073675
 20
85.5083778581
 30
0.0
 10
56.8669587495
 20
85.5073744584
 30
0.0
 10
56.8480440495
 20
85.5063984605
 30
0.0
 10
56.8336736988
 20
85.5053386714
 30
0.0
 10
56.8224707088
 20
85.504510045
 30
0.0
 10
56.8173073878
 20
85.5033499132
 30
0.0
 10
56.8131284766
 20
85.5028728764
 30
0.0
 10
56.8131284766
 20
85.502086119
 30
0.0
  0
SPLINE
  5
676
100
AcDbEntity
  8
0
100
AcDbSpline
 62
7
  6
CONTINUOUS
 70
0
 71
3
 72
14
 73
10
 74
0
 42
0.0000001
 43
0.0000001
 44
0.0000000001
 40
0.0
 40
0.0
 40
0.0
 40
0.0
 40
0.0603553203
 40
0.1347876048
 40
0.2303489255
 40
0.3487448163
 40
0.4890499371
 40
0.6479931967
 40
1.0
 40
1.0
 40
1.0
 40
1.0
 10
36.6540459933
 20
87.9119613546
 30
0.0
 10
36.6607842237
 20
87.9119613546
 30
0.0
 10
36.6758776003
 20
87.9071277289
 30
0.0
 10
36.6948975373
 20
87.8891385653
 30
0.0
 10
36.7120587661
 20
87.8616623567
 30
0.0
 10
36.727225974
 20
87.8249975058
 30
0.0
 10
36.7398564397
 20
87.7800277599
 30
0.0
 10
36.7530271737
 20
87.7084547324
 30
0.0
 10
36.7566931888
 20
87.6512603414
 30
0.0
 10
36.7566931888
 20
87.6119613546
 30
0.0
  0
SPLINE
  5
677
100
AcDbEntity
  8
0
100
AcDbSpline
 62
7
  6
CONTINUOUS
 70
0
 71
3
 72
11
 73
7
 74
0
 42
0.0000001
 43
0.0000001
 44
0.0000000001
 40
0.0
 40
0.0
 40
0.0
 40
0.0
 40
0.2499976237
 40
0.5000000355
 40
0.7500023727
 40
1.0
 40
1.0
 40
1.0
 40
1.0
 10
35.1285232502
 20
62.615795207
 30
0.0
 10
35.1285232502
 20
62.7152146173
 30
0.0
 10
35.1252629199
 20
62.9140372098
 30
0.0
 10
35.1223189301
 20
63.2122941135
 30
0.0
 10
35.1252577139
 20
63.5105510928
 30
0.0
 10
35.1285227409
 20
63.7093736058
 30
0.0
 10
35.1285227409
 20
63.8087930175
 30
0.0
  0
SPLINE
  5
678
100
AcDbEntity
  8
0
100
AcDbSpline
 62
7
  6
CONTINUOUS
 70
0
 71
3
 72
11
 73
7
 74
0
 42
0.0000001
 43
0.0000001
 44
0.0000000001
 40
0.0
 40
0.0
 40
0.0
 40
0.0
 40
0.2499999293
 40
0.5000006014
 40
0.7500000323
 40
1.0
 40
1.0
 40
1.0
 40
1.0
 10
36.7566931888
 20
61.6219613546
 30
0.0
 10
36.6211447436
 20
61.7049979142
 30
0.0
 10
36.3498819852
 20
61.8708013312
 30
0.0
 10
35.9437219618
 20
62.1207027431
 30
0.0
 10
35.5365843735
 20
62.3690103527
 30
0.0
 10
35.2640717161
 20
62.5327586347
 30
0.0
 10
35.1285232502
 20
62.615795207
 30
0.0
  0
SPLINE
  5
679
100
AcDbEntity
  8
0
100
AcDbSpline
 62
7
  6
CONTINUOUS
 70
0
 71
3
 72
10
 73
6
 74
0
 42
0.0000001
 43
0.0000001
 44
0.0000000001
 40
0.0
 40
0.0
 40
0.0
 40
0.0
 40
0.249999997
 40
0.499999911
 40
1.0
 40
1.0
 40
1.0
 40
1.0
 10
35.1372561589
 20
86.3112498355
 30
0.0
 10
35.2721591772
 20
86.3938910085
 30
0.0
 10
35.5425108591
 20
86.5582806417
 30
0.0
 10
36.0823395347
 20
86.8884919014
 30
0.0
 10
36.4868871009
 20
87.1366789772
 30
0.0
 10
36.7566931888
 20
87.3019613546
 30
0.0
  0
SPLINE
  5
67A
100
AcDbEntity
  8
0
100
AcDbSpline
 62
7
  6
CONTINUOUS
 70
0
 71
3
 72
13
 73
9
 74
0
 42
0.0000001
 43
0.0000001
 44
0.0000000001
 40
0.0
 40
0.0
 40
0.0
 40
0.0
 40
0.2313664451
 40
0.4683387707
 40
0.7197288554
 40
0.8560340595
 40
0.9272340871
 40
1.0
 40
1.0
 40
1.0
 40
1.0
 10
35.5113696573
 20
63.5119613546
 30
0.0
 10
35.4709143468
 20
63.5119613546
 30
0.0
 10
35.3886366761
 20
63.5219359273
 30
0.0
 10
35.2703759349
 20
63.5689757923
 30
0.0
 10
35.1846290514
 20
63.6415848576
 30
0.0
 10
35.1442551246
 20
63.7119483778
 30
0.0
 10
35.1289625931
 20
63.7587739602
 30
0.0
 10
35.1265726434
 20
63.7840511543
 30
0.0
 10
35.1263991031
 20
63.7967733697
 30
0.0
  0
SPLINE
  5
67B
100
AcDbEntity
  8
0
100
AcDbSpline
 62
7
  6
CONTINUOUS
 70
0
 71
3
 72
14
 73
10
 74
0
 42
0.0000001
 43
0.0000001
 44
0.0000000001
 40
0.0
 40
0.0
 40
0.0
 40
0.0
 40
0.352069967
 40
0.5109927562
 40
0.6512470097
 40
0.7696244514
 40
0.8651837756
 40
0.9396335197
 40
1.0
 40
1.0
 40
1.0
 40
1.0
 10
36.7566931888
 20
61.3119613546
 30
0.0
 10
36.7566931888
 20
61.2726554767
 30
0.0
 10
36.7530243125
 20
61.2154569032
 30
0.0
 10
36.7398566895
 20
61.1438843495
 30
0.0
 10
36.7272242812
 20
61.0989258549
 30
0.0
 10
36.7120638797
 20
61.0622673303
 30
0.0
 10
36.6949024095
 20
61.034790962
 30
0.0
 10
36.6758804769
 20
61.0168015775
 30
0.0
 10
36.6607854421
 20
61.0119613546
 30
0.0
 10
36.6540459933
 20
61.0119613546
 30
0.0
  0
SPLINE
  5
67C
100
AcDbEntity
  8
0
100
AcDbSpline
 62
7
  6
CONTINUOUS
 70
0
 71
3
 72
9
 73
5
 74
0
 42
0.0000001
 43
0.0000001
 44
0.0000000001
 40
0.0
 40
0.0
 40
0.0
 40
0.0
 40
0.283475867
 40
1.0
 40
1.0
 40
1.0
 40
1.0
 10
41.4257270344
 20
87.5187298107
 30
0.0
 10
41.4147594656
 20
87.518546938
 30
0.0
 10
41.3760705418
 20
87.5178656335
 30
0.0
 10
41.3373835498
 20
87.5170476683
 30
0.0
 10
41.3096679109
 20
87.5162938743
 30
0.0
  0
SPLINE
  5
67D
100
AcDbEntity
  8
0
100
AcDbSpline
 62
7
  6
CONTINUOUS
 70
0
 71
3
 72
11
 73
7
 74
0
 42
0.0000001
 43
0.0000001
 44
0.0000000001
 40
0.0
 40
0.0
 40
0.0
 40
0.0
 40
0.2868358834
 40
0.5546760256
 40
0.790669937
 40
1.0
 40
1.0
 40
1.0
 40
1.0
 10
63.8224069713
 20
74.1033827108
 30
0.0
 10
63.8479720769
 20
74.1036058311
 30
0.0
 10
63.8976167008
 20
74.1107970765
 30
0.0
 10
63.9628055877
 20
74.1403664304
 30
0.0
 10
64.0092212827
 20
74.1862985602
 30
0.0
 10
64.0220570845
 20
74.2261489227
 30
0.0
 10
64.0223765103
 20
74.2448040664
 30
0.0
  0
SPLINE
  5
67E
100
AcDbEntity
  8
0
100
AcDbSpline
 62
7
  6
CONTINUOUS
 70
0
 71
3
 72
11
 73
7
 74
0
 42
0.0000001
 43
0.0000001
 44
0.0000000001
 40
0.0
 40
0.0
 40
0.0
 40
0.0
 40
0.2530636331
 40
0.4999999051
 40
0.7469362057
 40
1.0
 40
1.0
 40
1.0
 40
1.0
 10
37.6201248812
 20
64.0108964632
 30
0.0
 10
37.5281631205
 20
64.0109044645
 30
0.0
 10
37.3443994657
 20
64.0490598956
 30
0.0
 10
37.1152845237
 20
64.2059521409
 30
0.0
 10
36.9583934005
 20
64.435067937
 30
0.0
 10
36.9202389772
 20
64.618831887
 30
0.0
 10
36.9202314943
 20
64.7107937063
 30
0.0
  0
SPLINE
  5
67F
100
AcDbEntity
  8
0
100
AcDbSpline
 62
7
  6
CONTINUOUS
 70
0
 71
3
 72
11
 73
7
 74
0
 42
0.0000001
 43
0.0000001
 44
0.0000000001
 40
0.0
 40
0.0
 40
0.0
 40
0.0
 40
0.2093326835
 40
0.4453194235
 40
0.71316428
 40
1.0
 40
1.0
 40
1.0
 40
1.0
 10
53.138468908
 20
64.010896463
 30
0.0
 10
53.1571241368
 20
64.0112219924
 30
0.0
 10
53.196972864
 20
64.0240515949
 30
0.0
 10
53.2429080188
 20
64.0704672209
 30
0.0
 10
53.2724753065
 20
64.1356561786
 30
0.0
 10
53.2796671428
 20
64.1853009699
 30
0.0
 10
53.2798902625
 20
64.210866002
 30
0.0
  0
SPLINE
  5
680
100
AcDbEntity
  8
0
100
AcDbSpline
 62
7
  6
CONTINUOUS
 70
0
 71
3
 72
12
 73
8
 74
0
 42
0.0000001
 43
0.0000001
 44
0.0000000001
 40
0.0
 40
0.0
 40
0.0
 40
0.0
 40
0.3428927034
 40
0.6355306449
 40
0.7537891343
 40
0.8523109872
 40
1.0
 40
1.0
 40
1.0
 40
1.0
 10
54.8212971616
 20
64.1832242071
 30
0.0
 10
54.8211308878
 20
64.1569439756
 30
0.0
 10
54.8168958367
 20
64.1081924357
 30
0.0
 10
54.8020244826
 20
64.0518756828
 30
0.0
 10
54.7842185206
 20
64.0168293306
 30
0.0
 10
54.7676846608
 20
63.9945163316
 30
0.0
 10
54.7497783891
 20
63.9834448208
 30
0.0
 10
54.7384689061
 20
63.9829683593
 30
0.0
  0
SPLINE
  5
681
100
AcDbEntity
  8
0
100
AcDbSpline
 62
7
  6
CONTINUOUS
 70
0
 71
3
 72
9
 73
5
 74
0
 42
0.0000001
 43
0.0000001
 44
0.0000000001
 40
0.0
 40
0.0
 40
0.0
 40
0.0
 40
0.4999821756
 40
1.0
 40
1.0
 40
1.0
 40
1.0
 10
63.3516095334
 20
64.183180253
 30
0.0
 10
63.4164241202
 20
64.1828865004
 30
0.0
 10
63.5474073764
 20
64.2091815129
 30
0.0
 10
63.6579718646
 20
64.2836321054
 30
0.0
 10
63.7039198713
 20
64.3293529619
 30
0.0
  0
SPLINE
  5
682
100
AcDbEntity
  8
0
100
AcDbSpline
 62
7
  6
CONTINUOUS
 70
0
 71
3
 72
9
 73
5
 74
0
 42
0.0000001
 43
0.0000001
 44
0.0000000001
 40
0.0
 40
0.0
 40
0.0
 40
0.0
 40
0.5000003189
 40
1.0
 40
1.0
 40
1.0
 40
1.0
 10
63.7039198713
 20
64.3293529619
 30
0.0
 10
63.7499750996
 20
64.3752503288
 30
0.0
 10
63.8243861482
 20
64.4865533976
 30
0.0
 10
63.8503570889
 20
64.6178414329
 30
0.0
 10
63.8503350752
 20
64.6828617457
 30
0.0
  0
SPLINE
  5
683
100
AcDbEntity
  8
0
100
AcDbSpline
 62
7
  6
CONTINUOUS
 70
0
 71
3
 72
11
 73
7
 74
0
 42
0.0000001
 43
0.0000001
 44
0.0000000001
 40
0.0
 40
0.0
 40
0.0
 40
0.0
 40
0.2094621698
 40
0.4453615417
 40
0.7128732812
 40
1.0
 40
1.0
 40
1.0
 40
1.0
 10
64.0377865872
 20
73.361961354
 30
0.0
 10
64.037463586
 20
73.3432919422
 30
0.0
 10
64.024733747
 20
73.3033817419
 30
0.0
 10
63.9781709813
 20
73.2576081267
 30
0.0
 10
63.9130957028
 20
73.227856217
 30
0.0
 10
63.8634115742
 20
73.2207633754
 30
0.0
 10
63.8378170482
 20
73.2205399983
 30
0.0
  0
SPLINE
  5
684
100
AcDbEntity
  8
0
100
AcDbSpline
 62
7
  6
CONTINUOUS
 70
0
 71
3
 72
11
 73
7
 74
0
 42
0.0000001
 43
0.0000001
 44
0.0000000001
 40
0.0
 40
0.0
 40
0.0
 40
0.0
 40
0.2165939463
 40
0.4472331859
 40
0.7057407961
 40
1.0
 40
1.0
 40
1.0
 40
1.0
 10
64.050304614
 20
73.3619613476
 30
0.0
 10
64.0499135422
 20
73.3395534798
 30
0.0
 10
64.041189403
 20
73.293087952
 30
0.0
 10
64.0035913894
 20
73.22871658
 30
0.0
 10
63.9385636901
 20
73.1772934873
 30
0.0
 10
63.8807824887
 20
73.1619918155
 30
0.0
 10
63.8503350752
 20
73.1619918155
 30
0.0
  0
SPLINE
  5
685
100
AcDbEntity
  8
0
100
AcDbSpline
 62
7
  6
CONTINUOUS
 70
0
 71
3
 72
11
 73
7
 74
0
 42
0.0000001
 43
0.0000001
 44
0.0000000001
 40
0.0
 40
0.0
 40
0.0
 40
0.0
 40
0.2530636675
 40
0.4999999225
 40
0.746936201
 40
1.0
 40
1.0
 40
1.0
 40
1.0
 10
63.3224814581
 20
84.9130795608
 30
0.0
 10
63.4144434481
 20
84.9130717834
 30
0.0
 10
63.5982076479
 20
84.8749166113
 30
0.0
 10
63.8273232923
 20
84.7180241814
 30
0.0
 10
63.9842148064
 20
84.48890784
 30
0.0
 10
64.0223691559
 20
84.3051433992
 30
0.0
 10
64.0223765104
 20
84.2131813614
 30
0.0
  0
SPLINE
  5
686
100
AcDbEntity
  8
0
100
AcDbSpline
 62
7
  6
CONTINUOUS
 70
0
 71
3
 72
11
 73
7
 74
0
 42
0.0000001
 43
0.0000001
 44
0.0000000001
 40
0.0
 40
0.0
 40
0.0
 40
0.0
 40
0.2530637774
 40
0.500000064
 40
0.7469363313
 40
1.0
 40
1.0
 40
1.0
 40
1.0
 10
36.9202314943
 20
84.2131823178
 30
0.0
 10
36.9202389773
 20
84.3051442347
 30
0.0
 10
36.958393485
 20
84.4889083847
 30
0.0
 10
37.1152849287
 20
84.7180243405
 30
0.0
 10
37.3444003085
 20
84.8749165409
 30
0.0
 10
37.5281642594
 20
84.9130717283
 30
0.0
 10
37.6201261368
 20
84.9130795607
 30
0.0
  0
SPLINE
  5
687
100
AcDbEntity
  8
0
100
AcDbSpline
 62
7
  6
CONTINUOUS
 70
0
 71
3
 72
18
 73
14
 74
0
 42
0.0000001
 43
0.0000001
 44
0.0000000001
 40
0.0
 40
0.0
 40
0.0
 40
0.0
 40
0.0056226198
 40
0.0202882733
 40
0.0442116252
 40
0.0772777692
 40
0.1192707265
 40
0.1697217979
 40
0.2938573943
 40
0.4451175966
 40
0.6178303757
 40
0.8055699895
 40
1.0
 40
1.0
 40
1.0
 40
1.0
 10
40.6383056467
 20
72.563749647
 30
0.0
 10
40.6377425541
 20
72.563749647
 30
0.0
 10
40.6371743942
 20
72.5609756828
 30
0.0
 10
40.6363768973
 20
72.5573430448
 30
0.0
 10
40.6356218958
 20
72.5498032157
 30
0.0
 10
40.6348228868
 20
72.5400964535
 30
0.0
 10
40.6340664316
 20
72.5274826586
 30
0.0
 10
40.6330198043
 20
72.5058482732
 30
0.0
 10
40.6319052872
 20
72.4732138876
 30
0.0
 10
40.6308517569
 20
72.4283566429
 30
0.0
 10
40.6300630669
 20
72.377112747
 30
0.0
 10
40.6295793999
 20
72.3215451248
 30
0.0
 10
40.6294682509
 20
72.2832714226
 30
0.0
 10
40.6294682514
 20
72.2637996979
 30
0.0
  0
SPLINE
  5
688
100
AcDbEntity
  8
0
100
AcDbSpline
 62
7
  6
CONTINUOUS
 70
0
 71
3
 72
18
 73
14
 74
0
 42
0.0000001
 43
0.0000001
 44
0.0000000001
 40
0.0
 40
0.0
 40
0.0
 40
0.0
 40
0.1944178118
 40
0.3821429834
 40
0.5548433982
 40
0.7060904325
 40
0.8302121369
 40
0.880662064
 40
0.9226619669
 40
0.9557445242
 40
0.9796882696
 40
0.994371086
 40
1.0
 40
1.0
 40
1.0
 40
1.0
 10
40.6294682514
 20
64.4686210675
 30
0.0
 10
40.6294682514
 20
64.4491523338
 30
0.0
 10
40.6295794919
 20
64.4108847772
 30
0.0
 10
40.6300633566
 20
64.3553261134
 30
0.0
 10
40.6308520353
 20
64.3040908773
 30
0.0
 10
40.6319054188
 20
64.2592416618
 30
0.0
 10
40.6330198493
 20
64.2266130555
 30
0.0
 10
40.634066393
 20
64.2049814711
 30
0.0
 10
40.6348226937
 20
64.1923665201
 30
0.0
 10
40.6356218428
 20
64.1826565176
 30
0.0
 10
40.6363760485
 20
64.1751111114
 30
0.0
 10
40.6371745143
 20
64.1714760881
 30
0.0
 10
40.6377411243
 20
64.1686978431
 30
0.0
 10
40.638304796
 20
64.1686978431
 30
0.0
  0
SPLINE
  5
689
100
AcDbEntity
  8
0
100
AcDbSpline
 62
7
  6
CONTINUOUS
 70
0
 71
3
 72
18
 73
14
 74
0
 42
0.0000001
 43
0.0000001
 44
0.0000000001
 40
0.0
 40
0.0
 40
0.0
 40
0.0
 40
0.1944221685
 40
0.3821493344
 40
0.5548503654
 40
0.7060976407
 40
0.8302195384
 40
0.8806690995
 40
0.9226679719
 40
0.9557487465
 40
0.9796904646
 40
0.9943716438
 40
1.0
 40
1.0
 40
1.0
 40
1.0
 10
40.6294682514
 20
76.6686011319
 30
0.0
 10
40.6294682514
 20
76.6491333633
 30
0.0
 10
40.629579543
 20
76.6108679252
 30
0.0
 10
40.6300635301
 20
76.5553125642
 30
0.0
 10
40.6308522518
 20
76.5040807323
 30
0.0
 10
40.6319056249
 20
76.4592346406
 30
0.0
 10
40.6330200292
 20
76.4266083797
 30
0.0
 10
40.6340665379
 20
76.4049784717
 30
0.0
 10
40.6348228213
 20
76.3923647584
 30
0.0
 10
40.6356219134
 20
76.382655912
 30
0.0
 10
40.6363761635
 20
76.3751116886
 30
0.0
 10
40.6371744768
 20
76.3714771781
 30
0.0
 10
40.6377412207
 20
76.3686995776
 30
0.0
 10
40.638304796
 20
76.3686995776
 30
0.0
  0
SPLINE
  5
68A
100
AcDbEntity
  8
0
100
AcDbSpline
 62
7
  6
CONTINUOUS
 70
0
 71
3
 72
9
 73
5
 74
0
 42
0.0000001
 43
0.0000001
 44
0.0000000001
 40
0.0
 40
0.0
 40
0.0
 40
0.0
 40
0.2876726324
 40
1.0
 40
1.0
 40
1.0
 40
1.0
 10
41.4282989449
 20
61.413687767
 30
0.0
 10
41.4161306201
 20
61.4138889829
 30
0.0
 10
41.3738322623
 20
61.4146324409
 30
0.0
 10
41.3315359133
 20
61.4155345149
 30
0.0
 10
41.3014132431
 20
61.4163965845
 30
0.0
  0
SPLINE
  5
68B
100
AcDbEntity
  8
0
100
AcDbSpline
 62
7
  6
CONTINUOUS
 70
0
 71
3
 72
16
 73
12
 74
0
 42
0.0000001
 43
0.0000001
 44
0.0000000001
 40
0.0
 40
0.0
 40
0.0
 40
0.0
 40
0.0046127568
 40
0.0176661904
 40
0.039184595
 40
0.0690745656
 40
0.1535283257
 40
0.2696451157
 40
0.4152724874
 40
0.5880798663
 40
1.0
 40
1.0
 40
1.0
 40
1.0
 10
46.9121009661
 20
86.9159936087
 30
0.0
 10
46.9121009661
 20
86.9158430983
 30
0.0
 10
46.9112310418
 20
86.9158578291
 30
0.0
 10
46.9102407215
 20
86.9156135282
 30
0.0
 10
46.9079848363
 20
86.915537654
 30
0.0
 10
46.9036510032
 20
86.9152839797
 30
0.0
 10
46.8960656834
 20
86.9150726626
 30
0.0
 10
46.8848050467
 20
86.9148003476
 30
0.0
 10
46.8706157313
 20
86.9145646639
 30
0.0
 10
46.8467923788
 20
86.9142544185
 30
0.0
 10
46.8277113062
 20
86.9140978616
 30
0.0
 10
46.8142709689
 20
86.9140111975
 30
0.0
  0
SPLINE
  5
68C
100
AcDbEntity
  8
0
100
AcDbSpline
 62
7
  6
CONTINUOUS
 70
0
 71
3
 72
16
 73
12
 74
0
 42
0.0000001
 43
0.0000001
 44
0.0000000001
 40
0.0
 40
0.0
 40
0.0
 40
0.0
 40
0.4119201441
 40
0.5847275265
 40
0.7303549001
 40
0.846471689
 40
0.930925444
 40
0.9608154113
 40
0.9823338128
 40
0.995387244
 40
1.0
 40
1.0
 40
1.0
 40
1.0
 10
46.8142709689
 20
62.0184491235
 30
0.0
 10
46.8277113065
 20
62.0183624593
 30
0.0
 10
46.8467923796
 20
62.0182059025
 30
0.0
 10
46.8706157326
 20
62.0178956571
 30
0.0
 10
46.8848050481
 20
62.0176599733
 30
0.0
 10
46.8960656847
 20
62.0173876583
 30
0.0
 10
46.9036510042
 20
62.0171763412
 30
0.0
 10
46.907984837
 20
62.0169226669
 30
0.0
 10
46.9102407218
 20
62.0168467927
 30
0.0
 10
46.911231042
 20
62.0166024919
 30
0.0
 10
46.9121009661
 20
62.0166172226
 30
0.0
 10
46.9121009661
 20
62.0164667122
 30
0.0
  0
SPLINE
  5
68D
100
AcDbEntity
  8
0
100
AcDbSpline
 62
7
  6
CONTINUOUS
 70
0
 71
3
 72
16
 73
12
 74
0
 42
0.0000001
 43
0.0000001
 44
0.0000000001
 40
0.0
 40
0.0
 40
0.0
 40
0.0
 40
0.0046127563
 40
0.0176661884
 40
0.0391845911
 40
0.0690745597
 40
0.1535283167
 40
0.269645106
 40
0.415272479
 40
0.58807986
 40
1.0
 40
1.0
 40
1.0
 40
1.0
 10
46.8110480125
 20
86.9100107189
 30
0.0
 10
46.8110480125
 20
86.9098602084
 30
0.0
 10
46.8101780883
 20
86.9098749392
 30
0.0
 10
46.8091877681
 20
86.9096306383
 30
0.0
 10
46.8069318831
 20
86.9095547641
 30
0.0
 10
46.8025980502
 20
86.9093010899
 30
0.0
 10
46.7950127306
 20
86.9090897727
 30
0.0
 10
46.7837520939
 20
86.9088174577
 30
0.0
 10
46.7695627785
 20
86.908581774
 30
0.0
 10
46.7457394257
 20
86.9082715286
 30
0.0
 10
46.7266583528
 20
86.9081149717
 30
0.0
 10
46.7132180153
 20
86.9080283076
 30
0.0
  0
SPLINE
  5
68E
100
AcDbEntity
  8
0
100
AcDbSpline
 62
7
  6
CONTINUOUS
 70
0
 71
3
 72
16
 73
12
 74
0
 42
0.0000001
 43
0.0000001
 44
0.0000000001
 40
0.0
 40
0.0
 40
0.0
 40
0.0
 40
0.4119201487
 40
0.5847275325
 40
0.730354907
 40
0.8464716955
 40
0.9309254483
 40
0.9608154141
 40
0.9823338142
 40
0.9953872444
 40
1.0
 40
1.0
 40
1.0
 40
1.0
 10
46.7132180153
 20
62.0244320134
 30
0.0
 10
46.7266583531
 20
62.0243453492
 30
0.0
 10
46.7457394263
 20
62.0241887924
 30
0.0
 10
46.7695627796
 20
62.023878547
 30
0.0
 10
46.7837520951
 20
62.0236428632
 30
0.0
 10
46.7950127317
 20
62.0233705482
 30
0.0
 10
46.802598051
 20
62.0231592311
 30
0.0
 10
46.8069318836
 20
62.0229055568
 30
0.0
 10
46.8091877683
 20
62.0228296826
 30
0.0
 10
46.8101780885
 20
62.0225853818
 30
0.0
 10
46.8110480125
 20
62.0226001125
 30
0.0
 10
46.8110480125
 20
62.0224496021
 30
0.0
  0
SPLINE
  5
68F
100
AcDbEntity
  8
0
100
AcDbSpline
 62
7
  6
CONTINUOUS
 70
0
 71
3
 72
16
 73
12
 74
0
 42
0.0000001
 43
0.0000001
 44
0.0000000001
 40
0.0
 40
0.0
 40
0.0
 40
0.0
 40
0.0046127563
 40
0.0176661884
 40
0.0391845911
 40
0.0690745596
 40
0.1535283166
 40
0.2696451059
 40
0.4152724789
 40
0.5880798599
 40
1.0
 40
1.0
 40
1.0
 40
1.0
 10
46.7099950589
 20
86.904027829
 30
0.0
 10
46.7099950589
 20
86.9038773185
 30
0.0
 10
46.7091251347
 20
86.9038920493
 30
0.0
 10
46.7081348144
 20
86.9036477484
 30
0.0
 10
46.7058789295
 20
86.9035718742
 30
0.0
 10
46.7015450966
 20
86.9033181999
 30
0.0
 10
46.693959777
 20
86.9031068828
 30
0.0
 10
46.6826991403
 20
86.9028345678
 30
0.0
 10
46.6685098249
 20
86.9025988841
 30
0.0
 10
46.644686472
 20
86.9022886387
 30
0.0
 10
46.6256053992
 20
86.9021320818
 30
0.0
 10
46.6121650617
 20
86.9020454177
 30
0.0
  0
SPLINE
  5
690
100
AcDbEntity
  8
0
100
AcDbSpline
 62
7
  6
CONTINUOUS
 70
0
 71
3
 72
16
 73
12
 74
0
 42
0.0000001
 43
0.0000001
 44
0.0000000001
 40
0.0
 40
0.0
 40
0.0
 40
0.0
 40
0.4119201443
 40
0.5847275267
 40
0.7303549004
 40
0.8464716893
 40
0.9309254442
 40
0.9608154114
 40
0.9823338128
 40
0.995387244
 40
1.0
 40
1.0
 40
1.0
 40
1.0
 10
46.6121650617
 20
62.0304149033
 30
0.0
 10
46.6256053993
 20
62.0303282391
 30
0.0
 10
46.6446864724
 20
62.0301716823
 30
0.0
 10
46.6685098254
 20
62.0298614369
 30
0.0
 10
46.6826991409
 20
62.0296257531
 30
0.0
 10
46.6939597775
 20
62.0293534381
 30
0.0
 10
46.701545097
 20
62.029142121
 30
0.0
 10
46.7058789297
 20
62.0288884467
 30
0.0
 10
46.7081348146
 20
62.0288125725
 30
0.0
 10
46.7091251348
 20
62.0285682717
 30
0.0
 10
46.7099950589
 20
62.0285830024
 30
0.0
 10
46.7099950589
 20
62.028432492
 30
0.0
  0
SPLINE
  5
691
100
AcDbEntity
  8
0
100
AcDbSpline
 62
7
  6
CONTINUOUS
 70
0
 71
3
 72
16
 73
12
 74
0
 42
0.0000001
 43
0.0000001
 44
0.0000000001
 40
0.0
 40
0.0
 40
0.0
 40
0.0
 40
0.0046127563
 40
0.0176661885
 40
0.0391845912
 40
0.0690745597
 40
0.1535283168
 40
0.2696451062
 40
0.4152724791
 40
0.58807986
 40
1.0
 40
1.0
 40
1.0
 40
1.0
 10
46.6089421053
 20
86.8980449391
 30
0.0
 10
46.6089421053
 20
86.8978944286
 30
0.0
 10
46.6080721811
 20
86.8979091594
 30
0.0
 10
46.6070818608
 20
86.8976648585
 30
0.0
 10
46.6048259758
 20
86.8975889843
 30
0.0
 10
46.6004921429
 20
86.89733531
 30
0.0
 10
46.5929068233
 20
86.8971239929
 30
0.0
 10
46.5816461867
 20
86.8968516779
 30
0.0
 10
46.5674568712
 20
86.8966159942
 30
0.0
 10
46.5436335184
 20
86.8963057488
 30
0.0
 10
46.5245524455
 20
86.8961491919
 30
0.0
 10
46.5111121081
 20
86.8960625278
 30
0.0
  0
SPLINE
  5
692
100
AcDbEntity
  8
0
100
AcDbSpline
 62
7
  6
CONTINUOUS
 70
0
 71
3
 72
16
 73
12
 74
0
 42
0.0000001
 43
0.0000001
 44
0.0000000001
 40
0.0
 40
0.0
 40
0.0
 40
0.0
 40
0.4119201483
 40
0.5847275321
 40
0.7303549065
 40
0.8464716951
 40
0.930925448
 40
0.9608154139
 40
0.9823338141
 40
0.9953872444
 40
1.0
 40
1.0
 40
1.0
 40
1.0
 10
46.5111121081
 20
62.0363977932
 30
0.0
 10
46.5245524458
 20
62.036311129
 30
0.0
 10
46.5436335191
 20
62.0361545722
 30
0.0
 10
46.5674568723
 20
62.0358443268
 30
0.0
 10
46.5816461878
 20
62.035608643
 30
0.0
 10
46.5929068244
 20
62.035336328
 30
0.0
 10
46.6004921437
 20
62.0351250109
 30
0.0
 10
46.6048259764
 20
62.0348713366
 30
0.0
 10
46.6070818611
 20
62.0347954624
 30
0.0
 10
46.6080721812
 20
62.0345511616
 30
0.0
 10
46.6089421053
 20
62.0345658923
 30
0.0
 10
46.6089421053
 20
62.0344153819
 30
0.0
  0
SPLINE
  5
693
100
AcDbEntity
  8
0
100
AcDbSpline
 62
7
  6
CONTINUOUS
 70
0
 71
3
 72
16
 73
12
 74
0
 42
0.0000001
 43
0.0000001
 44
0.0000000001
 40
0.0
 40
0.0
 40
0.0
 40
0.0
 40
0.0046127563
 40
0.0176661885
 40
0.0391845912
 40
0.0690745597
 40
0.1535283168
 40
0.2696451061
 40
0.4152724791
 40
0.58807986
 40
1.0
 40
1.0
 40
1.0
 40
1.0
 10
46.5078891516
 20
86.8920620492
 30
0.0
 10
46.5078891516
 20
86.8919115387
 30
0.0
 10
46.5070192275
 20
86.8919262695
 30
0.0
 10
46.5060289072
 20
86.8916819686
 30
0.0
 10
46.5037730222
 20
86.8916060944
 30
0.0
 10
46.4994391893
 20
86.8913524201
 30
0.0
 10
46.4918538697
 20
86.891141103
 30
0.0
 10
46.480593233
 20
86.890868788
 30
0.0
 10
46.4664039176
 20
86.8906331043
 30
0.0
 10
46.4425805648
 20
86.8903228589
 30
0.0
 10
46.4234994919
 20
86.890166302
 30
0.0
 10
46.4100591544
 20
86.8900796379
 30
0.0
  0
SPLINE
  5
694
100
AcDbEntity
  8
0
100
AcDbSpline
 62
7
  6
CONTINUOUS
 70
0
 71
3
 72
16
 73
12
 74
0
 42
0.0000001
 43
0.0000001
 44
0.0000000001
 40
0.0
 40
0.0
 40
0.0
 40
0.0
 40
0.4119201444
 40
0.5847275268
 40
0.7303549005
 40
0.8464716894
 40
0.9309254443
 40
0.9608154114
 40
0.9823338128
 40
0.995387244
 40
1.0
 40
1.0
 40
1.0
 40
1.0
 10
46.4100591545
 20
62.0423806831
 30
0.0
 10
46.4234994921
 20
62.042294019
 30
0.0
 10
46.4425805651
 20
62.0421374621
 30
0.0
 10
46.4664039182
 20
62.0418272167
 30
0.0
 10
46.4805932337
 20
62.041591533
 30
0.0
 10
46.4918538703
 20
62.041319218
 30
0.0
 10
46.4994391897
 20
62.0411079008
 30
0.0
 10
46.5037730225
 20
62.0408542265
 30
0.0
 10
46.5060289073
 20
62.0407783523
 30
0.0
 10
46.5070192275
 20
62.0405340515
 30
0.0
 10
46.5078891516
 20
62.0405487822
 30
0.0
 10
46.5078891516
 20
62.0403982718
 30
0.0
  0
SPLINE
  5
695
100
AcDbEntity
  8
0
100
AcDbSpline
 62
7
  6
CONTINUOUS
 70
0
 71
3
 72
16
 73
12
 74
0
 42
0.0000001
 43
0.0000001
 44
0.0000000001
 40
0.0
 40
0.0
 40
0.0
 40
0.0
 40
0.0046127563
 40
0.0176661885
 40
0.0391845912
 40
0.0690745598
 40
0.1535283168
 40
0.2696451062
 40
0.4152724791
 40
0.5880798601
 40
1.0
 40
1.0
 40
1.0
 40
1.0
 10
46.406836198
 20
86.8860791592
 30
0.0
 10
46.406836198
 20
86.8859286488
 30
0.0
 10
46.4059662738
 20
86.8859433796
 30
0.0
 10
46.4049759535
 20
86.8856990787
 30
0.0
 10
46.4027200686
 20
86.8856232045
 30
0.0
 10
46.3983862357
 20
86.8853695302
 30
0.0
 10
46.3908009161
 20
86.8851582131
 30
0.0
 10
46.3795402794
 20
86.8848858981
 30
0.0
 10
46.365350964
 20
86.8846502144
 30
0.0
 10
46.3415276111
 20
86.884339969
 30
0.0
 10
46.3224465383
 20
86.8841834121
 30
0.0
 10
46.3090062008
 20
86.884096748
 30
0.0
  0
SPLINE
  5
696
100
AcDbEntity
  8
0
100
AcDbSpline
 62
7
  6
CONTINUOUS
 70
0
 71
3
 72
16
 73
12
 74
0
 42
0.0000001
 43
0.0000001
 44
0.0000000001
 40
0.0
 40
0.0
 40
0.0
 40
0.0
 40
0.4119201483
 40
0.5847275321
 40
0.7303549066
 40
0.8464716951
 40
0.930925448
 40
0.9608154139
 40
0.9823338141
 40
0.9953872444
 40
1.0
 40
1.0
 40
1.0
 40
1.0
 10
46.3090062008
 20
62.048363573
 30
0.0
 10
46.3224465386
 20
62.0482769089
 30
0.0
 10
46.3415276118
 20
62.048120352
 30
0.0
 10
46.365350965
 20
62.0478101066
 30
0.0
 10
46.3795402806
 20
62.0475744229
 30
0.0
 10
46.3908009172
 20
62.0473021078
 30
0.0
 10
46.3983862365
 20
62.0470907907
 30
0.0
 10
46.4027200691
 20
62.0468371164
 30
0.0
 10
46.4049759538
 20
62.0467612422
 30
0.0
 10
46.405966274
 20
62.0465169414
 30
0.0
 10
46.406836198
 20
62.0465316721
 30
0.0
 10
46.406836198
 20
62.0463811617
 30
0.0
  0
SPLINE
  5
697
100
AcDbEntity
  8
0
100
AcDbSpline
 62
7
  6
CONTINUOUS
 70
0
 71
3
 72
16
 73
12
 74
0
 42
0.0000001
 43
0.0000001
 44
0.0000000001
 40
0.0
 40
0.0
 40
0.0
 40
0.0
 40
0.0046127563
 40
0.0176661884
 40
0.0391845911
 40
0.0690745597
 40
0.1535283167
 40
0.2696451061
 40
0.415272479
 40
0.58807986
 40
1.0
 40
1.0
 40
1.0
 40
1.0
 10
46.3057832444
 20
86.8800962693
 30
0.0
 10
46.3057832444
 20
86.8799457589
 30
0.0
 10
46.3049133202
 20
86.8799604897
 30
0.0
 10
46.3039229999
 20
86.8797161888
 30
0.0
 10
46.301667115
 20
86.8796403146
 30
0.0
 10
46.2973332821
 20
86.8793866403
 30
0.0
 10
46.2897479625
 20
86.8791753232
 30
0.0
 10
46.2784873258
 20
86.8789030082
 30
0.0
 10
46.2642980103
 20
86.8786673244
 30
0.0
 10
46.2404746575
 20
86.8783570791
 30
0.0
 10
46.2213935846
 20
86.8782005222
 30
0.0
 10
46.2079532472
 20
86.8781138581
 30
0.0
  0
SPLINE
  5
698
100
AcDbEntity
  8
0
100
AcDbSpline
 62
7
  6
CONTINUOUS
 70
0
 71
3
 72
16
 73
12
 74
0
 42
0.0000001
 43
0.0000001
 44
0.0000000001
 40
0.0
 40
0.0
 40
0.0
 40
0.0
 40
0.4119201408
 40
0.5847275219
 40
0.730354895
 40
0.8464716842
 40
0.9309254408
 40
0.9608154092
 40
0.9823338117
 40
0.9953872437
 40
1.0
 40
1.0
 40
1.0
 40
1.0
 10
46.2079532472
 20
62.0543464629
 30
0.0
 10
46.2213935847
 20
62.0542597988
 30
0.0
 10
46.2404746576
 20
62.0541032419
 30
0.0
 10
46.2642980105
 20
62.0537929965
 30
0.0
 10
46.2784873259
 20
62.0535573128
 30
0.0
 10
46.2897479626
 20
62.0532849978
 30
0.0
 10
46.2973332821
 20
62.0530736806
 30
0.0
 10
46.301667115
 20
62.0528200064
 30
0.0
 10
46.3039229999
 20
62.0527441322
 30
0.0
 10
46.3049133202
 20
62.0524998313
 30
0.0
 10
46.3057832444
 20
62.0525145621
 30
0.0
 10
46.3057832444
 20
62.0523640516
 30
0.0
  0
SPLINE
  5
699
100
AcDbEntity
  8
0
100
AcDbSpline
 62
7
  6
CONTINUOUS
 70
0
 71
3
 72
14
 73
10
 74
0
 42
0.0000001
 43
0.0000001
 44
0.0000000001
 40
0.0
 40
0.0
 40
0.0
 40
0.0
 40
0.0171418791
 40
0.0671312035
 40
0.1495537961
 40
0.2634946516
 40
0.4075110729
 40
0.5800316281
 40
1.0
 40
1.0
 40
1.0
 40
1.0
 10
46.2047303147
 20
86.874113374
 30
0.0
 10
46.2047303147
 20
86.8737162583
 30
0.0
 10
46.2022876448
 20
86.8740920384
 30
0.0
 10
46.1996789973
 20
86.8733552084
 30
0.0
 10
46.193498768
 20
86.8734254358
 30
0.0
 10
46.1858238
 20
86.8730746666
 30
0.0
 10
46.1757748398
 20
86.8729090675
 30
0.0
 10
46.1587515966
 20
86.8725999145
 30
0.0
 10
46.1450104256
 20
86.8724515022
 30
0.0
 10
46.1352817264
 20
86.8723572132
 30
0.0
  0
SPLINE
  5
69A
100
AcDbEntity
  8
0
100
AcDbSpline
 62
7
  6
CONTINUOUS
 70
0
 71
3
 72
9
 73
5
 74
0
 42
0.0000001
 43
0.0000001
 44
0.0000000001
 40
0.0
 40
0.0
 40
0.0
 40
0.0
 40
0.2383904576
 40
1.0
 40
1.0
 40
1.0
 40
1.0
 10
46.1352813415
 20
86.8723572096
 30
0.0
 10
46.1330248171
 20
86.8723353398
 30
0.0
 10
46.123559722
 20
86.8721805649
 30
0.0
 10
46.1140989115
 20
86.8718400237
 30
0.0
 10
46.1068949468
 20
86.8715580809
 30
0.0
  0
SPLINE
  5
69B
100
AcDbEntity
  8
0
100
AcDbSpline
 62
7
  6
CONTINUOUS
 70
0
 71
3
 72
9
 73
5
 74
0
 42
0.0000001
 43
0.0000001
 44
0.0000000001
 40
0.0
 40
0.0
 40
0.0
 40
0.0
 40
0.3226275291
 40
1.0
 40
1.0
 40
1.0
 40
1.0
 10
46.1069006788
 20
62.0603293491
 30
0.0
 10
46.1161453903
 20
62.0602697386
 30
0.0
 10
46.1447985275
 20
62.0600215024
 30
0.0
 10
46.1734568772
 20
62.059768072
 30
0.0
 10
46.1928568541
 20
62.0591402539
 30
0.0
  0
SPLINE
  5
69C
100
AcDbEntity
  8
0
100
AcDbSpline
 62
7
  6
CONTINUOUS
 70
0
 71
3
 72
11
 73
7
 74
0
 42
0.0000001
 43
0.0000001
 44
0.0000000001
 40
0.0
 40
0.0
 40
0.0
 40
0.0
 40
0.4328455608
 40
0.7449956013
 40
0.9343997448
 40
1.0
 40
1.0
 40
1.0
 40
1.0
 10
46.1928568541
 20
62.0591402539
 30
0.0
 10
46.1945754683
 20
62.0590846364
 30
0.0
 10
46.1974328259
 20
62.0589241541
 30
0.0
 10
46.2014477917
 20
62.0589055373
 30
0.0
 10
46.2031591044
 20
62.0584458031
 30
0.0
 10
46.2047302908
 20
62.0586075438
 30
0.0
 10
46.2047302908
 20
62.0583469415
 30
0.0
  0
SPLINE
  5
69D
100
AcDbEntity
  8
0
100
AcDbSpline
 62
7
  6
CONTINUOUS
 70
0
 71
3
 72
9
 73
5
 74
0
 42
0.0000001
 43
0.0000001
 44
0.0000000001
 40
0.0
 40
0.0
 40
0.0
 40
0.0
 40
0.2708541438
 40
1.0
 40
1.0
 40
1.0
 40
1.0
 10
46.1068949468
 20
86.8715580809
 30
0.0
 10
46.1027355992
 20
86.8714566258
 30
0.0
 10
46.0873885832
 20
86.8709775389
 30
0.0
 10
46.0720070507
 20
86.870027418
 30
0.0
 10
46.0609401515
 20
86.8683033039
 30
0.0
  0
SPLINE
  5
69E
100
AcDbEntity
  8
0
100
AcDbSpline
 62
7
  6
CONTINUOUS
 70
0
 71
3
 72
11
 73
7
 74
0
 42
0.0000001
 43
0.0000001
 44
0.0000000001
 40
0.0
 40
0.0
 40
0.0
 40
0.0
 40
0.3229260232
 40
0.5779858428
 40
0.7883367656
 40
1.0
 40
1.0
 40
1.0
 40
1.0
 10
46.0609401515
 20
86.8683033039
 30
0.0
 10
46.0550202576
 20
86.8673810427
 30
0.0
 10
46.0445056545
 20
86.8651681327
 30
0.0
 10
46.0308892352
 20
86.8591287734
 30
0.0
 10
46.0223583572
 20
86.8491957014
 30
0.0
 10
46.0209515356
 20
86.8411448685
 30
0.0
 10
46.0209515356
 20
86.8372178436
 30
0.0
  0
SPLINE
  5
69F
100
AcDbEntity
  8
0
100
AcDbSpline
 62
7
  6
CONTINUOUS
 70
0
 71
3
 72
9
 73
5
 74
0
 42
0.0000001
 43
0.0000001
 44
0.0000000001
 40
0.0
 40
0.0
 40
0.0
 40
0.0
 40
0.2434705599
 40
1.0
 40
1.0
 40
1.0
 40
1.0
 10
46.0778209061
 20
86.7086708497
 30
0.0
 10
46.0778209061
 20
86.7052640016
 30
0.0
 10
46.0774113618
 20
86.6912697464
 30
0.0
 10
46.075708139
 20
86.6773499298
 30
0.0
 10
46.0741807314
 20
86.6668746947
 30
0.0
  0
SPLINE
  5
6A0
100
AcDbEntity
  8
0
100
AcDbSpline
 62
7
  6
CONTINUOUS
 70
0
 71
3
 72
9
 73
5
 74
0
 42
0.0000001
 43
0.0000001
 44
0.0000000001
 40
0.0
 40
0.0
 40
0.0
 40
0.0
 40
0.2446433741
 40
1.0
 40
1.0
 40
1.0
 40
1.0
 10
46.0741807314
 20
86.6668746947
 30
0.0
 10
46.0730609623
 20
86.6591951167
 30
0.0
 10
46.0679145994
 20
86.627922398
 30
0.0
 10
46.0630793137
 20
86.5963416703
 30
0.0
 10
46.0630793137
 20
86.5723796023
 30
0.0
  0
SPLINE
  5
6A1
100
AcDbEntity
  8
0
100
AcDbSpline
 62
7
  6
CONTINUOUS
 70
0
 71
3
 72
18
 73
14
 74
0
 42
0.0000001
 43
0.0000001
 44
0.0000000001
 40
0.0
 40
0.0
 40
0.0
 40
0.0
 40
0.1944469203
 40
0.3822093692
 40
0.5549173628
 40
0.7061575789
 40
0.83029248
 40
0.880744708
 40
0.9227341956
 40
0.9557945012
 40
0.9797141027
 40
0.9943777995
 40
1.0
 40
1.0
 40
1.0
 40
1.0
 10
40.6294682514
 20
84.4638108441
 30
0.0
 10
40.6294682671
 20
84.4832834627
 30
0.0
 10
40.6295796706
 20
84.5215595735
 30
0.0
 10
40.6300636275
 20
84.5771284117
 30
0.0
 10
40.6308523093
 20
84.6283700092
 30
0.0
 10
40.6319059127
 20
84.6732228596
 30
0.0
 10
40.6330200981
 20
84.7058539545
 30
0.0
 10
40.6340665033
 20
84.7274871621
 30
0.0
 10
40.6348229636
 20
84.7400996062
 30
0.0
 10
40.635622097
 20
84.7498047025
 30
0.0
 10
40.636377266
 20
84.7573429082
 30
0.0
 10
40.6371747334
 20
84.7609749801
 30
0.0
 10
40.6377430757
 20
84.763748341
 30
0.0
 10
40.6383061032
 20
84.763748341
 30
0.0
  0
SPLINE
  5
6A2
100
AcDbEntity
  8
0
100
AcDbSpline
 62
7
  6
CONTINUOUS
 70
0
 71
3
 72
18
 73
14
 74
0
 42
0.0000001
 43
0.0000001
 44
0.0000000001
 40
0.0
 40
0.0
 40
0.0
 40
0.0
 40
0.1929988683
 40
0.3794684904
 40
0.5512270557
 40
0.7019901021
 40
0.8262242395
 40
0.8769641756
 40
0.9194098318
 40
0.9530984185
 40
0.9778097152
 40
0.9934103042
 40
1.0
 40
1.0
 40
1.0
 40
1.0
 10
40.7131247406
 20
86.5724135473
 30
0.0
 10
40.7131247406
 20
86.5917379955
 30
0.0
 10
40.71301512
 20
86.6297333308
 30
0.0
 10
40.7125382448
 20
86.6849239899
 30
0.0
 10
40.7117612496
 20
86.7358839022
 30
0.0
 10
40.710720631
 20
86.7806002784
 30
0.0
 10
40.7096238338
 20
86.8132089696
 30
0.0
 10
40.7085867988
 20
86.8349371746
 30
0.0
 10
40.7078490312
 20
86.8476569737
 30
0.0
 10
40.7070284721
 20
86.8576235517
 30
0.0
 10
40.7063447905
 20
86.8652319451
 30
0.0
 10
40.70541397
 20
86.8694205931
 30
0.0
 10
40.7050046079
 20
86.8721048275
 30
0.0
 10
40.7043951504
 20
86.8723576287
 30
0.0
  0
SPLINE
  5
6A3
100
AcDbEntity
  8
0
100
AcDbSpline
 62
7
  6
CONTINUOUS
 70
0
 71
3
 72
9
 73
5
 74
0
 42
0.0000001
 43
0.0000001
 44
0.0000000001
 40
0.0
 40
0.0
 40
0.0
 40
0.0
 40
0.2957969016
 40
1.0
 40
1.0
 40
1.0
 40
1.0
 10
46.9225765915
 20
62.0124401123
 30
0.0
 10
46.9283540428
 20
62.0124215574
 30
0.0
 10
46.947885627
 20
62.0123308583
 30
0.0
 10
46.9674178439
 20
62.0121818778
 30
0.0
 10
46.9811698142
 20
62.0119213614
 30
0.0
  0
LINE
  5
6A4
100
AcDbEntity
  8
0
100
AcDbLine
 62
7
  6
CONTINUOUS
 10
46.9811698142
 20
62.0119213614
 11
46.9951109125
 21
62.0115052758
  0
SPLINE
  5
6A5
100
AcDbEntity
  8
0
100
AcDbSpline
 62
7
  6
CONTINUOUS
 70
0
 71
3
 72
9
 73
5
 74
0
 42
0.0000001
 43
0.0000001
 44
0.0000000001
 40
0.0
 40
0.0
 40
0.0
 40
0.0
 40
0.3497206407
 40
1.0
 40
1.0
 40
1.0
 40
1.0
 10
46.9951109125
 20
86.9209550451
 30
0.0
 10
46.9866691582
 20
86.9204552469
 30
0.0
 10
46.9624728954
 20
86.9203522051
 30
0.0
 10
46.9383008077
 20
86.9200707088
 30
0.0
 10
46.9225765915
 20
86.9200202086
 30
0.0
  0
SPLINE
  5
6A6
100
AcDbEntity
  8
0
100
AcDbSpline
 62
7
  6
CONTINUOUS
 70
0
 71
3
 72
11
 73
7
 74
0
 42
0.0000001
 43
0.0000001
 44
0.0000000001
 40
0.0
 40
0.0
 40
0.0
 40
0.0
 40
0.2530636966
 40
0.5000000215
 40
0.7469363399
 40
1.0
 40
1.0
 40
1.0
 40
1.0
 10
64.050304614
 20
64.6828617457
 30
0.0
 10
64.0502966128
 20
64.5909003532
 30
0.0
 10
64.0121414995
 20
64.4071374521
 30
0.0
 10
63.8552504617
 20
64.1780231121
 30
0.0
 10
63.6261363153
 20
64.0211318199
 30
0.0
 10
63.4423734812
 20
63.9829764781
 30
0.0
 10
63.350412102
 20
63.9829683594
 30
0.0
  0
SPLINE
  5
6A7
100
AcDbEntity
  8
0
100
AcDbSpline
 62
7
  6
CONTINUOUS
 70
0
 71
3
 72
11
 73
7
 74
0
 42
0.0000001
 43
0.0000001
 44
0.0000000001
 40
0.0
 40
0.0
 40
0.0
 40
0.0
 40
0.2499888335
 40
0.4999902088
 40
0.7499950909
 40
1.0
 40
1.0
 40
1.0
 40
1.0
 10
37.1202010333
 20
64.7107898495
 30
0.0
 10
37.1210331673
 20
64.645778551
 30
0.0
 10
37.1458513414
 20
64.5142875307
 30
0.0
 10
37.2575568981
 20
64.3482436364
 30
0.0
 10
37.4236171053
 20
64.2364823702
 30
0.0
 10
37.5551106544
 20
64.2117908907
 30
0.0
 10
37.6201248809
 20
64.210866002
 30
0.0
  0
SPLINE
  5
6A8
100
AcDbEntity
  8
0
100
AcDbSpline
 62
7
  6
CONTINUOUS
 70
0
 71
3
 72
11
 73
7
 74
0
 42
0.0000001
 43
0.0000001
 44
0.0000000001
 40
0.0
 40
0.0
 40
0.0
 40
0.0
 40
0.2499888335
 40
0.4999902088
 40
0.7499950909
 40
1.0
 40
1.0
 40
1.0
 40
1.0
 10
63.8224069713
 20
84.2131861744
 30
0.0
 10
63.8215748372
 20
84.2781974729
 30
0.0
 10
63.7967566632
 20
84.4096884933
 30
0.0
 10
63.6850511065
 20
84.5757323875
 30
0.0
 10
63.5189908993
 20
84.6874936537
 30
0.0
 10
63.3874973502
 20
84.7121851332
 30
0.0
 10
63.3224831237
 20
84.713110022
 30
0.0
  0
SPLINE
  5
6A9
100
AcDbEntity
  8
0
100
AcDbSpline
 62
7
  6
CONTINUOUS
 70
0
 71
3
 72
11
 73
7
 74
0
 42
0.0000001
 43
0.0000001
 44
0.0000000001
 40
0.0
 40
0.0
 40
0.0
 40
0.0
 40
0.2499888335
 40
0.4999902088
 40
0.7499950909
 40
1.0
 40
1.0
 40
1.0
 40
1.0
 10
37.6201248809
 20
84.713110022
 30
0.0
 10
37.5551135823
 20
84.712277888
 30
0.0
 10
37.423622562
 20
84.6874597139
 30
0.0
 10
37.2575786677
 20
84.5757541572
 30
0.0
 10
37.1458174015
 20
84.40969395
 30
0.0
 10
37.121125922
 20
84.2782004009
 30
0.0
 10
37.1202010333
 20
84.2131861744
 30
0.0
  0
ELLIPSE
  5
6AA
100
AcDbEntity
  8
0
100
AcDbEllipse
 62
7
  6
CONTINUOUS
 10
58.8252723992
 20
83.538176231
 30
0.0
 11
0.2037743519
 21
-0.0088915591
 31
0.0
 40
0.9805447742
 41
-3.0988333095
 42
-1.5263255674
  0
ELLIPSE
  5
6AB
100
AcDbEntity
  8
0
100
AcDbEllipse
 62
7
  6
CONTINUOUS
 10
58.8252723992
 20
75.3857997929
 30
0.0
 11
0.2037743519
 21
0.0088915591
 31
0.0
 40
0.9805447742
 41
1.5263255674
 42
3.0988333095
  0
ELLIPSE
  5
6AC
100
AcDbEntity
  8
0
100
AcDbEllipse
 62
7
  6
CONTINUOUS
 10
63.3712049891
 20
64.6620679842
 30
0.0
 11
0.4951255324
 21
-0.4951255324
 31
0.0
 40
0.9996954599
 41
-0.5700135067
 42
0.7852458688
  0
ELLIPSE
  5
6AD
100
AcDbEntity
  8
0
100
AcDbEllipse
 62
7
  6
CONTINUOUS
 10
40.5200609527
 20
66.770733919
 30
0.0
 11
0.3535803156
 21
0.3535803156
 31
0.0
 40
0.9999238505
 41
2.3562325664
 42
3.9269527408
  0
ELLIPSE
  5
6AE
100
AcDbEntity
  8
0
100
AcDbEllipse
 62
7
  6
CONTINUOUS
 10
40.5200609527
 20
69.7619689728
 30
0.0
 11
0.3535803156
 21
-0.3535803156
 31
0.0
 40
0.9999238505
 41
2.3562325664
 42
3.9269527408
  0
ELLIPSE
  5
6AF
100
AcDbEntity
  8
0
100
AcDbEllipse
 62
7
  6
CONTINUOUS
 10
35.5113696573
 20
85.1119613546
 30
0.0
 11
0.3870712343
 21
-0.0
 31
0.0
 40
0.7750511363
 41
1.5707963268
 42
3.1415926536
  0
ELLIPSE
  5
6B0
100
AcDbEntity
  8
0
100
AcDbEllipse
 62
7
  6
CONTINUOUS
 10
57.321304003
 20
75.3857997929
 30
0.0
 11
-0.1414321262
 21
0.1414321262
 31
0.0
 40
0.9999238505
 41
3.9269527408
 42
5.49782522
  0
ELLIPSE
  5
6B1
100
AcDbEntity
  8
0
100
AcDbEllipse
 62
7
  6
CONTINUOUS
 10
60.019483264
 20
71.5619765875
 30
0.0
 11
-0.0707322189
 21
-0.0707322189
 31
0.0
 40
0.9996954599
 41
2.3563221417
 42
3.92684782
  0
ELLIPSE
  5
6B2
100
AcDbEntity
  8
0
100
AcDbEllipse
 62
7
  6
CONTINUOUS
 10
57.2195137296
 20
71.5619765875
 30
0.0
 11
0.0707322189
 21
-0.0707322189
 31
0.0
 40
0.9996954599
 41
2.3563390555
 42
3.9268462542
  0
ELLIPSE
  5
6B3
100
AcDbEntity
  8
0
100
AcDbEllipse
 62
7
  6
CONTINUOUS
 10
54.3041543312
 20
73.3619613546
 30
0.0
 11
-0.0
 21
0.2
 31
0.0
 40
1.0
 41
-3.9269908169
 42
-3.1415926536
  0
ELLIPSE
  5
6B4
100
AcDbEntity
  8
0
100
AcDbEllipse
 62
7
  6
CONTINUOUS
 10
58.5631247406
 20
61.4302249301
 30
0.0
 11
1.75
 21
0.0
 31
0.0
 40
0.0122179127
 41
-3.1415926536
 42
-2.6501125637
  0
ELLIPSE
  5
6B5
100
AcDbEntity
  8
0
100
AcDbEllipse
 62
7
  6
CONTINUOUS
 10
46.0340801932
 20
62.0633236138
 30
0.0
 11
0.0437407129
 21
0.0
 31
0.0
 40
0.0122179127
 41
-0.0
 42
0.8460069525
  0
ELLIPSE
  5
6B6
100
AcDbEntity
  8
0
100
AcDbEllipse
 62
7
  6
CONTINUOUS
 10
58.5631247406
 20
87.5022353908
 30
0.0
 11
1.75
 21
-0.0
 31
0.0
 40
0.0122179127
 41
2.6501125637
 42
3.1415926536
  0
ELLIPSE
  5
6B7
100
AcDbEntity
  8
0
100
AcDbEllipse
 62
7
  6
CONTINUOUS
 10
57.321304003
 20
83.538176231
 30
0.0
 11
0.1414321262
 21
0.1414321262
 31
0.0
 40
0.9999238505
 41
-2.3562325664
 42
-0.7853600871
  0
ENDSEC
  0
SECTION
  2
OBJECTS
  0
DICTIONARY
  5
C
100
AcDbDictionary
280
0
281
1
  3
ACAD_GROUP
350
D
  3
ACAD_MLINESTYLE
350
17
  3
ACAD_LAYOUT
350
1A
  3
ACAD_PLOTSETTINGS
350
19
  3
ACAD_PLOTSTYLENAME
350
E
  0
DICTIONARY
  5
D
102
{ACAD_REACTORS
330
C
102
}
100
AcDbDictionary
280
0
281
1
  0
ACDBDICTIONARYWDFLT
  5
E
102
{ACAD_REACTORS
330
C
102
}
100
AcDbDictionary
281
1
  3
Normal
350
F
100
AcDbDictionaryWithDefault
340
F
  0
DICTIONARY
  5
17
102
{ACAD_REACTORS
330
C
102
}
100
AcDbDictionary
280
0
281
1
  3
Standard
350
18
  0
DICTIONARY
  5
19
102
{ACAD_REACTORS
330
C
102
}
100
AcDbDictionary
281
1
  0
DICTIONARY
  5
1A
102
{ACAD_REACTORS
330
C
102
}
100
AcDbDictionary
281
1
  3
Model
350
6B8
  3
Layout1
350
6B9
  0
ACDBPLACEHOLDER
  5
F
102
{ACAD_REACTORS
330
E
102
}
  0
MLINESTYLE
  5
18
102
{ACAD_REACTORS
330
17
102
}
100
AcDbMlineStyle
  2
STANDARD
 70
0
  3

 62
256
 51
90.0
 52
90.0
 71
2
 49
0.5
 62
256
  6
BYLAYER
 49
-0.5
 62
256
  6
BYLAYER
  0
LAYOUT
  5
6B8
102
{ACAD_REACTORS
330
1A
102
}
100
AcDbPlotSettings
  1

  2
none_device
  4

  6

 40
0.0
 41
0.0
 42
0.0
 43
0.0
 44
210.0
 45
297.0
 46
0.0
 47
0.0
 48
0.0
 49
0.0
140
0.0
141
0.0
142
1.0
143
1.0
 70
1024
 72
1
 73
0
 74
0
  7

 75
0
147
1.0
148
0.0
149
0.0
100
AcDbLayout
  1
Model
 70
0
 71
0
 10
0.0
 20
0.0
 11
210.0
 21
297.0
 12
0.0
 22
0.0
 32
0.0
 14
0.0
 24
0.0
 34
0.0
 15
0.0
 25
0.0
 35
0.0
146
0.0
 13
0.0
 23
0.0
 33
0.0
 16
1.0
 26
0.0
 36
0.0
 17
0.0
 27
1.0
 37
0.0
 76
0
330
210
345
0
346
0
  0
LAYOUT
  5
6B9
102
{ACAD_REACTORS
330
1A
102
}
100
AcDbPlotSettings
  1

  2
none_device
  4

  6

 40
0.0
 41
0.0
 42
0.0
 43
0.0
 44
210.0
 45
297.0
 46
0.0
 47
0.0
 48
0.0
 49
0.0
140
0.0
141
0.0
142
1.0
143
1.0
 70
0
 72
1
 73
0
 74
0
  7

 75
0
147
1.0
148
0.0
149
0.0
100
AcDbLayout
  1
Layout1
 70
0
 71
1
 10
0.0
 20
0.0
 11
210.0
 21
297.0
 12
0.0
 22
0.0
 32
0.0
 14
0.0
 24
0.0
 34
0.0
 15
0.0
 25
0.0
 35
0.0
146
0.0
 13
0.0
 23
0.0
 33
0.0
 16
1.0
 26
0.0
 36
0.0
 17
0.0
 27
1.0
 37
0.0
 76
0
330
211
345
0
346
0
  0
ENDSEC
  0
EOF
