999
DXF file: C:\Users\sesa63760\Dev\_Creo\CAD\MCADID0004198_3D-CAD\drw0001_7.dxf
999
Pro/ENGINEER 2019471 by Parametric Technology Corporation
  0
SECTION
  2
HEADER
  9
$ACADVER
  1
AC1024
  9
$DWGCODEPAGE
  3
ANSI_1252
  9
$EXTMAX
 10
39.1826534201
 20
55.4154669798
 30
0.0
  9
$EXTMIN
 10
0.0
 20
0.0
 30
0.0
  9
$LIMMIN
 10
0.0
 20
0.0
  9
$LIMMAX
 10
39.1826534201
 20
55.4154669798
  9
$VIEWCTR
 10
19.59132671
 20
27.7077334899
  9
$VIEWSIZE
 40
55.4154669798
  9
$CLAYER
  8
0
  9
$LTSCALE
 40
3.6122674772
  9
$CELTYPE
  6
BYLAYER
  9
$DIMSCALE
 40
1.0
  9
$DIMASZ
 40
0.4664601598
  9
$DIMEXO
 40
1.0
  9
$DIMDLI
 40
2.4957484388
  9
$DIMEXE
 40
1.0
  9
$DIMCEN
 40
0.5910983145
  9
$DIMLFAC
 40
1.0
  9
$DIMBLK
  1
_FILLED
  9
$DIMALT
 70
0
  9
$DIMALTF
 40
0.0393700787
  9
$DIMTXT
 40
0.6530442237
  9
$DIMTOL
 70
1
  9
$DIMLIM
 70
0
  9
$DIMTFAC
 40
1.0
  9
$DIMTP
 40
0.01
  9
$DIMTM
 40
0.01
  9
$DIMGAP
 40
0.625
  9
$DIMDSEP
 70
46
  9
$AUNITS
 70
0
  9
$PDMODE
 70
3
  9
$PDSIZE
 40
0.3125
  9
$HANDSEED
  5
2EA
  9
$TILEMODE
 70
1
  9
$MEASUREMENT
 70
1
  9
$INSUNITS
 70
4
  0
ENDSEC
  0
SECTION
  2
CLASSES
  0
CLASS
  1
ACDBDICTIONARYWDFLT
  2
AcDbDictionaryWithDefault
  3
AutoCAD 2000
 90
0
 91
1
280
0
281
0
  0
CLASS
  1
ACDBPLACEHOLDER
  2
AcDbPlaceHolder
  3
AutoCAD 2000
 90
0
 91
1
280
0
281
0
  0
CLASS
  1
LAYOUT
  2
AcDbLayout
  3
AutoCAD 2000
 90
0
 91
0
280
0
281
0
  0
ENDSEC
  0
SECTION
  2
TABLES
  0
TABLE
  2
VPORT
  5
8
100
AcDbSymbolTable
 70
2
  0
VPORT
  5
1F4
100
AcDbSymbolTableRecord
100
AcDbViewportTableRecord
  2
*ACTIVE
 70
0
 10
0.0
 20
0.0
 11
1.0
 21
1.0
 12
19.59132671
 22
27.7077334899
 13
0.0
 23
0.0
 14
1.0
 24
1.0
 15
0.0
 25
0.0
 16
0.0
 26
0.0
 36
1.0
 17
0.0
 27
0.0
 37
0.0
 40
55.4154669798
 41
0.7070707071
 42
50.0
 43
0.0
 44
0.0
 50
0.0
 51
0.0
 71
0
 72
100
 73
1
 74
1
 75
0
 76
0
 77
0
 78
0
  0
ENDTAB
  0
TABLE
  2
LTYPE
  5
5
100
AcDbSymbolTable
 70
6
  0
LTYPE
  5
14
100
AcDbSymbolTableRecord
100
AcDbLinetypeTableRecord
  2
BYBLOCK
 70
0
  3

 72
65
 73
0
 40
0.0
  0
LTYPE
  5
15
100
AcDbSymbolTableRecord
100
AcDbLinetypeTableRecord
  2
BYLAYER
 70
0
  3

 72
65
 73
0
 40
0.0
  0
LTYPE
  5
16
100
AcDbSymbolTableRecord
100
AcDbLinetypeTableRecord
  2
CONTINUOUS
 70
64
  3
Solid line
 72
65
 73
0
 40
0.0
  0
LTYPE
  5
1F5
100
AcDbSymbolTableRecord
100
AcDbLinetypeTableRecord
  2
CENTER
 70
64
  3
____ _ ____ _ ____ _ ____ _ ____ _ ____ _ ____
 72
65
 73
4
 40
0.6
 49
0.375
 74
0
 49
-0.075
 74
0
 49
0.075
 74
0
 49
-0.075
 74
0
  0
LTYPE
  5
1F6
100
AcDbSymbolTableRecord
100
AcDbLinetypeTableRecord
  2
HIDDEN
 70
64
  3
- - - - - - - - - - - - - - - - - - - -
 72
65
 73
2
 40
0.2
 49
0.1
 74
0
 49
-0.1
 74
0
  0
LTYPE
  5
1F7
100
AcDbSymbolTableRecord
100
AcDbLinetypeTableRecord
  2
PHANTOM
 70
64
  3
_____ _ _ _____ _ _ _____ _ _ _____
 72
65
 73
6
 40
0.8
 49
0.45
 74
0
 49
-0.05
 74
0
 49
0.1
 74
0
 49
-0.05
 74
0
 49
0.1
 74
0
 49
-0.05
 74
0
  0
LTYPE
  5
1F8
100
AcDbSymbolTableRecord
100
AcDbLinetypeTableRecord
  2
DOT
 70
64
  3
. . . . . . . . . . . . . . . . . . . .
 72
65
 73
2
 40
0.2
 49
0.1
 74
0
 49
-0.1
 74
0
  0
LTYPE
  5
1F9
100
AcDbSymbolTableRecord
100
AcDbLinetypeTableRecord
  2
DASHED
 70
64
  3
- - - - - - - - - - - - - - - - - - - -
 72
65
 73
2
 40
0.2
 49
0.1
 74
0
 49
-0.1
 74
0
  0
ENDTAB
  0
TABLE
  2
LAYER
  5
2
100
AcDbSymbolTable
 70
36
  0
LAYER
  5
10
100
AcDbSymbolTableRecord
100
AcDbLayerTableRecord
  2
0
 70
0
 62
7
  6
CONTINUOUS
370
-3
390
F
  0
LAYER
  5
1FA
100
AcDbSymbolTableRecord
100
AcDbLayerTableRecord
  2
DEFAULT_1
 70
0
 62
7
  6
CENTER
370
-3
390
F
  0
LAYER
  5
1FB
100
AcDbSymbolTableRecord
100
AcDbLayerTableRecord
  2
DEFAULT_2
 70
0
 62
7
  6
HIDDEN
370
-3
390
F
  0
LAYER
  5
1FC
100
AcDbSymbolTableRecord
100
AcDbLayerTableRecord
  2
DEFAULT_3
 70
0
 62
7
  6
PHANTOM
370
-3
390
F
  0
LAYER
  5
1FD
100
AcDbSymbolTableRecord
100
AcDbLayerTableRecord
  2
00_COMPONENTS
 70
0
 62
7
  6
CONTINUOUS
370
-3
390
F
  0
LAYER
  5
1FE
100
AcDbSymbolTableRecord
100
AcDbLayerTableRecord
  2
01_1_DEFAULT_DATUMS
 70
0
 62
7
  6
CONTINUOUS
370
-3
390
F
  0
LAYER
  5
1FF
100
AcDbSymbolTableRecord
100
AcDbLayerTableRecord
  2
01_PLANES
 70
0
 62
7
  6
CONTINUOUS
370
-3
390
F
  0
LAYER
  5
200
100
AcDbSymbolTableRecord
100
AcDbLayerTableRecord
  2
02_COORD_SYS
 70
0
 62
7
  6
CONTINUOUS
370
-3
390
F
  0
LAYER
  5
201
100
AcDbSymbolTableRecord
100
AcDbLayerTableRecord
  2
03_AXES
 70
0
 62
7
  6
CONTINUOUS
370
-3
390
F
  0
LAYER
  5
202
100
AcDbSymbolTableRecord
100
AcDbLayerTableRecord
  2
04_POINTS
 70
0
 62
7
  6
CONTINUOUS
370
-3
390
F
  0
LAYER
  5
203
100
AcDbSymbolTableRecord
100
AcDbLayerTableRecord
  2
05_CURVES
 70
0
 62
7
  6
CONTINUOUS
370
-3
390
F
  0
LAYER
  5
204
100
AcDbSymbolTableRecord
100
AcDbLayerTableRecord
  2
06_SURFS
 70
0
 62
7
  6
CONTINUOUS
370
-3
390
F
  0
LAYER
  5
205
100
AcDbSymbolTableRecord
100
AcDbLayerTableRecord
  2
07_COSMETICS
 70
0
 62
7
  6
CONTINUOUS
370
-3
390
F
  0
LAYER
  5
206
100
AcDbSymbolTableRecord
100
AcDbLayerTableRecord
  2
10_NOTES
 70
0
 62
7
  6
CONTINUOUS
370
-3
390
F
  0
LAYER
  5
207
100
AcDbSymbolTableRecord
100
AcDbLayerTableRecord
  2
11_NOTES_PUB
 70
0
 62
7
  6
CONTINUOUS
370
-3
390
F
  0
LAYER
  5
208
100
AcDbSymbolTableRecord
100
AcDbLayerTableRecord
  2
13_REF_GTOL
 70
0
 62
7
  6
CONTINUOUS
370
-3
390
F
  0
LAYER
  5
209
100
AcDbSymbolTableRecord
100
AcDbLayerTableRecord
  2
16_MISC
 70
0
 62
7
  6
CONTINUOUS
370
-3
390
F
  0
LAYER
  5
20A
100
AcDbSymbolTableRecord
100
AcDbLayerTableRecord
  2
17_NO_PRINT
 70
0
 62
7
  6
CONTINUOUS
370
-3
390
F
  0
LAYER
  5
20B
100
AcDbSymbolTableRecord
100
AcDbLayerTableRecord
  2
18_DATUM_CAMS_JOINTS
 70
0
 62
7
  6
CONTINUOUS
370
-3
390
F
  0
LAYER
  5
20C
100
AcDbSymbolTableRecord
100
AcDbLayerTableRecord
  2
19_DATUM_FUNCTIONAL
 70
0
 62
7
  6
CONTINUOUS
370
-3
390
F
  0
LAYER
  5
20D
100
AcDbSymbolTableRecord
100
AcDbLayerTableRecord
  2
20_DATUM_KINEMATIC_SCHEME
 70
0
 62
7
  6
CONTINUOUS
370
-3
390
F
  0
ENDTAB
  0
TABLE
  2
STYLE
  5
3
100
AcDbSymbolTable
 70
1
  0
STYLE
  5
11
100
AcDbSymbolTableRecord
100
AcDbTextStyleTableRecord
  2
STANDARD
 70
0
 40
0.0
 41
1.0
 50
0.0
 71
0
 42
0.2
  3
ARIAL.TTF
  4

  0
STYLE
  5
20E
100
AcDbSymbolTableRecord
100
AcDbTextStyleTableRecord
  2
TEXTSTYLE_1
 70
0
 40
0.0
 41
0.8
 50
0.0
 71
0
 42
0.2
  3
gdt
  4

  0
ENDTAB
  0
TABLE
  2
VIEW
  5
6
100
AcDbSymbolTable
 70
0
  0
ENDTAB
  0
TABLE
  2
UCS
  5
7
100
AcDbSymbolTable
 70
0
  0
ENDTAB
  0
TABLE
  2
APPID
  5
9
100
AcDbSymbolTable
 70
1
  0
APPID
  5
20F
100
AcDbSymbolTableRecord
100
AcDbRegAppTableRecord
  2
ACAD
 70
0
  0
ENDTAB
  0
TABLE
  2
BLOCK_RECORD
  5
1
100
AcDbSymbolTable
 70
0
  0
BLOCK_RECORD
  5
210
100
AcDbSymbolTableRecord
100
AcDbBlockTableRecord
  2
*Model_Space
  0
BLOCK_RECORD
  5
211
100
AcDbSymbolTableRecord
100
AcDbBlockTableRecord
  2
*Paper_Space
  0
BLOCK_RECORD
  5
212
100
AcDbSymbolTableRecord
100
AcDbBlockTableRecord
  2
_FILLED
  0
ENDTAB
  0
TABLE
  2
DIMSTYLE
  5
A
100
AcDbSymbolTable
 70
1
100
AcDbDimStyleTable
 71
0
  0
DIMSTYLE
105
213
100
AcDbSymbolTableRecord
100
AcDbDimStyleTableRecord
  2
STANDARD
 70
0
  3

  4

 40
1.0
 41
0.4664601598
 42
1.0
 43
0.38
 44
1.0
 45
0.0
 46
0.0
 47
0.01
 48
0.01
140
0.6530442237
141
0.09
142
0.0
143
25.4
144
1.0
145
0.0
146
1.0
147
0.625
 71
1
 72
0
 73
0
 74
0
 75
0
 76
0
 77
1
 78
8
 79
2
170
0
171
1
172
0
173
0
174
0
175
0
176
0
177
0
178
0
270
2
179
2
271
2
272
2
273
2
274
2
275
0
280
0
281
0
282
0
283
1
284
8
285
0
286
0
287
3
288
0
340
11
278
46
341
212
342
212
343
212
344
212
  0
ENDTAB
  0
ENDSEC
  0
SECTION
  2
BLOCKS
  0
BLOCK
  5
20
100
AcDbEntity
  8
0
100
AcDbBlockBegin
  2
*Model_Space
 70
0
 10
0.0
 20
0.0
 30
0.0
  3
*Model_Space
  1

  0
ENDBLK
  5
21
100
AcDbEntity
  8
0
100
AcDbBlockEnd
  0
BLOCK
  5
1C
100
AcDbEntity
  8
0
100
AcDbBlockBegin
  2
*Paper_Space
 70
0
 10
0.0
 20
0.0
 30
0.0
  3
*Paper_Space
  1

  0
ENDBLK
  5
1D
100
AcDbEntity
  8
0
100
AcDbBlockEnd
  0
BLOCK
  5
214
100
AcDbEntity
  8
0
100
AcDbBlockBegin
  2
_FILLED
 70
64
 10
0.0
 20
0.0
  3
_FILLED
  1

  0
SOLID
  5
215
100
AcDbEntity
  8
0
  6
BYBLOCK
 62
0
100
AcDbTrace
 10
0.0
 20
0.0
 11
-1.0
 21
0.25
 12
-1.0
 22
-0.25
 13
-1.0
 23
-0.25
  0
ENDBLK
  5
216
100
AcDbEntity
  8
0
  6
BYBLOCK
 62
0
100
AcDbBlockEnd
  0
ENDSEC
  0
SECTION
  2
ENTITIES
  0
LINE
  5
217
100
AcDbEntity
  8
0
100
AcDbLine
 62
7
  6
BYLAYER
 10
4.1604592219
 20
23.9433894685
 11
4.1604592219
 21
17.0376828251
  0
LINE
  5
218
100
AcDbEntity
  8
0
100
AcDbLine
 62
7
  6
BYLAYER
 10
4.1604592218
 20
31.7433894679
 11
4.1604592218
 21
38.6490961096
  0
LINE
  5
219
100
AcDbEntity
  8
0
100
AcDbLine
 62
7
  6
BYLAYER
 10
5.9928730531
 20
16.8074687215
 11
5.9928730531
 21
16.8793102142
  0
LINE
  5
21A
100
AcDbEntity
  8
0
100
AcDbLine
 62
7
  6
BYLAYER
 10
5.9928730531
 20
38.8074687215
 11
5.9928730531
 21
38.8793102142
  0
LINE
  5
21B
100
AcDbEntity
  8
0
100
AcDbLine
 62
7
  6
BYLAYER
 10
6.0604592218
 20
32.9433894679
 11
6.0604592218
 21
31.3433894679
  0
LINE
  5
21C
100
AcDbEntity
  8
0
100
AcDbLine
 62
7
  6
BYLAYER
 10
6.0604592218
 20
22.7433894679
 11
6.0604592218
 21
24.3433894679
  0
LINE
  5
21D
100
AcDbEntity
  8
0
100
AcDbLine
 62
7
  6
BYLAYER
 10
7.1745384755
 20
15.6559804343
 11
7.1745384755
 21
16.1408020554
  0
LINE
  5
21E
100
AcDbEntity
  8
0
100
AcDbLine
 62
7
  6
BYLAYER
 10
7.1745384755
 20
17.5459768803
 11
7.1745384755
 21
18.0307985014
  0
LINE
  5
21F
100
AcDbEntity
  8
0
100
AcDbLine
 62
7
  6
BYLAYER
 10
7.1745384755
 20
37.6559804343
 11
7.1745384755
 21
38.1408020554
  0
LINE
  5
220
100
AcDbEntity
  8
0
100
AcDbLine
 62
7
  6
BYLAYER
 10
7.1745384755
 20
39.5459768803
 11
7.1745384755
 21
40.0307985014
  0
LINE
  5
221
100
AcDbEntity
  8
0
100
AcDbLine
 62
7
  6
BYLAYER
 10
7.7463799682
 20
40.0307985014
 11
7.7463799682
 21
39.5459768803
  0
LINE
  5
222
100
AcDbEntity
  8
0
100
AcDbLine
 62
7
  6
BYLAYER
 10
7.7463799682
 20
38.1408020554
 11
7.7463799682
 21
37.6559804343
  0
LINE
  5
223
100
AcDbEntity
  8
0
100
AcDbLine
 62
7
  6
BYLAYER
 10
7.7463799682
 20
18.0307985014
 11
7.7463799682
 21
17.5459768803
  0
LINE
  5
224
100
AcDbEntity
  8
0
100
AcDbLine
 62
7
  6
BYLAYER
 10
7.7463799682
 20
16.1408020554
 11
7.7463799682
 21
15.6559804343
  0
LINE
  5
225
100
AcDbEntity
  8
0
100
AcDbLine
 62
7
  6
BYLAYER
 10
8.2604592218
 20
22.7433894679
 11
8.2604592218
 21
32.9433894679
  0
LINE
  5
226
100
AcDbEntity
  8
0
100
AcDbLine
 62
7
  6
BYLAYER
 10
29.4963799682
 20
15.4059804343
 11
29.4245384755
 21
15.4059804343
  0
LINE
  5
227
100
AcDbEntity
  8
0
100
AcDbLine
 62
7
  6
BYLAYER
 10
7.4963799682
 20
15.4059804343
 11
7.4245384755
 21
15.4059804343
  0
LINE
  5
228
100
AcDbEntity
  8
0
100
AcDbLine
 62
7
  6
BYLAYER
 10
30.6176911201
 20
16.5574687215
 11
30.1630466348
 21
16.5574687215
  0
LINE
  5
229
100
AcDbEntity
  8
0
100
AcDbLine
 62
7
  6
BYLAYER
 10
28.757871809
 20
16.5574687215
 11
28.2428730531
 21
16.5574687215
  0
LINE
  5
22A
100
AcDbEntity
  8
0
100
AcDbLine
 62
7
  6
BYLAYER
 10
8.6176911201
 20
16.5574687215
 11
8.1630466348
 21
16.5574687215
  0
LINE
  5
22B
100
AcDbEntity
  8
0
100
AcDbLine
 62
7
  6
BYLAYER
 10
6.757871809
 20
16.5574687215
 11
6.2428730531
 21
16.5574687215
  0
LINE
  5
22C
100
AcDbEntity
  8
0
100
AcDbLine
 62
7
  6
BYLAYER
 10
8.8676911201
 20
38.8793102142
 11
8.8676911201
 21
38.8074687215
  0
LINE
  5
22D
100
AcDbEntity
  8
0
100
AcDbLine
 62
7
  6
BYLAYER
 10
8.8676911201
 20
16.8793102142
 11
8.8676911201
 21
16.8074687215
  0
LINE
  5
22E
100
AcDbEntity
  8
0
100
AcDbLine
 62
7
  6
BYLAYER
 10
6.2428730531
 20
17.1293102142
 11
6.7578718089
 21
17.1293102142
  0
LINE
  5
22F
100
AcDbEntity
  8
0
100
AcDbLine
 62
7
  6
BYLAYER
 10
8.1630466348
 20
17.1293102142
 11
8.6176911201
 21
17.1293102142
  0
LINE
  5
230
100
AcDbEntity
  8
0
100
AcDbLine
 62
7
  6
BYLAYER
 10
28.2428730531
 20
17.1293102142
 11
28.7578718089
 21
17.1293102142
  0
LINE
  5
231
100
AcDbEntity
  8
0
100
AcDbLine
 62
7
  6
BYLAYER
 10
30.1630466348
 20
17.1293102142
 11
30.6176911201
 21
17.1293102142
  0
LINE
  5
232
100
AcDbEntity
  8
0
100
AcDbLine
 62
7
  6
BYLAYER
 10
10.7104592218
 20
13.9678906531
 11
10.7104592218
 21
16.8433894679
  0
LINE
  5
233
100
AcDbEntity
  8
0
100
AcDbLine
 62
7
  6
BYLAYER
 10
10.7104592218
 20
38.8433894678
 11
10.7104592218
 21
41.7188882826
  0
LINE
  5
234
100
AcDbEntity
  8
0
100
AcDbLine
 62
7
  6
BYLAYER
 10
7.4245384755
 20
18.2807985014
 11
7.4963799682
 21
18.2807985014
  0
LINE
  5
235
100
AcDbEntity
  8
0
100
AcDbLine
 62
7
  6
BYLAYER
 10
29.4245384755
 20
18.2807985014
 11
29.4963799682
 21
18.2807985014
  0
LINE
  5
236
100
AcDbEntity
  8
0
100
AcDbLine
 62
7
  6
BYLAYER
 10
34.4604619861
 20
18.8433894678
 11
34.7884331017
 21
18.8433894678
  0
LINE
  5
237
100
AcDbEntity
  8
0
100
AcDbLine
 62
7
  6
BYLAYER
 10
33.6604619861
 20
20.0933894679
 11
29.4604592218
 21
20.0933894679
  0
LINE
  5
238
100
AcDbEntity
  8
0
100
AcDbLine
 62
7
  6
BYLAYER
 10
7.4604592218
 20
20.0933894679
 11
4.9604592219
 21
20.0933894679
  0
LINE
  5
239
100
AcDbEntity
  8
0
100
AcDbLine
 62
7
  6
BYLAYER
 10
6.4604592218
 20
22.3433894679
 11
7.8604592218
 21
22.3433894679
  0
LINE
  5
23A
100
AcDbEntity
  8
0
100
AcDbLine
 62
7
  6
BYLAYER
 10
4.5604592218
 20
24.3433894679
 11
6.0604592218
 21
24.3433894679
  0
LINE
  5
23B
100
AcDbEntity
  8
0
100
AcDbLine
 62
7
  6
BYLAYER
 10
6.0604592218
 20
31.3433894679
 11
4.5604592218
 21
31.3433894679
  0
LINE
  5
23C
100
AcDbEntity
  8
0
100
AcDbLine
 62
7
  6
BYLAYER
 10
25.4104592218
 20
42.3407186051
 11
25.4104592218
 21
42.3528828454
  0
LINE
  5
23D
100
AcDbEntity
  8
0
100
AcDbLine
 62
7
  6
BYLAYER
 10
7.8604592218
 20
33.3433894678
 11
6.4604592218
 21
33.3433894678
  0
LINE
  5
23E
100
AcDbEntity
  8
0
100
AcDbLine
 62
7
  6
BYLAYER
 10
26.2104592218
 20
41.5407186051
 11
26.2104592218
 21
38.8433894678
  0
LINE
  5
23F
100
AcDbEntity
  8
0
100
AcDbLine
 62
7
  6
BYLAYER
 10
26.2104592218
 20
16.8433894679
 11
26.2104592218
 21
14.1352294558
  0
LINE
  5
240
100
AcDbEntity
  8
0
100
AcDbLine
 62
7
  6
BYLAYER
 10
27.9928730531
 20
16.8074687215
 11
27.9928730531
 21
16.8793102142
  0
LINE
  5
241
100
AcDbEntity
  8
0
100
AcDbLine
 62
7
  6
BYLAYER
 10
27.9928730531
 20
38.8074687215
 11
27.9928730531
 21
38.8793102142
  0
LINE
  5
242
100
AcDbEntity
  8
0
100
AcDbLine
 62
7
  6
BYLAYER
 10
4.9604592218
 20
35.5933894678
 11
7.4604592218
 21
35.5933894678
  0
LINE
  5
243
100
AcDbEntity
  8
0
100
AcDbLine
 62
7
  6
BYLAYER
 10
29.4604592218
 20
35.5933894678
 11
33.660461986
 21
35.5933894678
  0
LINE
  5
244
100
AcDbEntity
  8
0
100
AcDbLine
 62
7
  6
BYLAYER
 10
29.1745384755
 20
15.6559804343
 11
29.1745384755
 21
16.1408020554
  0
LINE
  5
245
100
AcDbEntity
  8
0
100
AcDbLine
 62
7
  6
BYLAYER
 10
29.1745384755
 20
17.5459768803
 11
29.1745384755
 21
18.0307985014
  0
LINE
  5
246
100
AcDbEntity
  8
0
100
AcDbLine
 62
7
  6
BYLAYER
 10
29.1745384755
 20
37.6559804343
 11
29.1745384755
 21
38.1408020554
  0
LINE
  5
247
100
AcDbEntity
  8
0
100
AcDbLine
 62
7
  6
BYLAYER
 10
29.1745384755
 20
39.5459768803
 11
29.1745384755
 21
40.0307985014
  0
LINE
  5
248
100
AcDbEntity
  8
0
100
AcDbLine
 62
7
  6
BYLAYER
 10
29.7463799682
 20
40.0307985014
 11
29.7463799682
 21
39.5459768803
  0
LINE
  5
249
100
AcDbEntity
  8
0
100
AcDbLine
 62
7
  6
BYLAYER
 10
29.7463799682
 20
38.1408020554
 11
29.7463799682
 21
37.6559804343
  0
LINE
  5
24A
100
AcDbEntity
  8
0
100
AcDbLine
 62
7
  6
BYLAYER
 10
29.7463799682
 20
18.0307985014
 11
29.7463799682
 21
17.5459768803
  0
LINE
  5
24B
100
AcDbEntity
  8
0
100
AcDbLine
 62
7
  6
BYLAYER
 10
29.7463799682
 20
16.1408020554
 11
29.7463799682
 21
15.6559804343
  0
LINE
  5
24C
100
AcDbEntity
  8
0
100
AcDbLine
 62
7
  6
BYLAYER
 10
34.7884331017
 20
36.8433894678
 11
34.460461986
 21
36.8433894678
  0
LINE
  5
24D
100
AcDbEntity
  8
0
100
AcDbLine
 62
7
  6
BYLAYER
 10
29.4963799682
 20
37.4059804343
 11
29.4245384755
 21
37.4059804343
  0
LINE
  5
24E
100
AcDbEntity
  8
0
100
AcDbLine
 62
7
  6
BYLAYER
 10
7.4963799682
 20
37.4059804343
 11
7.4245384755
 21
37.4059804343
  0
LINE
  5
24F
100
AcDbEntity
  8
0
100
AcDbLine
 62
7
  6
BYLAYER
 10
30.8676911201
 20
38.8793102142
 11
30.8676911201
 21
38.8074687215
  0
LINE
  5
250
100
AcDbEntity
  8
0
100
AcDbLine
 62
7
  6
BYLAYER
 10
30.8676911201
 20
16.8793102142
 11
30.8676911201
 21
16.8074687215
  0
LINE
  5
251
100
AcDbEntity
  8
0
100
AcDbLine
 62
7
  6
BYLAYER
 10
30.6176911201
 20
38.5574687215
 11
30.1630466348
 21
38.5574687215
  0
LINE
  5
252
100
AcDbEntity
  8
0
100
AcDbLine
 62
7
  6
BYLAYER
 10
28.7578718089
 20
38.5574687215
 11
28.2428730531
 21
38.5574687215
  0
LINE
  5
253
100
AcDbEntity
  8
0
100
AcDbLine
 62
7
  6
BYLAYER
 10
8.6176911201
 20
38.5574687215
 11
8.1630466348
 21
38.5574687215
  0
LINE
  5
254
100
AcDbEntity
  8
0
100
AcDbLine
 62
7
  6
BYLAYER
 10
6.7578718089
 20
38.5574687215
 11
6.2428730531
 21
38.5574687215
  0
LINE
  5
255
100
AcDbEntity
  8
0
100
AcDbLine
 62
7
  6
BYLAYER
 10
6.2428730531
 20
39.1293102142
 11
6.7578718089
 21
39.1293102142
  0
LINE
  5
256
100
AcDbEntity
  8
0
100
AcDbLine
 62
7
  6
BYLAYER
 10
8.1630466348
 20
39.1293102142
 11
8.6176911201
 21
39.1293102142
  0
LINE
  5
257
100
AcDbEntity
  8
0
100
AcDbLine
 62
7
  6
BYLAYER
 10
28.2428730531
 20
39.1293102142
 11
28.7578718089
 21
39.1293102142
  0
LINE
  5
258
100
AcDbEntity
  8
0
100
AcDbLine
 62
7
  6
BYLAYER
 10
30.1630466348
 20
39.1293102142
 11
30.6176911201
 21
39.1293102142
  0
LINE
  5
259
100
AcDbEntity
  8
0
100
AcDbLine
 62
7
  6
BYLAYER
 10
7.4245384755
 20
40.2807985014
 11
7.4963799682
 21
40.2807985014
  0
LINE
  5
25A
100
AcDbEntity
  8
0
100
AcDbLine
 62
7
  6
BYLAYER
 10
29.4245384755
 20
40.2807985014
 11
29.4963799682
 21
40.2807985014
  0
LINE
  5
25B
100
AcDbEntity
  8
0
100
AcDbLine
 62
7
  6
BYLAYER
 10
34.4604619861
 20
18.8204958532
 11
34.4604619861
 21
36.8662830824
  0
LINE
  5
25C
100
AcDbEntity
  8
0
100
AcDbLine
 62
7
  6
BYLAYER
 10
34.7884331017
 20
18.8433894678
 11
34.7884331017
 21
36.8433894678
  0
ARC
  5
25D
100
AcDbEntity
  8
0
100
AcDbCircle
 62
7
  6
BYLAYER
 10
0.3210537832
 20
-145.8070486392
 40
159.3662699196
100
AcDbArc
 50
85.9558254552
 51
86.5362080709
  0
ARC
  5
25E
100
AcDbEntity
  8
0
100
AcDbCircle
 62
7
  6
BYLAYER
 10
5.8688417472
 20
15.9861661031
 40
1.4954290311
100
AcDbArc
 50
205.4566181772
 51
216.1253407596
  0
ARC
  5
25F
100
AcDbEntity
  8
0
100
AcDbCircle
 62
7
  6
BYLAYER
 10
6.2428730531
 20
16.8793102142
 40
0.25
100
AcDbArc
 50
90.0
 51
180.0
  0
ARC
  5
260
100
AcDbEntity
  8
0
100
AcDbCircle
 62
7
  6
BYLAYER
 10
6.2428730531
 20
16.8074687215
 40
0.25
100
AcDbArc
 50
180.0
 51
270.0
  0
ARC
  5
261
100
AcDbEntity
  8
0
100
AcDbCircle
 62
7
  6
BYLAYER
 10
4.9604592219
 20
20.8933894679
 40
0.8
100
AcDbArc
 50
179.9999999926
 51
270.0
  0
ARC
  5
262
100
AcDbEntity
  8
0
100
AcDbCircle
 62
7
  6
BYLAYER
 10
4.5604592218
 20
23.9433894679
 40
0.4
100
AcDbArc
 50
90.0
 51
179.9999999083
  0
ARC
  5
263
100
AcDbEntity
  8
0
100
AcDbCircle
 62
7
  6
BYLAYER
 10
5.6604592218
 20
23.9433894679
 40
0.4
100
AcDbArc
 50
0.0
 51
90.0
  0
ARC
  5
264
100
AcDbEntity
  8
0
100
AcDbCircle
 62
7
  6
BYLAYER
 10
7.8624568392
 20
16.9352195012
 40
3.703415328
100
AcDbArc
 50
178.4145809381
 51
205.4566181836
  0
ARC
  5
265
100
AcDbEntity
  8
0
100
AcDbCircle
 62
7
  6
BYLAYER
 10
7.4666787837
 20
16.8496090297
 40
3.2437864008
100
AcDbArc
 50
359.8901423263
 51
90.1098576847
  0
ARC
  5
266
100
AcDbEntity
  8
0
100
AcDbCircle
 62
7
  6
BYLAYER
 10
7.2188941925
 20
16.9715561858
 40
3.1668461603
100
AcDbArc
 50
216.12534079
 51
243.6256727132
  0
ARC
  5
267
100
AcDbEntity
  8
0
100
AcDbCircle
 62
7
  6
BYLAYER
 10
7.1415101644
 20
16.8487720856
 40
3.0324259401
100
AcDbArc
 50
246.5099897683
 51
249.114776136
  0
CIRCLE
  5
268
100
AcDbEntity
  8
0
100
AcDbCircle
 62
7
  6
BYLAYER
 10
7.4604592218
 20
16.8433894679
 40
2.5
  0
CIRCLE
  5
269
100
AcDbEntity
  8
0
100
AcDbCircle
 62
7
  6
BYLAYER
 10
7.4604592218
 20
16.8433894679
 40
1.6666642202
  0
ARC
  5
26A
100
AcDbEntity
  8
0
100
AcDbCircle
 62
7
  6
BYLAYER
 10
8.1630466348
 20
16.1408020549
 40
0.4166666667
100
AcDbArc
 50
90.0000000071
 51
179.9999999303
  0
ARC
  5
26B
100
AcDbEntity
  8
0
100
AcDbCircle
 62
7
  6
BYLAYER
 10
8.1630466348
 20
17.5459768808
 40
0.4166666667
100
AcDbArc
 50
180.0000000697
 51
270.0000000035
  0
ARC
  5
26C
100
AcDbEntity
  8
0
100
AcDbCircle
 62
7
  6
BYLAYER
 10
6.7578718089
 20
17.5459768808
 40
0.4166666667
100
AcDbArc
 50
269.9999999966
 51
359.9999999304
  0
ARC
  5
26D
100
AcDbEntity
  8
0
100
AcDbCircle
 62
7
  6
BYLAYER
 10
6.7578718089
 20
16.1408020549
 40
0.4166666667
100
AcDbArc
 50
0.0000000697
 51
89.999999993
  0
ARC
  5
26E
100
AcDbEntity
  8
0
100
AcDbCircle
 62
7
  6
BYLAYER
 10
7.4963799682
 20
15.6559804343
 40
0.25
100
AcDbArc
 50
270.0
 51
360.0
  0
ARC
  5
26F
100
AcDbEntity
  8
0
100
AcDbCircle
 62
7
  6
BYLAYER
 10
7.4963799682
 20
18.0307985014
 40
0.25
100
AcDbArc
 50
0.0
 51
90.0
  0
ARC
  5
270
100
AcDbEntity
  8
0
100
AcDbCircle
 62
7
  6
BYLAYER
 10
7.4245384755
 20
18.0307985014
 40
0.25
100
AcDbArc
 50
90.0
 51
180.0000000001
  0
ARC
  5
271
100
AcDbEntity
  8
0
100
AcDbCircle
 62
7
  6
BYLAYER
 10
7.4245384755
 20
15.6559804343
 40
0.25
100
AcDbArc
 50
180.0000000001
 51
270.0
  0
ARC
  5
272
100
AcDbEntity
  8
0
100
AcDbCircle
 62
7
  6
BYLAYER
 10
6.4604592218
 20
22.7433894679
 40
0.4
100
AcDbArc
 50
180.0
 51
270.0
  0
ARC
  5
273
100
AcDbEntity
  8
0
100
AcDbCircle
 62
7
  6
BYLAYER
 10
7.8604592218
 20
22.7433894679
 40
0.4
100
AcDbArc
 50
270.0
 51
360.0
  0
ARC
  5
274
100
AcDbEntity
  8
0
100
AcDbCircle
 62
7
  6
BYLAYER
 10
16.5386775902
 20
-111.7797211463
 40
154.3843896035
100
AcDbArc
 50
86.8392839856
 51
91.847879832
  0
ARC
  5
275
100
AcDbEntity
  8
0
100
AcDbCircle
 62
7
  6
BYLAYER
 10
16.6815154351
 20
-70.884294053
 40
113.5027613846
100
AcDbArc
 50
83.2301558973
 51
83.255319493
  0
ARC
  5
276
100
AcDbEntity
  8
0
100
AcDbCircle
 62
7
  6
BYLAYER
 10
16.6815154351
 20
-70.884294053
 40
113.5027613846
100
AcDbArc
 50
88.3398476414
 51
90.9060206542
  0
ARC
  5
277
100
AcDbEntity
  8
0
100
AcDbCircle
 62
7
  6
BYLAYER
 10
16.6815154351
 20
-70.884294053
 40
113.5027613846
100
AcDbArc
 50
93.4002273726
 51
93.4495393854
  0
ARC
  5
278
100
AcDbEntity
  8
0
100
AcDbCircle
 62
7
  6
BYLAYER
 10
10.423682679
 20
26.2864776703
 40
13.0235351974
100
AcDbArc
 50
250.425878414
 51
261.3817032747
  0
ARC
  5
279
100
AcDbEntity
  8
0
100
AcDbCircle
 62
7
  6
BYLAYER
 10
10.0792669052
 20
22.7402283316
 40
9.6057366222
100
AcDbArc
 50
243.625672716
 51
245.2679130469
  0
ARC
  5
27A
100
AcDbEntity
  8
0
100
AcDbCircle
 62
7
  6
BYLAYER
 10
11.5104592218
 20
13.9678906531
 40
0.8
100
AcDbArc
 50
180.0483314722
 51
266.0901274811
  0
ARC
  5
27B
100
AcDbEntity
  8
0
100
AcDbCircle
 62
7
  6
BYLAYER
 10
9.2059745821
 20
13.2933894678
 40
0.45
100
AcDbArc
 50
19.1926244984
 51
25.987561321
  0
ARC
  5
27C
100
AcDbEntity
  8
0
100
AcDbCircle
 62
7
  6
BYLAYER
 10
9.2104592219
 20
13.2933894679
 40
0.45
100
AcDbArc
 50
26.1014338019
 51
142.9537424291
  0
ARC
  5
27D
100
AcDbEntity
  8
0
100
AcDbCircle
 62
7
  6
BYLAYER
 10
9.9737733042
 20
13.6673568616
 40
0.4
100
AcDbArc
 50
206.1014334374
 51
266.5362080346
  0
ARC
  5
27E
100
AcDbEntity
  8
0
100
AcDbCircle
 62
7
  6
BYLAYER
 10
8.5320322534
 20
13.8054801321
 40
0.3999999999
100
AcDbArc
 50
261.3817032724
 51
322.9537421033
  0
ARC
  5
27F
100
AcDbEntity
  8
0
100
AcDbCircle
 62
7
  6
BYLAYER
 10
8.6176911201
 20
16.8074687215
 40
0.25
100
AcDbArc
 50
270.0
 51
360.0
  0
ARC
  5
280
100
AcDbEntity
  8
0
100
AcDbCircle
 62
7
  6
BYLAYER
 10
8.6176911201
 20
16.8793102142
 40
0.25
100
AcDbArc
 50
0.0
 51
90.0000000001
  0
ARC
  5
281
100
AcDbEntity
  8
0
100
AcDbCircle
 62
7
  6
BYLAYER
 10
8.5999926888
 20
13.6437977226
 40
0.25
100
AcDbArc
 50
261.7917778754
 51
329.9614068138
  0
ARC
  5
282
100
AcDbEntity
  8
0
100
AcDbCircle
 62
7
  6
BYLAYER
 10
9.8670676696
 20
13.5235110218
 40
0.25
100
AcDbArc
 50
199.1926244417
 51
266.5713214622
  0
ARC
  5
283
100
AcDbEntity
  8
0
100
AcDbCircle
 62
7
  6
BYLAYER
 10
4.9604592218
 20
34.7933894678
 40
0.8
100
AcDbArc
 50
90.0
 51
180.0
  0
ARC
  5
284
100
AcDbEntity
  8
0
100
AcDbCircle
 62
7
  6
BYLAYER
 10
4.5604592218
 20
31.7433894679
 40
0.4
100
AcDbArc
 50
180.0
 51
270.0
  0
ARC
  5
285
100
AcDbEntity
  8
0
100
AcDbCircle
 62
7
  6
BYLAYER
 10
5.8688417478
 20
39.7006128324
 40
1.4954290316
100
AcDbArc
 50
143.8746591842
 51
154.5433818767
  0
ARC
  5
286
100
AcDbEntity
  8
0
100
AcDbCircle
 62
7
  6
BYLAYER
 10
6.2428730531
 20
38.8793102142
 40
0.25
100
AcDbArc
 50
90.0
 51
180.0
  0
ARC
  5
287
100
AcDbEntity
  8
0
100
AcDbCircle
 62
7
  6
BYLAYER
 10
6.2428730531
 20
38.8074687215
 40
0.25
100
AcDbArc
 50
180.0
 51
270.0
  0
ARC
  5
288
100
AcDbEntity
  8
0
100
AcDbCircle
 62
7
  6
BYLAYER
 10
7.8604592218
 20
32.9433894679
 40
0.4
100
AcDbArc
 50
0.0
 51
89.9999999967
  0
ARC
  5
289
100
AcDbEntity
  8
0
100
AcDbCircle
 62
7
  6
BYLAYER
 10
6.4604592218
 20
32.9433894679
 40
0.4
100
AcDbArc
 50
90.0000000033
 51
180.0
  0
ARC
  5
28A
100
AcDbEntity
  8
0
100
AcDbCircle
 62
7
  6
BYLAYER
 10
7.8624568392
 20
38.7515594343
 40
3.7034153281
100
AcDbArc
 50
154.5433818338
 51
181.5854190686
  0
ARC
  5
28B
100
AcDbEntity
  8
0
100
AcDbCircle
 62
7
  6
BYLAYER
 10
7.4666787837
 20
38.837169906
 40
3.2437864008
100
AcDbArc
 50
269.8901423146
 51
0.1098576738
  0
ARC
  5
28C
100
AcDbEntity
  8
0
100
AcDbCircle
 62
7
  6
BYLAYER
 10
7.1415101644
 20
38.8380068501
 40
3.0324259401
100
AcDbArc
 50
110.8852238643
 51
144.8865859738
  0
CIRCLE
  5
28D
100
AcDbEntity
  8
0
100
AcDbCircle
 62
7
  6
BYLAYER
 10
7.4604592218
 20
38.8433894678
 40
2.5
  0
CIRCLE
  5
28E
100
AcDbEntity
  8
0
100
AcDbCircle
 62
7
  6
BYLAYER
 10
7.4604592218
 20
38.8433894678
 40
1.6666642202
  0
ARC
  5
28F
100
AcDbEntity
  8
0
100
AcDbCircle
 62
7
  6
BYLAYER
 10
8.1630466348
 20
38.1408020549
 40
0.4166666667
100
AcDbArc
 50
90.0000000008
 51
179.9999999303
  0
ARC
  5
290
100
AcDbEntity
  8
0
100
AcDbCircle
 62
7
  6
BYLAYER
 10
8.1630466348
 20
39.5459768808
 40
0.4166666667
100
AcDbArc
 50
180.0000000697
 51
270.0000000003
  0
ARC
  5
291
100
AcDbEntity
  8
0
100
AcDbCircle
 62
7
  6
BYLAYER
 10
6.7578718089
 20
39.5459768808
 40
0.4166666667
100
AcDbArc
 50
269.9999999997
 51
359.9999999304
  0
ARC
  5
292
100
AcDbEntity
  8
0
100
AcDbCircle
 62
7
  6
BYLAYER
 10
6.7578718089
 20
38.1408020549
 40
0.4166666667
100
AcDbArc
 50
0.0000000697
 51
89.9999999993
  0
ARC
  5
293
100
AcDbEntity
  8
0
100
AcDbCircle
 62
7
  6
BYLAYER
 10
7.4963799682
 20
37.6559804343
 40
0.25
100
AcDbArc
 50
270.0
 51
360.0
  0
ARC
  5
294
100
AcDbEntity
  8
0
100
AcDbCircle
 62
7
  6
BYLAYER
 10
7.4963799682
 20
40.0307985014
 40
0.25
100
AcDbArc
 50
0.0
 51
90.0
  0
ARC
  5
295
100
AcDbEntity
  8
0
100
AcDbCircle
 62
7
  6
BYLAYER
 10
7.4245384755
 20
40.0307985014
 40
0.25
100
AcDbArc
 50
90.0
 51
180.0000000001
  0
ARC
  5
296
100
AcDbEntity
  8
0
100
AcDbCircle
 62
7
  6
BYLAYER
 10
7.4245384755
 20
37.6559804343
 40
0.25
100
AcDbArc
 50
179.9999999998
 51
270.0
  0
ARC
  5
297
100
AcDbEntity
  8
0
100
AcDbCircle
 62
7
  6
BYLAYER
 10
0.3210537832
 20
201.493827575
 40
159.3662699196
100
AcDbArc
 50
273.4637919293
 51
274.0441561834
  0
ARC
  5
298
100
AcDbEntity
  8
0
100
AcDbCircle
 62
7
  6
BYLAYER
 10
10.423682679
 20
29.4003012654
 40
13.0235351974
100
AcDbArc
 50
98.6182967248
 51
109.5741215858
  0
ARC
  5
299
100
AcDbEntity
  8
0
100
AcDbCircle
 62
7
  6
BYLAYER
 10
11.5104592218
 20
41.7188882826
 40
0.8
100
AcDbArc
 50
94.0003745507
 51
179.9516756554
  0
ARC
  5
29A
100
AcDbEntity
  8
0
100
AcDbCircle
 62
7
  6
BYLAYER
 10
9.2051233302
 20
42.4023563769
 40
0.4538256481
100
AcDbArc
 50
253.9329447489
 51
339.7734943764
  0
ARC
  5
29B
100
AcDbEntity
  8
0
100
AcDbCircle
 62
7
  6
BYLAYER
 10
9.2104592219
 20
42.3933894678
 40
0.45
100
AcDbArc
 50
217.0462575498
 51
333.898566222
  0
ARC
  5
29C
100
AcDbEntity
  8
0
100
AcDbCircle
 62
7
  6
BYLAYER
 10
9.9737733042
 20
42.0194220741
 40
0.4
100
AcDbArc
 50
93.4637918884
 51
153.8985665356
  0
ARC
  5
29D
100
AcDbEntity
  8
0
100
AcDbCircle
 62
7
  6
BYLAYER
 10
8.5320322534
 20
41.8812988036
 40
0.3999999999
100
AcDbArc
 50
37.0462579198
 51
98.6182967142
  0
ARC
  5
29E
100
AcDbEntity
  8
0
100
AcDbCircle
 62
7
  6
BYLAYER
 10
8.6176911201
 20
38.8074687215
 40
0.25
100
AcDbArc
 50
270.0
 51
360.0
  0
ARC
  5
29F
100
AcDbEntity
  8
0
100
AcDbCircle
 62
7
  6
BYLAYER
 10
8.6176911201
 20
38.8793102142
 40
0.25
100
AcDbArc
 50
0.0
 51
90.0000000001
  0
ARC
  5
2A0
100
AcDbEntity
  8
0
100
AcDbCircle
 62
7
  6
BYLAYER
 10
9.8670676695
 20
42.1632679138
 40
0.2499999999
100
AcDbArc
 50
93.4286784781
 51
160.8073754858
  0
ARC
  5
2A1
100
AcDbEntity
  8
0
100
AcDbCircle
 62
7
  6
BYLAYER
 10
8.5999926888
 20
42.0429812131
 40
0.25
100
AcDbArc
 50
30.0385930465
 51
98.2082221286
  0
ARC
  5
2A2
100
AcDbEntity
  8
0
100
AcDbCircle
 62
7
  6
BYLAYER
 10
16.5229600141
 20
168.8383331877
 40
155.7550140346
100
AcDbArc
 50
268.1741904203
 51
273.1423446881
  0
ARC
  5
2A3
100
AcDbEntity
  8
0
100
AcDbCircle
 62
7
  6
BYLAYER
 10
16.6815154345
 20
126.5710729887
 40
113.5027613846
100
AcDbArc
 50
266.5504606148
 51
266.5997726275
  0
ARC
  5
2A4
100
AcDbEntity
  8
0
100
AcDbCircle
 62
7
  6
BYLAYER
 10
16.6815154345
 20
126.5710729887
 40
113.5027613846
100
AcDbArc
 50
268.2761711487
 51
271.8343180648
  0
ARC
  5
2A5
100
AcDbEntity
  8
0
100
AcDbCircle
 62
7
  6
BYLAYER
 10
16.6815154345
 20
126.5710729887
 40
113.5027613846
100
AcDbArc
 50
276.7446805073
 51
276.7698441031
  0
ARC
  5
2A6
100
AcDbEntity
  8
0
100
AcDbCircle
 62
7
  6
BYLAYER
 10
23.3784525474
 20
3.0445949514
 40
39.3607742338
100
AcDbArc
 50
81.4953200026
 51
87.5646724112
  0
ARC
  5
2A7
100
AcDbEntity
  8
0
100
AcDbCircle
 62
7
  6
BYLAYER
 10
25.9506868457
 20
20.0573210981
 40
22.1544715022
100
AcDbArc
 50
79.5519643465
 51
79.993512016
  0
ARC
  5
2A8
100
AcDbEntity
  8
0
100
AcDbCircle
 62
7
  6
BYLAYER
 10
27.7103696778
 20
24.7582973902
 40
11.1440130006
100
AcDbArc
 50
277.6793081385
 51
280.8088537608
  0
ARC
  5
2A9
100
AcDbEntity
  8
0
100
AcDbCircle
 62
7
  6
BYLAYER
 10
25.4104592218
 20
14.1352294558
 40
0.8
100
AcDbArc
 50
273.0366433613
 51
360.0
  0
ARC
  5
2AA
100
AcDbEntity
  8
0
100
AcDbCircle
 62
7
  6
BYLAYER
 10
28.7578718089
 20
17.5459768808
 40
0.4166666667
100
AcDbArc
 50
269.9999999966
 51
359.9999999303
  0
ARC
  5
2AB
100
AcDbEntity
  8
0
100
AcDbCircle
 62
7
  6
BYLAYER
 10
28.7578718089
 20
16.1408020549
 40
0.4166666667
100
AcDbArc
 50
0.0000000697
 51
89.999999993
  0
ARC
  5
2AC
100
AcDbEntity
  8
0
100
AcDbCircle
 62
7
  6
BYLAYER
 10
28.2428730531
 20
16.8793102142
 40
0.25
100
AcDbArc
 50
90.0
 51
180.0
  0
ARC
  5
2AD
100
AcDbEntity
  8
0
100
AcDbCircle
 62
7
  6
BYLAYER
 10
28.2428730531
 20
16.8074687215
 40
0.25
100
AcDbArc
 50
180.0
 51
270.0
  0
ARC
  5
2AE
100
AcDbEntity
  8
0
100
AcDbCircle
 62
7
  6
BYLAYER
 10
29.8957229529
 20
14.235680227
 40
0.4
100
AcDbArc
 50
280.448035673
 51
343.4382852675
  0
ARC
  5
2AF
100
AcDbEntity
  8
0
100
AcDbCircle
 62
7
  6
BYLAYER
 10
29.4963799682
 20
15.6559804343
 40
0.25
100
AcDbArc
 50
270.0
 51
360.0
  0
ARC
  5
2B0
100
AcDbEntity
  8
0
100
AcDbCircle
 62
7
  6
BYLAYER
 10
29.4245384755
 20
15.6559804343
 40
0.25
100
AcDbArc
 50
180.0
 51
270.0
  0
ARC
  5
2B1
100
AcDbEntity
  8
0
100
AcDbCircle
 62
7
  6
BYLAYER
 10
30.0149857955
 20
14.1053470351
 40
0.25
100
AcDbArc
 50
280.6929986616
 51
350.7966221716
  0
ARC
  5
2B2
100
AcDbEntity
  8
0
100
AcDbCircle
 62
7
  6
BYLAYER
 10
29.4604592218
 20
16.8433894679
 40
3.25
100
AcDbArc
 50
90.0
 51
180.0
  0
CIRCLE
  5
2B3
100
AcDbEntity
  8
0
100
AcDbCircle
 62
7
  6
BYLAYER
 10
29.4604592218
 20
16.8433894679
 40
2.5
  0
CIRCLE
  5
2B4
100
AcDbEntity
  8
0
100
AcDbCircle
 62
7
  6
BYLAYER
 10
29.4604592218
 20
16.8433894679
 40
1.6666642202
  0
ARC
  5
2B5
100
AcDbEntity
  8
0
100
AcDbCircle
 62
7
  6
BYLAYER
 10
30.1630466348
 20
16.1408020549
 40
0.4166666667
100
AcDbArc
 50
90.0000000071
 51
179.9999999304
  0
ARC
  5
2B6
100
AcDbEntity
  8
0
100
AcDbCircle
 62
7
  6
BYLAYER
 10
30.1630466348
 20
17.5459768808
 40
0.4166666667
100
AcDbArc
 50
180.0000000697
 51
270.0000000035
  0
ARC
  5
2B7
100
AcDbEntity
  8
0
100
AcDbCircle
 62
7
  6
BYLAYER
 10
29.4963799682
 20
18.0307985014
 40
0.25
100
AcDbArc
 50
0.0
 51
90.0
  0
ARC
  5
2B8
100
AcDbEntity
  8
0
100
AcDbCircle
 62
7
  6
BYLAYER
 10
29.4245384755
 20
18.0307985014
 40
0.25
100
AcDbArc
 50
90.0
 51
180.0000000001
  0
ARC
  5
2B9
100
AcDbEntity
  8
0
100
AcDbCircle
 62
7
  6
BYLAYER
 10
30.7106785104
 20
13.9923780686
 40
0.4504994012
100
AcDbArc
 50
41.1437578851
 51
163.3229386875
  0
ARC
  5
2BA
100
AcDbEntity
  8
0
100
AcDbCircle
 62
7
  6
BYLAYER
 10
30.7059745821
 20
13.9933894678
 40
0.45
100
AcDbArc
 50
33.9947364458
 51
40.812666088
  0
ARC
  5
2BB
100
AcDbEntity
  8
0
100
AcDbCircle
 62
7
  6
BYLAYER
 10
31.3498607669
 20
14.5467686836
 40
0.3956173613
100
AcDbArc
 50
220.7005405418
 51
275.9251464436
  0
ARC
  5
2BC
100
AcDbEntity
  8
0
100
AcDbCircle
 62
7
  6
BYLAYER
 10
31.2863368403
 20
14.3847711859
 40
0.25
100
AcDbArc
 50
213.9947363735
 51
284.098360021
  0
ARC
  5
2BD
100
AcDbEntity
  8
0
100
AcDbCircle
 62
7
  6
BYLAYER
 10
31.5414613076
 20
17.9275949302
 40
3.612318002
100
AcDbArc
 50
333.9881849876
 51
358.7009249976
  0
ARC
  5
2BE
100
AcDbEntity
  8
0
100
AcDbCircle
 62
7
  6
BYLAYER
 10
30.6176911201
 20
16.8074687215
 40
0.25
100
AcDbArc
 50
270.0
 51
360.0
  0
ARC
  5
2BF
100
AcDbEntity
  8
0
100
AcDbCircle
 62
7
  6
BYLAYER
 10
30.6176911201
 20
16.8793102142
 40
0.25
100
AcDbArc
 50
0.0
 51
90.0000000001
  0
ARC
  5
2C0
100
AcDbEntity
  8
0
100
AcDbCircle
 62
7
  6
BYLAYER
 10
29.3994930281
 20
22.2030671014
 40
8.2924195014
100
AcDbArc
 50
283.8938449538
 51
294.7802317428
  0
ARC
  5
2C1
100
AcDbEntity
  8
0
100
AcDbCircle
 62
7
  6
BYLAYER
 10
30.1167086576
 20
20.1388623214
 40
6.1215140433
100
AcDbArc
 50
281.5964042993
 51
294.946404884
  0
ARC
  5
2C2
100
AcDbEntity
  8
0
100
AcDbCircle
 62
7
  6
BYLAYER
 10
30.4258340846
 20
19.8914332318
 40
5.7635756419
100
AcDbArc
 50
295.1486263522
 51
307.8984148003
  0
ARC
  5
2C3
100
AcDbEntity
  8
0
100
AcDbCircle
 62
7
  6
BYLAYER
 10
32.0419544943
 20
17.8016080992
 40
3.1194569564
100
AcDbArc
 50
325.3432449954
 51
0.8046826968
  0
ARC
  5
2C4
100
AcDbEntity
  8
0
100
AcDbCircle
 62
7
  6
BYLAYER
 10
32.1569819614
 20
17.6675489342
 40
2.9453254153
100
AcDbArc
 50
307.8984148049
 51
333.2832581775
  0
ARC
  5
2C5
100
AcDbEntity
  8
0
100
AcDbCircle
 62
7
  6
BYLAYER
 10
34.2579963466
 20
17.9433894679
 40
0.9001710651
100
AcDbArc
 50
353.7697666441
 51
77.0018807191
  0
ARC
  5
2C6
100
AcDbEntity
  8
0
100
AcDbCircle
 62
7
  6
BYLAYER
 10
33.6604619861
 20
20.8933894679
 40
0.8
100
AcDbArc
 50
270.0
 51
359.9999999971
  0
ARC
  5
2C7
100
AcDbEntity
  8
0
100
AcDbCircle
 62
7
  6
BYLAYER
 10
25.9506868457
 20
35.6294578376
 40
22.1544715022
100
AcDbArc
 50
280.0064879832
 51
280.4480356537
  0
ARC
  5
2C8
100
AcDbEntity
  8
0
100
AcDbCircle
 62
7
  6
BYLAYER
 10
27.7103696778
 20
30.9284815455
 40
11.1440130006
100
AcDbArc
 50
79.1911462376
 51
82.3206917775
  0
ARC
  5
2C9
100
AcDbEntity
  8
0
100
AcDbCircle
 62
7
  6
BYLAYER
 10
25.4104592218
 20
41.5407186051
 40
0.8
100
AcDbArc
 50
0.0
 51
90.0
  0
ARC
  5
2CA
100
AcDbEntity
  8
0
100
AcDbCircle
 62
7
  6
BYLAYER
 10
28.7578718089
 20
39.5459768808
 40
0.4166666667
100
AcDbArc
 50
269.9999999997
 51
359.9999999303
  0
ARC
  5
2CB
100
AcDbEntity
  8
0
100
AcDbCircle
 62
7
  6
BYLAYER
 10
28.7578718089
 20
38.1408020549
 40
0.4166666667
100
AcDbArc
 50
0.0000000697
 51
89.9999999993
  0
ARC
  5
2CC
100
AcDbEntity
  8
0
100
AcDbCircle
 62
7
  6
BYLAYER
 10
28.2428730531
 20
38.8793102142
 40
0.25
100
AcDbArc
 50
90.0
 51
180.0
  0
ARC
  5
2CD
100
AcDbEntity
  8
0
100
AcDbCircle
 62
7
  6
BYLAYER
 10
28.2428730531
 20
38.8074687215
 40
0.25
100
AcDbArc
 50
180.0
 51
270.0
  0
ARC
  5
2CE
100
AcDbEntity
  8
0
100
AcDbCircle
 62
7
  6
BYLAYER
 10
23.3529392349
 20
52.9204265988
 40
39.6397335975
100
AcDbArc
 50
272.4695408029
 51
278.4816739271
  0
ARC
  5
2CF
100
AcDbEntity
  8
0
100
AcDbCircle
 62
7
  6
BYLAYER
 10
29.3994930281
 20
33.4837118343
 40
8.2924195014
100
AcDbArc
 50
65.219768257
 51
76.1061550462
  0
ARC
  5
2D0
100
AcDbEntity
  8
0
100
AcDbCircle
 62
7
  6
BYLAYER
 10
30.1167086576
 20
35.5479166143
 40
6.1215140433
100
AcDbArc
 50
65.0535951213
 51
78.4035957008
  0
ARC
  5
2D1
100
AcDbEntity
  8
0
100
AcDbCircle
 62
7
  6
BYLAYER
 10
30.4258340846
 20
35.7953457039
 40
5.7635756419
100
AcDbArc
 50
52.1015852005
 51
64.8513736476
  0
ARC
  5
2D2
100
AcDbEntity
  8
0
100
AcDbCircle
 62
7
  6
BYLAYER
 10
29.4604592218
 20
38.8433894678
 40
3.25
100
AcDbArc
 50
180.0
 51
270.0
  0
CIRCLE
  5
2D3
100
AcDbEntity
  8
0
100
AcDbCircle
 62
7
  6
BYLAYER
 10
29.4604592218
 20
38.8433894678
 40
2.5
  0
CIRCLE
  5
2D4
100
AcDbEntity
  8
0
100
AcDbCircle
 62
7
  6
BYLAYER
 10
29.4604592218
 20
38.8433894678
 40
1.6666642202
  0
ARC
  5
2D5
100
AcDbEntity
  8
0
100
AcDbCircle
 62
7
  6
BYLAYER
 10
30.1630466348
 20
38.1408020549
 40
0.4166666667
100
AcDbArc
 50
90.0000000008
 51
179.9999999304
  0
ARC
  5
2D6
100
AcDbEntity
  8
0
100
AcDbCircle
 62
7
  6
BYLAYER
 10
30.1630466348
 20
39.5459768808
 40
0.4166666667
100
AcDbArc
 50
180.0000000697
 51
270.0000000003
  0
ARC
  5
2D7
100
AcDbEntity
  8
0
100
AcDbCircle
 62
7
  6
BYLAYER
 10
29.4963799682
 20
37.6559804343
 40
0.25
100
AcDbArc
 50
270.0
 51
360.0
  0
ARC
  5
2D8
100
AcDbEntity
  8
0
100
AcDbCircle
 62
7
  6
BYLAYER
 10
29.4245384755
 20
37.6559804343
 40
0.25
100
AcDbArc
 50
179.9999999998
 51
270.0
  0
ARC
  5
2D9
100
AcDbEntity
  8
0
100
AcDbCircle
 62
7
  6
BYLAYER
 10
29.8957229529
 20
41.4510987087
 40
0.4
100
AcDbArc
 50
16.5617147463
 51
79.5519643384
  0
ARC
  5
2DA
100
AcDbEntity
  8
0
100
AcDbCircle
 62
7
  6
BYLAYER
 10
29.4963799682
 20
40.0307985014
 40
0.25
100
AcDbArc
 50
0.0
 51
90.0
  0
ARC
  5
2DB
100
AcDbEntity
  8
0
100
AcDbCircle
 62
7
  6
BYLAYER
 10
29.4245384755
 20
40.0307985014
 40
0.25
100
AcDbArc
 50
90.0
 51
180.0000000001
  0
ARC
  5
2DC
100
AcDbEntity
  8
0
100
AcDbCircle
 62
7
  6
BYLAYER
 10
30.0149857955
 20
41.5814319006
 40
0.25
100
AcDbArc
 50
9.2033778166
 51
79.3070013767
  0
ARC
  5
2DD
100
AcDbEntity
  8
0
100
AcDbCircle
 62
7
  6
BYLAYER
 10
31.5414613076
 20
37.7591840055
 40
3.612318002
100
AcDbArc
 50
1.2990749963
 51
26.0118150119
  0
ARC
  5
2DE
100
AcDbEntity
  8
0
100
AcDbCircle
 62
7
  6
BYLAYER
 10
30.6176911201
 20
38.8074687215
 40
0.25
100
AcDbArc
 50
270.0
 51
360.0
  0
ARC
  5
2DF
100
AcDbEntity
  8
0
100
AcDbCircle
 62
7
  6
BYLAYER
 10
30.6176911201
 20
38.8793102142
 40
0.25
100
AcDbArc
 50
0.0
 51
90.0000000001
  0
ARC
  5
2E0
100
AcDbEntity
  8
0
100
AcDbCircle
 62
7
  6
BYLAYER
 10
30.7106785104
 20
41.6944008671
 40
0.4504994012
100
AcDbArc
 50
196.6770613013
 51
318.8562420322
  0
ARC
  5
2E1
100
AcDbEntity
  8
0
100
AcDbCircle
 62
7
  6
BYLAYER
 10
30.7059745821
 20
41.6933894678
 40
0.45
100
AcDbArc
 50
319.1878149136
 51
326.0052635627
  0
ARC
  5
2E2
100
AcDbEntity
  8
0
100
AcDbCircle
 62
7
  6
BYLAYER
 10
31.3484676545
 20
41.1435132744
 40
0.3922807547
100
AcDbArc
 50
83.8196477923
 51
139.5546653036
  0
ARC
  5
2E3
100
AcDbEntity
  8
0
100
AcDbCircle
 62
7
  6
BYLAYER
 10
31.2863368403
 20
41.3020077498
 40
0.25
100
AcDbArc
 50
75.9016399844
 51
146.0052636137
  0
ARC
  5
2E4
100
AcDbEntity
  8
0
100
AcDbCircle
 62
7
  6
BYLAYER
 10
33.660461986
 20
34.7933894678
 40
0.8
100
AcDbArc
 50
0.0
 51
90.0
  0
ARC
  5
2E5
100
AcDbEntity
  8
0
100
AcDbCircle
 62
7
  6
BYLAYER
 10
32.0419544943
 20
37.8851708365
 40
3.1194569564
100
AcDbArc
 50
359.195317296
 51
34.6567550038
  0
ARC
  5
2E6
100
AcDbEntity
  8
0
100
AcDbCircle
 62
7
  6
BYLAYER
 10
32.1569819614
 20
38.0192300015
 40
2.9453254153
100
AcDbArc
 50
26.7167418219
 51
52.1015851966
  0
ARC
  5
2E7
100
AcDbEntity
  8
0
100
AcDbCircle
 62
7
  6
BYLAYER
 10
34.2579963466
 20
37.7433894679
 40
0.9001710651
100
AcDbArc
 50
282.9981192735
 51
6.2302333302
  0
ENDSEC
  0
SECTION
  2
OBJECTS
  0
DICTIONARY
  5
C
100
AcDbDictionary
280
0
281
1
  3
ACAD_GROUP
350
D
  3
ACAD_MLINESTYLE
350
17
  3
ACAD_LAYOUT
350
1A
  3
ACAD_PLOTSETTINGS
350
19
  3
ACAD_PLOTSTYLENAME
350
E
  0
DICTIONARY
  5
D
102
{ACAD_REACTORS
330
C
102
}
100
AcDbDictionary
280
0
281
1
  0
ACDBDICTIONARYWDFLT
  5
E
102
{ACAD_REACTORS
330
C
102
}
100
AcDbDictionary
281
1
  3
Normal
350
F
100
AcDbDictionaryWithDefault
340
F
  0
DICTIONARY
  5
17
102
{ACAD_REACTORS
330
C
102
}
100
AcDbDictionary
280
0
281
1
  3
Standard
350
18
  0
DICTIONARY
  5
19
102
{ACAD_REACTORS
330
C
102
}
100
AcDbDictionary
281
1
  0
DICTIONARY
  5
1A
102
{ACAD_REACTORS
330
C
102
}
100
AcDbDictionary
281
1
  3
Model
350
2E8
  3
Layout1
350
2E9
  0
ACDBPLACEHOLDER
  5
F
102
{ACAD_REACTORS
330
E
102
}
  0
MLINESTYLE
  5
18
102
{ACAD_REACTORS
330
17
102
}
100
AcDbMlineStyle
  2
STANDARD
 70
0
  3

 62
256
 51
90.0
 52
90.0
 71
2
 49
0.5
 62
256
  6
BYLAYER
 49
-0.5
 62
256
  6
BYLAYER
  0
LAYOUT
  5
2E8
102
{ACAD_REACTORS
330
1A
102
}
100
AcDbPlotSettings
  1

  2
none_device
  4

  6

 40
0.0
 41
0.0
 42
0.0
 43
0.0
 44
210.0
 45
297.0
 46
0.0
 47
0.0
 48
0.0
 49
0.0
140
0.0
141
0.0
142
1.0
143
1.0
 70
1024
 72
1
 73
0
 74
0
  7

 75
0
147
1.0
148
0.0
149
0.0
100
AcDbLayout
  1
Model
 70
0
 71
0
 10
0.0
 20
0.0
 11
210.0
 21
297.0
 12
0.0
 22
0.0
 32
0.0
 14
0.0
 24
0.0
 34
0.0
 15
0.0
 25
0.0
 35
0.0
146
0.0
 13
0.0
 23
0.0
 33
0.0
 16
1.0
 26
0.0
 36
0.0
 17
0.0
 27
1.0
 37
0.0
 76
0
330
210
345
0
346
0
  0
LAYOUT
  5
2E9
102
{ACAD_REACTORS
330
1A
102
}
100
AcDbPlotSettings
  1

  2
none_device
  4

  6

 40
0.0
 41
0.0
 42
0.0
 43
0.0
 44
210.0
 45
297.0
 46
0.0
 47
0.0
 48
0.0
 49
0.0
140
0.0
141
0.0
142
1.0
143
1.0
 70
0
 72
1
 73
0
 74
0
  7

 75
0
147
1.0
148
0.0
149
0.0
100
AcDbLayout
  1
Layout1
 70
0
 71
1
 10
0.0
 20
0.0
 11
210.0
 21
297.0
 12
0.0
 22
0.0
 32
0.0
 14
0.0
 24
0.0
 34
0.0
 15
0.0
 25
0.0
 35
0.0
146
0.0
 13
0.0
 23
0.0
 33
0.0
 16
1.0
 26
0.0
 36
0.0
 17
0.0
 27
1.0
 37
0.0
 76
0
330
211
345
0
346
0
  0
ENDSEC
  0
EOF
