  0
SECTION
  2
HEADER
  9
$ACADVER
  1
AC1009
  9
$DWGCODEPAGE
  3
ansi_1250
  9
$INSBASE
 10
0.0
 20
0.0
 30
0.0
  9
$EXTMIN
 10
-5.506
 20
-2.6965
 30
0.0
  9
$EXTMAX
 10
0.0
 20
2.9325
 30
0.0
  9
$LIMMIN
 10
0.0
 20
0.0
  9
$LIMMAX
 10
0.0
 20
0.0
  9
$ORTHOMODE
 70
     0
  9
$REGENMODE
 70
     1
  9
$FILLMODE
 70
     1
  9
$QTEXTMODE
 70
     0
  9
$MIRRTEXT
 70
     1
  9
$DRAGMODE
 70
     2
  9
$LTSCALE
 40
1.0
  9
$OSMODE
 70
     0
  9
$ATTMODE
 70
     1
  9
$TEXTSIZE
 40
0.2
  9
$TRACEWID
 40
0.05
  9
$TEXTSTYLE
  7
STANDARD
  9
$CLAYER
  8
0
  9
$CELTYPE
  6
CONTINUOUS
  9
$CECOLOR
 62
   256
  9
$DIMSCALE
 40
1.0
  9
$DIMASZ
 40
0.18
  9
$DIMEXO
 40
0.0625
  9
$DIMDLI
 40
0.38
  9
$DIMRND
 40
0.0
  9
$DIMDLE
 40
0.0
  9
$DIMEXE
 40
0.18
  9
$DIMTP
 40
0.0
  9
$DIMTM
 40
0.0
  9
$DIMTXT
 40
0.18
  9
$DIMCEN
 40
0.09
  9
$DIMTSZ
 40
0.0
  9
$DIMTOL
 70
     0
  9
$DIMLIM
 70
     0
  9
$DIMTIH
 70
     1
  9
$DIMTOH
 70
     1
  9
$DIMSE1
 70
     0
  9
$DIMSE2
 70
     0
  9
$DIMTAD
 70
     0
  9
$DIMZIN
 70
     0
  9
$DIMBLK
  1

  9
$DIMASO
 70
     1
  9
$DIMSHO
 70
     1
  9
$DIMPOST
  1

  9
$DIMAPOST
  1

  9
$DIMALT
 70
     0
  9
$DIMALTD
 70
     2
  9
$DIMALTF
 40
25.4
  9
$DIMLFAC
 40
1.0
  9
$DIMTOFL
 70
     0
  9
$DIMTVP
 40
0.0
  9
$DIMTIX
 70
     0
  9
$DIMSOXD
 70
     0
  9
$DIMSAH
 70
     0
  9
$DIMBLK1
  1

  9
$DIMBLK2
  1

  9
$DIMSTYLE
  2
STANDARD
  9
$DIMCLRD
 70
     0
  9
$DIMCLRE
 70
     0
  9
$DIMCLRT
 70
     0
  9
$DIMTFAC
 40
1.0
  9
$DIMGAP
 40
0.09
  9
$LUNITS
 70
     2
  9
$LUPREC
 70
     4
  9
$AXISMODE
 70
     0
  9
$AXISUNIT
 10
0.0
 20
0.0
  9
$SKETCHINC
 40
0.1
  9
$FILLETRAD
 40
0.0
  9
$AUNITS
 70
     0
  9
$AUPREC
 70
     0
  9
$MENU
  1
acad
  9
$ELEVATION
 40
0.0
  9
$PELEVATION
 40
0.0
  9
$THICKNESS
 40
0.0
  9
$LIMCHECK
 70
     0
  9
$BLIPMODE
 70
     1
  9
$CHAMFERA
 40
0.0
  9
$CHAMFERB
 40
0.0
  9
$SKPOLY
 70
     0
  9
$TDCREATE
 40
0.000000000
  9
$TDUPDATE
 40
0.000000000
  9
$TDINDWG
 40
0.0000000000
  9
$TDUSRTIMER
 40
0.0000000000
  9
$USRTIMER
 70
     1
  9
$ANGBASE
 50
0.0
  9
$ANGDIR
 70
     0
  9
$PDMODE
 70
     0
  9
$PDSIZE
 40
0.0
  9
$PLINEWID
 40
0.0
  9
$COORDS
 70
     0
  9
$SPLFRAME
 70
     0
  9
$SPLINETYPE
 70
     6
  9
$SPLINESEGS
 70
     8
  9
$ATTDIA
 70
     0
  9
$ATTREQ
 70
     1
  9
$HANDLING
 70
     1
  9
$HANDSEED
  5
500
  9
$SURFTAB1
 70
     6
  9
$SURFTAB2
 70
     6
  9
$SURFTYPE
 70
     6
  9
$SURFU
 70
     6
  9
$SURFV
 70
     6
  9
$UCSNAME
  2

  9
$UCSORG
 10
0.0
 20
0.0
 30
0.0
  9
$UCSXDIR
 10
1.0
 20
0.0
 30
0.0
  9
$UCSYDIR
 10
0.0
 20
1.0
 30
0.0
  9
$PUCSNAME
  2

  9
$PUCSORG
 10
0.0
 20
0.0
 30
0.0
  9
$PUCSXDIR
 10
1.0
 20
0.0
 30
0.0
  9
$PUCSYDIR
 10
0.0
 20
1.0
 30
0.0
  9
$USERI1
 70
     0
  9
$USERI2
 70
     0
  9
$USERI3
 70
     0
  9
$USERI4
 70
     0
  9
$USERI5
 70
     0
  9
$USERR1
 40
0.0
  9
$USERR2
 40
0.0
  9
$USERR3
 40
0.0
  9
$USERR4
 40
0.0
  9
$USERR5
 40
0.0
  9
$WORLDVIEW
 70
     1
  9
$SHADEDGE
 70
     3
  9
$SHADEDIF
 70
    70
  9
$TILEMODE
 70
     1
  9
$MAXACTVP
 70
    16
  9
$PINSBASE
 10
0.0
 20
0.0
 30
0.0
  9
$PLIMCHECK
 70
     0
  9
$PEXTMIN
 10
1.000000E+20
 20
1.000000E+20
 30
1.000000E+20
  9
$PEXTMAX
 10
-1.000000E+20
 20
-1.000000E+20
 30
-1.000000E+20
  9
$PLIMMIN
 10
0.0
 20
0.0
  9
$PLIMMAX
 10
12.0
 20
9.0
  9
$UNITMODE
 70
     0
  9
$VISRETAIN
 70
     0
  9
$PLINEGEN
 70
     1
  9
$PSLTSCALE
 70
     0
  9
$TREEDEPTH
 70
  3020
  0
ENDSEC
  0
SECTION
  2
TABLES
  0
TABLE
  2
VPORT
 70
     1
  0
VPORT
  2
*ACTIVE
 70
     0
 10
0.0
 20
0.0
 11
1.0
 21
1.0
 12
6.591288
 22
4.579184
 13
0.0
 23
0.0
 14
1.0
 24
1.0
 15
0.0
 25
0.0
 16
0.0
 26
0.0
 36
1.0
 17
0.0
 27
0.0
 37
0.0
 40
9.158369
 41
0.688564
 42
50.0
 43
0.0
 44
0.0
 50
0.0
 51
0.0
 71
     0
 72
   100
 73
     1
 74
     1
 75
     0
 76
     0
 77
     0
 78
     0
  0
ENDTAB
  0
TABLE
  2
LTYPE
 70
     5
  0
LTYPE
  2
CONTINUOUS
 70
    64
  3
Solid line
 72
    65
 73
     0
 40
0.0
  0
LTYPE
  2
CENTER
 70
    64
  3
Center ____ _ ____ _ ____ _ ____ _ ____ _ ____
 72
    65
 73
     4
 40
50.8
 49
31.75
 49
-6.35
 49
6.35
 49
-6.35
  0
LTYPE
  2
HIDDEN
 70
    64
  3
Hidden __ __ __ __ __ __ __ __ __ __ __ __ __ __
 72
    65
 73
     2
 40
9.525
 49
6.35
 49
-3.175
  0
LTYPE
  2
CENTER2
 70
    64
  3
Center (.5x) ___ _ ___ _ ___ _ ___ _ ___ _ ___
 72
    65
 73
     4
 40
28.575
 49
19.05
 49
-3.175
 49
3.175
 49
-3.175
  0
LTYPE
  2
HIDDEN2
 70
    64
  3
Hidden (.5x) _ _ _ _ _ _ _ _ _ _ _ _ _ _ _ _ _
 72
    65
 73
     2
 40
4.7625
 49
3.175
 49
-1.5875
  0
ENDTAB
  0
TABLE
  2
LAYER
 70
     1
  0
LAYER
  2
0
 70
     0
 62
     7
  6
CONTINUOUS
  0
ENDTAB
  0
TABLE
  2
STYLE
 70
     1
  0
STYLE
  2
STANDARD
 70
     0
 40
0.0
 41
1.0
 50
0.0
 71
     0
 42
0.0
  3
txt
  4

  0
ENDTAB
  0
TABLE
  2
VIEW
 70
     0
  0
ENDTAB
  0
TABLE
  2
UCS
 70
     0
  0
ENDTAB
  0
TABLE
  2
APPID
 70
     1
  0
APPID
  2
ACAD
 70
     0
  0
ENDTAB
  0
TABLE
  2
DIMSTYLE
 70
     1
  0
DIMSTYLE
  2
STANDARD
 70
     0
  3

  4

  5

  6

  7

 40
1.0
 41
0.18
 42
0.0625
 43
0.38
 44
0.18
 45
0.0
 46
0.0
 47
0.0
 48
0.0
 71
     0
 72
     0
 73
     1
 74
     1
 75
     0
 76
     0
 77
     0
 78
     0
140
0.18
141
0.09
142
0.0
143
25.4
144
1.0
145
0.0
146
1.0
147
0.09
170
     0
171
     2
172
     0
173
     0
174
     0
175
     0
176
     0
177
     0
178
     0
  0
ENDTAB
  0
ENDSEC
  0
SECTION
  2
BLOCKS
  0
ENDSEC
  0
SECTION
  2
ENTITIES
  0
LINE
  8
0
  6
CONTINUOUS
 62
     7
  5
29F
 10
-4.6801
 20
-2.6965
 30
0.0
 11
-5.0801
 21
-2.6965
 31
0.0
  0
LINE
  8
0
  6
CONTINUOUS
 62
     7
  5
2A0
 10
-5.0801
 20
-2.4605
 30
0.0
 11
-5.0801
 21
-2.6965
 31
0.0
  0
LINE
  8
0
  6
CONTINUOUS
 62
     7
  5
2A1
 10
-4.6801
 20
-2.4605
 30
0.0
 11
-4.6801
 21
-2.6965
 31
0.0
  0
LINE
  8
0
  6
CONTINUOUS
 62
     7
  5
2A2
 10
-5.36835
 20
-2.4605
 30
0.0
 11
-0.236
 21
-2.4605
 31
0.0
  0
LINE
  8
0
  6
CONTINUOUS
 62
     7
  5
2A3
 10
-5.36835
 20
-2.4605
 30
0.0
 11
-5.441932
 21
-2.4605
 31
0.0
  0
LINE
  8
0
  6
CONTINUOUS
 62
     7
  5
2A4
 10
-5.441932
 20
-2.4605
 30
0.0
 11
-5.506
 21
-2.4605
 31
0.0
  0
LINE
  8
0
  6
CONTINUOUS
 62
     7
  5
2A5
 10
-0.472
 20
-2.4605
 30
0.0
 11
-0.472
 21
-2.6965
 31
0.0
  0
LINE
  8
0
  6
CONTINUOUS
 62
     7
  5
2A6
 10
-0.236
 20
-2.6965
 30
0.0
 11
-0.472
 21
-2.6965
 31
0.0
  0
LINE
  8
0
  6
CONTINUOUS
 62
     7
  5
2A7
 10
-0.236
 20
-2.4605
 30
0.0
 11
-0.236
 21
-2.6965
 31
0.0
  0
LINE
  8
0
  6
CONTINUOUS
 62
     7
  5
2A8
 10
-0.236
 20
2.9325
 30
0.0
 11
-0.236
 21
2.4605
 31
0.0
  0
LINE
  8
0
  6
CONTINUOUS
 62
     7
  5
2A9
 10
-0.236
 20
-2.4605
 30
0.0
 11
-0.236
 21
2.4605
 31
0.0
  0
LINE
  8
0
  6
CONTINUOUS
 62
     7
  5
2AA
 10
-0.2713
 20
2.4605
 30
0.0
 11
-0.2713
 21
2.84425
 31
0.0
  0
LINE
  8
0
  6
CONTINUOUS
 62
     7
  5
2AB
 10
-0.2713
 20
2.84425
 30
0.0
 11
-0.4125
 21
2.84425
 31
0.0
  0
LINE
  8
0
  6
CONTINUOUS
 62
     7
  5
2AC
 10
-0.4125
 20
2.84425
 30
0.0
 11
-0.4125
 21
2.9325
 31
0.0
  0
LINE
  8
0
  6
CONTINUOUS
 62
     7
  5
2AD
 10
-0.4125
 20
2.9325
 30
0.0
 11
-0.236
 21
2.9325
 31
0.0
  0
LINE
  8
0
  6
CONTINUOUS
 62
     7
  5
2AE
 10
-5.441932
 20
2.4605
 30
0.0
 11
-5.506
 21
2.4605
 31
0.0
  0
LINE
  8
0
  6
CONTINUOUS
 62
     7
  5
2AF
 10
-5.36835
 20
2.4605
 30
0.0
 11
-5.441932
 21
2.4605
 31
0.0
  0
LINE
  8
0
  6
CONTINUOUS
 62
     7
  5
2B0
 10
-0.236
 20
2.4605
 30
0.0
 11
-5.36835
 21
2.4605
 31
0.0
  0
LINE
  8
0
  6
CONTINUOUS
 62
     7
  5
2B1
 10
-5.496412
 20
-0.276424
 30
0.0
 11
-5.496571
 21
-0.288775
 31
0.0
  0
LINE
  8
0
  6
CONTINUOUS
 62
     7
  5
2B2
 10
-5.496571
 20
-0.288775
 30
0.0
 11
-5.496758
 21
-0.301071
 31
0.0
  0
LINE
  8
0
  6
CONTINUOUS
 62
     7
  5
2B3
 10
-5.496758
 20
-0.301071
 30
0.0
 11
-5.496974
 21
-0.313275
 31
0.0
  0
LINE
  8
0
  6
CONTINUOUS
 62
     7
  5
2B4
 10
-5.496974
 20
-0.313275
 30
0.0
 11
-5.497216
 21
-0.325351
 31
0.0
  0
LINE
  8
0
  6
CONTINUOUS
 62
     7
  5
2B5
 10
-5.497216
 20
-0.325351
 30
0.0
 11
-5.497483
 21
-0.337264
 31
0.0
  0
LINE
  8
0
  6
CONTINUOUS
 62
     7
  5
2B6
 10
-5.497483
 20
-0.337264
 30
0.0
 11
-5.497774
 21
-0.348983
 31
0.0
  0
LINE
  8
0
  6
CONTINUOUS
 62
     7
  5
2B7
 10
-5.497774
 20
-0.348983
 30
0.0
 11
-5.498085
 21
-0.360482
 31
0.0
  0
LINE
  8
0
  6
CONTINUOUS
 62
     7
  5
2B8
 10
-5.498085
 20
-0.360482
 30
0.0
 11
-5.498414
 21
-0.37173
 31
0.0
  0
LINE
  8
0
  6
CONTINUOUS
 62
     7
  5
2B9
 10
-5.498414
 20
-0.37173
 30
0.0
 11
-5.49876
 21
-0.382699
 31
0.0
  0
LINE
  8
0
  6
CONTINUOUS
 62
     7
  5
2BA
 10
-5.49876
 20
-0.382699
 30
0.0
 11
-5.499118
 21
-0.39336
 31
0.0
  0
LINE
  8
0
  6
CONTINUOUS
 62
     7
  5
2BB
 10
-5.499118
 20
-0.39336
 30
0.0
 11
-5.499486
 21
-0.403686
 31
0.0
  0
LINE
  8
0
  6
CONTINUOUS
 62
     7
  5
2BC
 10
-5.499486
 20
-0.403686
 30
0.0
 11
-5.499862
 21
-0.41365
 31
0.0
  0
LINE
  8
0
  6
CONTINUOUS
 62
     7
  5
2BD
 10
-5.499862
 20
-0.41365
 30
0.0
 11
-5.500241
 21
-0.423231
 31
0.0
  0
LINE
  8
0
  6
CONTINUOUS
 62
     7
  5
2BE
 10
-5.500241
 20
-0.423231
 30
0.0
 11
-5.500621
 21
-0.432408
 31
0.0
  0
LINE
  8
0
  6
CONTINUOUS
 62
     7
  5
2BF
 10
-5.500621
 20
-0.432408
 30
0.0
 11
-5.501
 21
-0.441163
 31
0.0
  0
LINE
  8
0
  6
CONTINUOUS
 62
     7
  5
2C0
 10
-5.501
 20
-0.441163
 30
0.0
 11
-5.501377
 21
-0.449574
 31
0.0
  0
LINE
  8
0
  6
CONTINUOUS
 62
     7
  5
2C1
 10
-5.501377
 20
-0.449574
 30
0.0
 11
-5.501757
 21
-0.457742
 31
0.0
  0
LINE
  8
0
  6
CONTINUOUS
 62
     7
  5
2C2
 10
-5.501757
 20
-0.457742
 30
0.0
 11
-5.502137
 21
-0.465635
 31
0.0
  0
LINE
  8
0
  6
CONTINUOUS
 62
     7
  5
2C3
 10
-5.502137
 20
-0.465635
 30
0.0
 11
-5.502513
 21
-0.473217
 31
0.0
  0
LINE
  8
0
  6
CONTINUOUS
 62
     7
  5
2C4
 10
-5.502513
 20
-0.473217
 30
0.0
 11
-5.502883
 21
-0.480456
 31
0.0
  0
LINE
  8
0
  6
CONTINUOUS
 62
     7
  5
2C5
 10
-5.502883
 20
-0.480456
 30
0.0
 11
-5.503243
 21
-0.487323
 31
0.0
  0
LINE
  8
0
  6
CONTINUOUS
 62
     7
  5
2C6
 10
-5.503243
 20
-0.487323
 30
0.0
 11
-5.503591
 21
-0.493792
 31
0.0
  0
LINE
  8
0
  6
CONTINUOUS
 62
     7
  5
2C7
 10
-5.503591
 20
-0.493792
 30
0.0
 11
-5.503924
 21
-0.499837
 31
0.0
  0
LINE
  8
0
  6
CONTINUOUS
 62
     7
  5
2C8
 10
-5.503924
 20
-0.499837
 30
0.0
 11
-5.504238
 21
-0.50544
 31
0.0
  0
LINE
  8
0
  6
CONTINUOUS
 62
     7
  5
2C9
 10
-5.504238
 20
-0.50544
 30
0.0
 11
-5.504532
 21
-0.510583
 31
0.0
  0
LINE
  8
0
  6
CONTINUOUS
 62
     7
  5
2CA
 10
-5.504532
 20
-0.510583
 30
0.0
 11
-5.504804
 21
-0.515253
 31
0.0
  0
LINE
  8
0
  6
CONTINUOUS
 62
     7
  5
2CB
 10
-5.504804
 20
-0.515253
 30
0.0
 11
-5.505051
 21
-0.519439
 31
0.0
  0
LINE
  8
0
  6
CONTINUOUS
 62
     7
  5
2CC
 10
-5.505051
 20
-0.519439
 30
0.0
 11
-5.505272
 21
-0.523131
 31
0.0
  0
LINE
  8
0
  6
CONTINUOUS
 62
     7
  5
2CD
 10
-5.505272
 20
-0.523131
 30
0.0
 11
-5.505465
 21
-0.526324
 31
0.0
  0
LINE
  8
0
  6
CONTINUOUS
 62
     7
  5
2CE
 10
-5.505465
 20
-0.526324
 30
0.0
 11
-5.505629
 21
-0.529013
 31
0.0
  0
LINE
  8
0
  6
CONTINUOUS
 62
     7
  5
2CF
 10
-5.505629
 20
-0.529013
 30
0.0
 11
-5.505764
 21
-0.531197
 31
0.0
  0
LINE
  8
0
  6
CONTINUOUS
 62
     7
  5
2D0
 10
-5.505764
 20
-0.531197
 30
0.0
 11
-5.505868
 21
-0.53288
 31
0.0
  0
LINE
  8
0
  6
CONTINUOUS
 62
     7
  5
2D1
 10
-5.505868
 20
-0.53288
 30
0.0
 11
-5.505942
 21
-0.534067
 31
0.0
  0
LINE
  8
0
  6
CONTINUOUS
 62
     7
  5
2D2
 10
-5.505942
 20
-0.534067
 30
0.0
 11
-5.505986
 21
-0.534769
 31
0.0
  0
LINE
  8
0
  6
CONTINUOUS
 62
     7
  5
2D3
 10
-5.505986
 20
-0.534769
 30
0.0
 11
-5.506
 21
-0.535
 31
0.0
  0
LINE
  8
0
  6
CONTINUOUS
 62
     7
  5
2D4
 10
-5.506
 20
-0.535
 30
0.0
 11
-5.505999
 21
-0.534986
 31
0.0
  0
LINE
  8
0
  6
CONTINUOUS
 62
     7
  5
2D5
 10
-5.505999
 20
-0.534986
 30
0.0
 11
-5.505996
 21
-0.534943
 31
0.0
  0
LINE
  8
0
  6
CONTINUOUS
 62
     7
  5
2D6
 10
-5.505996
 20
-0.534943
 30
0.0
 11
-5.505992
 21
-0.534871
 31
0.0
  0
LINE
  8
0
  6
CONTINUOUS
 62
     7
  5
2D7
 10
-5.505992
 20
-0.534871
 30
0.0
 11
-5.505986
 21
-0.534769
 31
0.0
  0
LINE
  8
0
  6
CONTINUOUS
 62
     7
  5
2D8
 10
-5.505986
 20
-0.534769
 30
0.0
 11
-5.505977
 21
-0.534639
 31
0.0
  0
LINE
  8
0
  6
CONTINUOUS
 62
     7
  5
2D9
 10
-5.505977
 20
-0.534639
 30
0.0
 11
-5.505967
 21
-0.534478
 31
0.0
  0
LINE
  8
0
  6
CONTINUOUS
 62
     7
  5
2DA
 10
-5.505967
 20
-0.534478
 30
0.0
 11
-5.505956
 21
-0.534288
 31
0.0
  0
LINE
  8
0
  6
CONTINUOUS
 62
     7
  5
2DB
 10
-5.505956
 20
-0.534288
 30
0.0
 11
-5.505942
 21
-0.534067
 31
0.0
  0
LINE
  8
0
  6
CONTINUOUS
 62
     7
  5
2DC
 10
-5.505942
 20
-0.534067
 30
0.0
 11
-5.505926
 21
-0.533816
 31
0.0
  0
LINE
  8
0
  6
CONTINUOUS
 62
     7
  5
2DD
 10
-5.505926
 20
-0.533816
 30
0.0
 11
-5.505909
 21
-0.533535
 31
0.0
  0
LINE
  8
0
  6
CONTINUOUS
 62
     7
  5
2DE
 10
-5.505909
 20
-0.533535
 30
0.0
 11
-5.505889
 21
-0.533223
 31
0.0
  0
LINE
  8
0
  6
CONTINUOUS
 62
     7
  5
2DF
 10
-5.505889
 20
-0.533223
 30
0.0
 11
-5.505868
 21
-0.53288
 31
0.0
  0
LINE
  8
0
  6
CONTINUOUS
 62
     7
  5
2E0
 10
-5.505868
 20
-0.53288
 30
0.0
 11
-5.505845
 21
-0.532506
 31
0.0
  0
LINE
  8
0
  6
CONTINUOUS
 62
     7
  5
2E1
 10
-5.505845
 20
-0.532506
 30
0.0
 11
-5.50582
 21
-0.532101
 31
0.0
  0
LINE
  8
0
  6
CONTINUOUS
 62
     7
  5
2E2
 10
-5.50582
 20
-0.532101
 30
0.0
 11
-5.505793
 21
-0.531664
 31
0.0
  0
LINE
  8
0
  6
CONTINUOUS
 62
     7
  5
2E3
 10
-5.505793
 20
-0.531664
 30
0.0
 11
-5.505764
 21
-0.531197
 31
0.0
  0
LINE
  8
0
  6
CONTINUOUS
 62
     7
  5
2E4
 10
-5.505764
 20
-0.531197
 30
0.0
 11
-5.505733
 21
-0.530698
 31
0.0
  0
LINE
  8
0
  6
CONTINUOUS
 62
     7
  5
2E5
 10
-5.505733
 20
-0.530698
 30
0.0
 11
-5.5057
 21
-0.530168
 31
0.0
  0
LINE
  8
0
  6
CONTINUOUS
 62
     7
  5
2E6
 10
-5.5057
 20
-0.530168
 30
0.0
 11
-5.505666
 21
-0.529606
 31
0.0
  0
LINE
  8
0
  6
CONTINUOUS
 62
     7
  5
2E7
 10
-5.505666
 20
-0.529606
 30
0.0
 11
-5.505629
 21
-0.529013
 31
0.0
  0
LINE
  8
0
  6
CONTINUOUS
 62
     7
  5
2E8
 10
-5.505629
 20
-0.529013
 30
0.0
 11
-5.505591
 21
-0.528388
 31
0.0
  0
LINE
  8
0
  6
CONTINUOUS
 62
     7
  5
2E9
 10
-5.505591
 20
-0.528388
 30
0.0
 11
-5.505551
 21
-0.527731
 31
0.0
  0
LINE
  8
0
  6
CONTINUOUS
 62
     7
  5
2EA
 10
-5.505551
 20
-0.527731
 30
0.0
 11
-5.505509
 21
-0.527043
 31
0.0
  0
LINE
  8
0
  6
CONTINUOUS
 62
     7
  5
2EB
 10
-5.505509
 20
-0.527043
 30
0.0
 11
-5.505465
 21
-0.526324
 31
0.0
  0
LINE
  8
0
  6
CONTINUOUS
 62
     7
  5
2EC
 10
-5.505465
 20
-0.526324
 30
0.0
 11
-5.50542
 21
-0.525573
 31
0.0
  0
LINE
  8
0
  6
CONTINUOUS
 62
     7
  5
2ED
 10
-5.50542
 20
-0.525573
 30
0.0
 11
-5.505372
 21
-0.52479
 31
0.0
  0
LINE
  8
0
  6
CONTINUOUS
 62
     7
  5
2EE
 10
-5.505372
 20
-0.52479
 30
0.0
 11
-5.505323
 21
-0.523976
 31
0.0
  0
LINE
  8
0
  6
CONTINUOUS
 62
     7
  5
2EF
 10
-5.505323
 20
-0.523976
 30
0.0
 11
-5.505272
 21
-0.523131
 31
0.0
  0
LINE
  8
0
  6
CONTINUOUS
 62
     7
  5
2F0
 10
-5.505272
 20
-0.523131
 30
0.0
 11
-5.505219
 21
-0.522255
 31
0.0
  0
LINE
  8
0
  6
CONTINUOUS
 62
     7
  5
2F1
 10
-5.505219
 20
-0.522255
 30
0.0
 11
-5.505165
 21
-0.521347
 31
0.0
  0
LINE
  8
0
  6
CONTINUOUS
 62
     7
  5
2F2
 10
-5.505165
 20
-0.521347
 30
0.0
 11
-5.505109
 21
-0.520408
 31
0.0
  0
LINE
  8
0
  6
CONTINUOUS
 62
     7
  5
2F3
 10
-5.505109
 20
-0.520408
 30
0.0
 11
-5.505051
 21
-0.519439
 31
0.0
  0
LINE
  8
0
  6
CONTINUOUS
 62
     7
  5
2F4
 10
-5.505051
 20
-0.519439
 30
0.0
 11
-5.504992
 21
-0.518438
 31
0.0
  0
LINE
  8
0
  6
CONTINUOUS
 62
     7
  5
2F5
 10
-5.504992
 20
-0.518438
 30
0.0
 11
-5.504931
 21
-0.517407
 31
0.0
  0
LINE
  8
0
  6
CONTINUOUS
 62
     7
  5
2F6
 10
-5.504931
 20
-0.517407
 30
0.0
 11
-5.504868
 21
-0.516345
 31
0.0
  0
LINE
  8
0
  6
CONTINUOUS
 62
     7
  5
2F7
 10
-5.496412
 20
-0.276424
 30
0.0
 11
-5.495834
 21
-0.227399
 31
0.0
  0
LINE
  8
0
  6
CONTINUOUS
 62
     7
  5
2F8
 10
-5.495834
 20
-0.227399
 30
0.0
 11
-5.49524
 21
-0.17838
 31
0.0
  0
LINE
  8
0
  6
CONTINUOUS
 62
     7
  5
2F9
 10
-5.49524
 20
-0.17838
 30
0.0
 11
-5.494628
 21
-0.129367
 31
0.0
  0
LINE
  8
0
  6
CONTINUOUS
 62
     7
  5
2FA
 10
-5.494628
 20
-0.129367
 30
0.0
 11
-5.494
 21
-0.08036
 31
0.0
  0
LINE
  8
0
  6
CONTINUOUS
 62
     7
  5
2FB
 10
-5.494
 20
-0.08036
 30
0.0
 11
-5.493355
 21
-0.031359
 31
0.0
  0
LINE
  8
0
  6
CONTINUOUS
 62
     7
  5
2FC
 10
-5.493355
 20
-0.031359
 30
0.0
 11
-5.492693
 21
0.017636
 31
0.0
  0
LINE
  8
0
  6
CONTINUOUS
 62
     7
  5
2FD
 10
-5.492693
 20
0.017636
 30
0.0
 11
-5.492014
 21
0.066624
 31
0.0
  0
LINE
  8
0
  6
CONTINUOUS
 62
     7
  5
2FE
 10
-5.492014
 20
0.066624
 30
0.0
 11
-5.491318
 21
0.115606
 31
0.0
  0
LINE
  8
0
  6
CONTINUOUS
 62
     7
  5
2FF
 10
-5.491318
 20
0.115606
 30
0.0
 11
-5.490605
 21
0.164581
 31
0.0
  0
LINE
  8
0
  6
CONTINUOUS
 62
     7
  5
300
 10
-5.490605
 20
0.164581
 30
0.0
 11
-5.489876
 21
0.213549
 31
0.0
  0
LINE
  8
0
  6
CONTINUOUS
 62
     7
  5
301
 10
-5.489876
 20
0.213549
 30
0.0
 11
-5.489129
 21
0.262509
 31
0.0
  0
LINE
  8
0
  6
CONTINUOUS
 62
     7
  5
302
 10
-5.489129
 20
0.262509
 30
0.0
 11
-5.488366
 21
0.311463
 31
0.0
  0
LINE
  8
0
  6
CONTINUOUS
 62
     7
  5
303
 10
-5.488366
 20
0.311463
 30
0.0
 11
-5.487586
 21
0.360408
 31
0.0
  0
LINE
  8
0
  6
CONTINUOUS
 62
     7
  5
304
 10
-5.487586
 20
0.360408
 30
0.0
 11
-5.486789
 21
0.409347
 31
0.0
  0
LINE
  8
0
  6
CONTINUOUS
 62
     7
  5
305
 10
-5.486789
 20
0.409347
 30
0.0
 11
-5.485975
 21
0.458277
 31
0.0
  0
LINE
  8
0
  6
CONTINUOUS
 62
     7
  5
306
 10
-5.485975
 20
0.458277
 30
0.0
 11
-5.485144
 21
0.5072
 31
0.0
  0
LINE
  8
0
  6
CONTINUOUS
 62
     7
  5
307
 10
-5.485144
 20
0.5072
 30
0.0
 11
-5.484297
 21
0.556114
 31
0.0
  0
LINE
  8
0
  6
CONTINUOUS
 62
     7
  5
308
 10
-5.484297
 20
0.556114
 30
0.0
 11
-5.483432
 21
0.60502
 31
0.0
  0
LINE
  8
0
  6
CONTINUOUS
 62
     7
  5
309
 10
-5.483432
 20
0.60502
 30
0.0
 11
-5.482551
 21
0.653918
 31
0.0
  0
LINE
  8
0
  6
CONTINUOUS
 62
     7
  5
30A
 10
-5.482551
 20
0.653918
 30
0.0
 11
-5.481653
 21
0.702807
 31
0.0
  0
LINE
  8
0
  6
CONTINUOUS
 62
     7
  5
30B
 10
-5.481653
 20
0.702807
 30
0.0
 11
-5.480738
 21
0.751687
 31
0.0
  0
LINE
  8
0
  6
CONTINUOUS
 62
     7
  5
30C
 10
-5.480738
 20
0.751687
 30
0.0
 11
-5.479807
 21
0.800559
 31
0.0
  0
LINE
  8
0
  6
CONTINUOUS
 62
     7
  5
30D
 10
-5.479807
 20
0.800559
 30
0.0
 11
-5.478858
 21
0.849421
 31
0.0
  0
LINE
  8
0
  6
CONTINUOUS
 62
     7
  5
30E
 10
-5.478858
 20
0.849421
 30
0.0
 11
-5.477893
 21
0.898274
 31
0.0
  0
LINE
  8
0
  6
CONTINUOUS
 62
     7
  5
30F
 10
-5.477893
 20
0.898274
 30
0.0
 11
-5.47691
 21
0.947118
 31
0.0
  0
LINE
  8
0
  6
CONTINUOUS
 62
     7
  5
310
 10
-5.47691
 20
0.947118
 30
0.0
 11
-5.475911
 21
0.995952
 31
0.0
  0
LINE
  8
0
  6
CONTINUOUS
 62
     7
  5
311
 10
-5.475911
 20
0.995952
 30
0.0
 11
-5.474896
 21
1.044776
 31
0.0
  0
LINE
  8
0
  6
CONTINUOUS
 62
     7
  5
312
 10
-5.474896
 20
1.044776
 30
0.0
 11
-5.473863
 21
1.09359
 31
0.0
  0
LINE
  8
0
  6
CONTINUOUS
 62
     7
  5
313
 10
-5.473863
 20
1.09359
 30
0.0
 11
-5.472814
 21
1.142395
 31
0.0
  0
LINE
  8
0
  6
CONTINUOUS
 62
     7
  5
314
 10
-5.472814
 20
1.142395
 30
0.0
 11
-5.471747
 21
1.191189
 31
0.0
  0
LINE
  8
0
  6
CONTINUOUS
 62
     7
  5
315
 10
-5.471747
 20
1.191189
 30
0.0
 11
-5.470664
 21
1.239972
 31
0.0
  0
LINE
  8
0
  6
CONTINUOUS
 62
     7
  5
316
 10
-5.470664
 20
1.239972
 30
0.0
 11
-5.469564
 21
1.288746
 31
0.0
  0
LINE
  8
0
  6
CONTINUOUS
 62
     7
  5
317
 10
-5.469564
 20
1.288746
 30
0.0
 11
-5.468448
 21
1.337508
 31
0.0
  0
LINE
  8
0
  6
CONTINUOUS
 62
     7
  5
318
 10
-5.468448
 20
1.337508
 30
0.0
 11
-5.467314
 21
1.38626
 31
0.0
  0
LINE
  8
0
  6
CONTINUOUS
 62
     7
  5
319
 10
-5.467314
 20
1.38626
 30
0.0
 11
-5.466164
 21
1.435
 31
0.0
  0
LINE
  8
0
  6
CONTINUOUS
 62
     7
  5
31A
 10
-5.506
 20
1.435
 30
0.0
 11
-5.466164
 21
1.435
 31
0.0
  0
LINE
  8
0
  6
CONTINUOUS
 62
     7
  5
31B
 10
-5.466164
 20
1.435
 30
0.0
 11
-5.467314
 21
1.38626
 31
0.0
  0
LINE
  8
0
  6
CONTINUOUS
 62
     7
  5
31C
 10
-5.467314
 20
1.38626
 30
0.0
 11
-5.468448
 21
1.337508
 31
0.0
  0
LINE
  8
0
  6
CONTINUOUS
 62
     7
  5
31D
 10
-5.468448
 20
1.337508
 30
0.0
 11
-5.469564
 21
1.288746
 31
0.0
  0
LINE
  8
0
  6
CONTINUOUS
 62
     7
  5
31E
 10
-5.469564
 20
1.288746
 30
0.0
 11
-5.470664
 21
1.239972
 31
0.0
  0
LINE
  8
0
  6
CONTINUOUS
 62
     7
  5
31F
 10
-5.470664
 20
1.239972
 30
0.0
 11
-5.471747
 21
1.191189
 31
0.0
  0
LINE
  8
0
  6
CONTINUOUS
 62
     7
  5
320
 10
-5.471747
 20
1.191189
 30
0.0
 11
-5.472814
 21
1.142395
 31
0.0
  0
LINE
  8
0
  6
CONTINUOUS
 62
     7
  5
321
 10
-5.472814
 20
1.142395
 30
0.0
 11
-5.473863
 21
1.09359
 31
0.0
  0
LINE
  8
0
  6
CONTINUOUS
 62
     7
  5
322
 10
-5.473863
 20
1.09359
 30
0.0
 11
-5.474896
 21
1.044776
 31
0.0
  0
LINE
  8
0
  6
CONTINUOUS
 62
     7
  5
323
 10
-5.474896
 20
1.044776
 30
0.0
 11
-5.475911
 21
0.995952
 31
0.0
  0
LINE
  8
0
  6
CONTINUOUS
 62
     7
  5
324
 10
-5.475911
 20
0.995952
 30
0.0
 11
-5.47691
 21
0.947118
 31
0.0
  0
LINE
  8
0
  6
CONTINUOUS
 62
     7
  5
325
 10
-5.47691
 20
0.947118
 30
0.0
 11
-5.477893
 21
0.898274
 31
0.0
  0
LINE
  8
0
  6
CONTINUOUS
 62
     7
  5
326
 10
-5.477893
 20
0.898274
 30
0.0
 11
-5.478858
 21
0.849421
 31
0.0
  0
LINE
  8
0
  6
CONTINUOUS
 62
     7
  5
327
 10
-5.478858
 20
0.849421
 30
0.0
 11
-5.479807
 21
0.800559
 31
0.0
  0
LINE
  8
0
  6
CONTINUOUS
 62
     7
  5
328
 10
-5.479807
 20
0.800559
 30
0.0
 11
-5.480738
 21
0.751687
 31
0.0
  0
LINE
  8
0
  6
CONTINUOUS
 62
     7
  5
329
 10
-5.480738
 20
0.751687
 30
0.0
 11
-5.481653
 21
0.702807
 31
0.0
  0
LINE
  8
0
  6
CONTINUOUS
 62
     7
  5
32A
 10
-5.481653
 20
0.702807
 30
0.0
 11
-5.482551
 21
0.653918
 31
0.0
  0
LINE
  8
0
  6
CONTINUOUS
 62
     7
  5
32B
 10
-5.482551
 20
0.653918
 30
0.0
 11
-5.483432
 21
0.60502
 31
0.0
  0
LINE
  8
0
  6
CONTINUOUS
 62
     7
  5
32C
 10
-5.483432
 20
0.60502
 30
0.0
 11
-5.484297
 21
0.556114
 31
0.0
  0
LINE
  8
0
  6
CONTINUOUS
 62
     7
  5
32D
 10
-5.484297
 20
0.556114
 30
0.0
 11
-5.485144
 21
0.5072
 31
0.0
  0
LINE
  8
0
  6
CONTINUOUS
 62
     7
  5
32E
 10
-5.485144
 20
0.5072
 30
0.0
 11
-5.485975
 21
0.458277
 31
0.0
  0
LINE
  8
0
  6
CONTINUOUS
 62
     7
  5
32F
 10
-5.485975
 20
0.458277
 30
0.0
 11
-5.486789
 21
0.409347
 31
0.0
  0
LINE
  8
0
  6
CONTINUOUS
 62
     7
  5
330
 10
-5.486789
 20
0.409347
 30
0.0
 11
-5.487586
 21
0.360408
 31
0.0
  0
LINE
  8
0
  6
CONTINUOUS
 62
     7
  5
331
 10
-5.487586
 20
0.360408
 30
0.0
 11
-5.488366
 21
0.311463
 31
0.0
  0
LINE
  8
0
  6
CONTINUOUS
 62
     7
  5
332
 10
-5.488366
 20
0.311463
 30
0.0
 11
-5.489129
 21
0.262509
 31
0.0
  0
LINE
  8
0
  6
CONTINUOUS
 62
     7
  5
333
 10
-5.489129
 20
0.262509
 30
0.0
 11
-5.489876
 21
0.213549
 31
0.0
  0
LINE
  8
0
  6
CONTINUOUS
 62
     7
  5
334
 10
-5.489876
 20
0.213549
 30
0.0
 11
-5.490605
 21
0.164581
 31
0.0
  0
LINE
  8
0
  6
CONTINUOUS
 62
     7
  5
335
 10
-5.490605
 20
0.164581
 30
0.0
 11
-5.491318
 21
0.115606
 31
0.0
  0
LINE
  8
0
  6
CONTINUOUS
 62
     7
  5
336
 10
-5.491318
 20
0.115606
 30
0.0
 11
-5.492014
 21
0.066624
 31
0.0
  0
LINE
  8
0
  6
CONTINUOUS
 62
     7
  5
337
 10
-5.492014
 20
0.066624
 30
0.0
 11
-5.492693
 21
0.017636
 31
0.0
  0
LINE
  8
0
  6
CONTINUOUS
 62
     7
  5
338
 10
-5.492693
 20
0.017636
 30
0.0
 11
-5.493355
 21
-0.031359
 31
0.0
  0
LINE
  8
0
  6
CONTINUOUS
 62
     7
  5
339
 10
-5.493355
 20
-0.031359
 30
0.0
 11
-5.494
 21
-0.08036
 31
0.0
  0
LINE
  8
0
  6
CONTINUOUS
 62
     7
  5
33A
 10
-5.494
 20
-0.08036
 30
0.0
 11
-5.494628
 21
-0.129367
 31
0.0
  0
LINE
  8
0
  6
CONTINUOUS
 62
     7
  5
33B
 10
-5.494628
 20
-0.129367
 30
0.0
 11
-5.49524
 21
-0.17838
 31
0.0
  0
LINE
  8
0
  6
CONTINUOUS
 62
     7
  5
33C
 10
-5.49524
 20
-0.17838
 30
0.0
 11
-5.495834
 21
-0.227399
 31
0.0
  0
LINE
  8
0
  6
CONTINUOUS
 62
     7
  5
33D
 10
-5.495834
 20
-0.227399
 30
0.0
 11
-5.496412
 21
-0.276424
 31
0.0
  0
LINE
  8
0
  6
CONTINUOUS
 62
     7
  5
33E
 10
-5.484323
 20
-2.06446
 30
0.0
 11
-5.483818
 21
-2.064577
 31
0.0
  0
LINE
  8
0
  6
CONTINUOUS
 62
     7
  5
33F
 10
-5.483818
 20
-2.064577
 30
0.0
 11
-5.483302
 21
-2.064935
 31
0.0
  0
LINE
  8
0
  6
CONTINUOUS
 62
     7
  5
340
 10
-5.483302
 20
-2.064935
 30
0.0
 11
-5.482777
 21
-2.065539
 31
0.0
  0
LINE
  8
0
  6
CONTINUOUS
 62
     7
  5
341
 10
-5.482777
 20
-2.065539
 30
0.0
 11
-5.482243
 21
-2.066397
 31
0.0
  0
LINE
  8
0
  6
CONTINUOUS
 62
     7
  5
342
 10
-5.482243
 20
-2.066397
 30
0.0
 11
-5.481704
 21
-2.06751
 31
0.0
  0
LINE
  8
0
  6
CONTINUOUS
 62
     7
  5
343
 10
-5.481704
 20
-2.06751
 30
0.0
 11
-5.481161
 21
-2.068879
 31
0.0
  0
LINE
  8
0
  6
CONTINUOUS
 62
     7
  5
344
 10
-5.481161
 20
-2.068879
 30
0.0
 11
-5.480617
 21
-2.070502
 31
0.0
  0
LINE
  8
0
  6
CONTINUOUS
 62
     7
  5
345
 10
-5.480617
 20
-2.070502
 30
0.0
 11
-5.480074
 21
-2.072376
 31
0.0
  0
LINE
  8
0
  6
CONTINUOUS
 62
     7
  5
346
 10
-5.480074
 20
-2.072376
 30
0.0
 11
-5.479534
 21
-2.074495
 31
0.0
  0
LINE
  8
0
  6
CONTINUOUS
 62
     7
  5
347
 10
-5.479534
 20
-2.074495
 30
0.0
 11
-5.478999
 21
-2.076853
 31
0.0
  0
LINE
  8
0
  6
CONTINUOUS
 62
     7
  5
348
 10
-5.478999
 20
-2.076853
 30
0.0
 11
-5.478471
 21
-2.079442
 31
0.0
  0
LINE
  8
0
  6
CONTINUOUS
 62
     7
  5
349
 10
-5.478471
 20
-2.079442
 30
0.0
 11
-5.477953
 21
-2.082251
 31
0.0
  0
LINE
  8
0
  6
CONTINUOUS
 62
     7
  5
34A
 10
-5.477953
 20
-2.082251
 30
0.0
 11
-5.477446
 21
-2.085268
 31
0.0
  0
LINE
  8
0
  6
CONTINUOUS
 62
     7
  5
34B
 10
-5.477446
 20
-2.085268
 30
0.0
 11
-5.476952
 21
-2.088479
 31
0.0
  0
LINE
  8
0
  6
CONTINUOUS
 62
     7
  5
34C
 10
-5.476952
 20
-2.088479
 30
0.0
 11
-5.476474
 21
-2.091866
 31
0.0
  0
LINE
  8
0
  6
CONTINUOUS
 62
     7
  5
34D
 10
-5.476474
 20
-2.091866
 30
0.0
 11
-5.476014
 21
-2.095411
 31
0.0
  0
LINE
  8
0
  6
CONTINUOUS
 62
     7
  5
34E
 10
-5.476014
 20
-2.095411
 30
0.0
 11
-5.475573
 21
-2.099094
 31
0.0
  0
LINE
  8
0
  6
CONTINUOUS
 62
     7
  5
34F
 10
-5.475573
 20
-2.099094
 30
0.0
 11
-5.475151
 21
-2.102908
 31
0.0
  0
LINE
  8
0
  6
CONTINUOUS
 62
     7
  5
350
 10
-5.475151
 20
-2.102908
 30
0.0
 11
-5.474741
 21
-2.106925
 31
0.0
  0
LINE
  8
0
  6
CONTINUOUS
 62
     7
  5
351
 10
-5.474741
 20
-2.106925
 30
0.0
 11
-5.474344
 21
-2.111152
 31
0.0
  0
LINE
  8
0
  6
CONTINUOUS
 62
     7
  5
352
 10
-5.474344
 20
-2.111152
 30
0.0
 11
-5.473962
 21
-2.115579
 31
0.0
  0
LINE
  8
0
  6
CONTINUOUS
 62
     7
  5
353
 10
-5.473962
 20
-2.115579
 30
0.0
 11
-5.473597
 21
-2.120193
 31
0.0
  0
LINE
  8
0
  6
CONTINUOUS
 62
     7
  5
354
 10
-5.473597
 20
-2.120193
 30
0.0
 11
-5.473252
 21
-2.124979
 31
0.0
  0
LINE
  8
0
  6
CONTINUOUS
 62
     7
  5
355
 10
-5.473252
 20
-2.124979
 30
0.0
 11
-5.472928
 21
-2.129921
 31
0.0
  0
LINE
  8
0
  6
CONTINUOUS
 62
     7
  5
356
 10
-5.472928
 20
-2.129921
 30
0.0
 11
-5.472629
 21
-2.135003
 31
0.0
  0
LINE
  8
0
  6
CONTINUOUS
 62
     7
  5
357
 10
-5.472629
 20
-2.135003
 30
0.0
 11
-5.472355
 21
-2.140207
 31
0.0
  0
LINE
  8
0
  6
CONTINUOUS
 62
     7
  5
358
 10
-5.472355
 20
-2.140207
 30
0.0
 11
-5.472108
 21
-2.145517
 31
0.0
  0
LINE
  8
0
  6
CONTINUOUS
 62
     7
  5
359
 10
-5.472108
 20
-2.145517
 30
0.0
 11
-5.471888
 21
-2.150915
 31
0.0
  0
LINE
  8
0
  6
CONTINUOUS
 62
     7
  5
35A
 10
-5.471888
 20
-2.150915
 30
0.0
 11
-5.471698
 21
-2.156384
 31
0.0
  0
LINE
  8
0
  6
CONTINUOUS
 62
     7
  5
35B
 10
-5.471698
 20
-2.156384
 30
0.0
 11
-5.471536
 21
-2.161901
 31
0.0
  0
LINE
  8
0
  6
CONTINUOUS
 62
     7
  5
35C
 10
-5.471536
 20
-2.161901
 30
0.0
 11
-5.471405
 21
-2.167447
 31
0.0
  0
LINE
  8
0
  6
CONTINUOUS
 62
     7
  5
35D
 10
-5.471405
 20
-2.167447
 30
0.0
 11
-5.471303
 21
-2.172998
 31
0.0
  0
LINE
  8
0
  6
CONTINUOUS
 62
     7
  5
35E
 10
-5.471303
 20
-2.172998
 30
0.0
 11
-5.471231
 21
-2.178532
 31
0.0
  0
LINE
  8
0
  6
CONTINUOUS
 62
     7
  5
35F
 10
-5.471231
 20
-2.178532
 30
0.0
 11
-5.471189
 21
-2.184027
 31
0.0
  0
LINE
  8
0
  6
CONTINUOUS
 62
     7
  5
360
 10
-5.471189
 20
-2.184027
 30
0.0
 11
-5.471175
 21
-2.18946
 31
0.0
  0
LINE
  8
0
  6
CONTINUOUS
 62
     7
  5
361
 10
-5.484323
 20
-2.31446
 30
0.0
 11
-5.485319
 21
-2.313986
 31
0.0
  0
LINE
  8
0
  6
CONTINUOUS
 62
     7
  5
362
 10
-5.485319
 20
-2.313986
 30
0.0
 11
-5.486306
 21
-2.312525
 31
0.0
  0
LINE
  8
0
  6
CONTINUOUS
 62
     7
  5
363
 10
-5.486306
 20
-2.312525
 30
0.0
 11
-5.487267
 21
-2.310044
 31
0.0
  0
LINE
  8
0
  6
CONTINUOUS
 62
     7
  5
364
 10
-5.487267
 20
-2.310044
 30
0.0
 11
-5.488189
 21
-2.306548
 31
0.0
  0
LINE
  8
0
  6
CONTINUOUS
 62
     7
  5
365
 10
-5.488189
 20
-2.306548
 30
0.0
 11
-5.489059
 21
-2.302069
 31
0.0
  0
LINE
  8
0
  6
CONTINUOUS
 62
     7
  5
366
 10
-5.489059
 20
-2.302069
 30
0.0
 11
-5.489869
 21
-2.296668
 31
0.0
  0
LINE
  8
0
  6
CONTINUOUS
 62
     7
  5
367
 10
-5.489869
 20
-2.296668
 30
0.0
 11
-5.490611
 21
-2.290436
 31
0.0
  0
LINE
  8
0
  6
CONTINUOUS
 62
     7
  5
368
 10
-5.490611
 20
-2.290436
 30
0.0
 11
-5.49128
 21
-2.283499
 31
0.0
  0
LINE
  8
0
  6
CONTINUOUS
 62
     7
  5
369
 10
-5.49128
 20
-2.283499
 30
0.0
 11
-5.491873
 21
-2.275996
 31
0.0
  0
LINE
  8
0
  6
CONTINUOUS
 62
     7
  5
36A
 10
-5.491873
 20
-2.275996
 30
0.0
 11
-5.49241
 21
-2.267746
 31
0.0
  0
LINE
  8
0
  6
CONTINUOUS
 62
     7
  5
36B
 10
-5.49241
 20
-2.267746
 30
0.0
 11
-5.492891
 21
-2.258701
 31
0.0
  0
LINE
  8
0
  6
CONTINUOUS
 62
     7
  5
36C
 10
-5.492891
 20
-2.258701
 30
0.0
 11
-5.493309
 21
-2.24897
 31
0.0
  0
LINE
  8
0
  6
CONTINUOUS
 62
     7
  5
36D
 10
-5.493309
 20
-2.24897
 30
0.0
 11
-5.493659
 21
-2.238684
 31
0.0
  0
LINE
  8
0
  6
CONTINUOUS
 62
     7
  5
36E
 10
-5.493659
 20
-2.238684
 30
0.0
 11
-5.493938
 21
-2.227978
 31
0.0
  0
LINE
  8
0
  6
CONTINUOUS
 62
     7
  5
36F
 10
-5.493938
 20
-2.227978
 30
0.0
 11
-5.494145
 21
-2.216997
 31
0.0
  0
LINE
  8
0
  6
CONTINUOUS
 62
     7
  5
370
 10
-5.494145
 20
-2.216997
 30
0.0
 11
-5.49428
 21
-2.205907
 31
0.0
  0
LINE
  8
0
  6
CONTINUOUS
 62
     7
  5
371
 10
-5.49428
 20
-2.205907
 30
0.0
 11
-5.494346
 21
-2.194888
 31
0.0
  0
LINE
  8
0
  6
CONTINUOUS
 62
     7
  5
372
 10
-5.494346
 20
-2.194888
 30
0.0
 11
-5.494346
 21
-2.184032
 31
0.0
  0
LINE
  8
0
  6
CONTINUOUS
 62
     7
  5
373
 10
-5.494346
 20
-2.184032
 30
0.0
 11
-5.49428
 21
-2.173013
 31
0.0
  0
LINE
  8
0
  6
CONTINUOUS
 62
     7
  5
374
 10
-5.49428
 20
-2.173013
 30
0.0
 11
-5.494145
 21
-2.161923
 31
0.0
  0
LINE
  8
0
  6
CONTINUOUS
 62
     7
  5
375
 10
-5.494145
 20
-2.161923
 30
0.0
 11
-5.493938
 21
-2.150942
 31
0.0
  0
LINE
  8
0
  6
CONTINUOUS
 62
     7
  5
376
 10
-5.493938
 20
-2.150942
 30
0.0
 11
-5.493659
 21
-2.140236
 31
0.0
  0
LINE
  8
0
  6
CONTINUOUS
 62
     7
  5
377
 10
-5.493659
 20
-2.140236
 30
0.0
 11
-5.493309
 21
-2.12995
 31
0.0
  0
LINE
  8
0
  6
CONTINUOUS
 62
     7
  5
378
 10
-5.493309
 20
-2.12995
 30
0.0
 11
-5.492891
 21
-2.120219
 31
0.0
  0
LINE
  8
0
  6
CONTINUOUS
 62
     7
  5
379
 10
-5.492891
 20
-2.120219
 30
0.0
 11
-5.49241
 21
-2.111174
 31
0.0
  0
LINE
  8
0
  6
CONTINUOUS
 62
     7
  5
37A
 10
-5.49241
 20
-2.111174
 30
0.0
 11
-5.491873
 21
-2.102924
 31
0.0
  0
LINE
  8
0
  6
CONTINUOUS
 62
     7
  5
37B
 10
-5.491873
 20
-2.102924
 30
0.0
 11
-5.49128
 21
-2.095421
 31
0.0
  0
LINE
  8
0
  6
CONTINUOUS
 62
     7
  5
37C
 10
-5.49128
 20
-2.095421
 30
0.0
 11
-5.490611
 21
-2.088484
 31
0.0
  0
LINE
  8
0
  6
CONTINUOUS
 62
     7
  5
37D
 10
-5.490611
 20
-2.088484
 30
0.0
 11
-5.489869
 21
-2.082252
 31
0.0
  0
LINE
  8
0
  6
CONTINUOUS
 62
     7
  5
37E
 10
-5.489869
 20
-2.082252
 30
0.0
 11
-5.489059
 21
-2.076851
 31
0.0
  0
LINE
  8
0
  6
CONTINUOUS
 62
     7
  5
37F
 10
-5.489059
 20
-2.076851
 30
0.0
 11
-5.488189
 21
-2.072372
 31
0.0
  0
LINE
  8
0
  6
CONTINUOUS
 62
     7
  5
380
 10
-5.488189
 20
-2.072372
 30
0.0
 11
-5.487267
 21
-2.068876
 31
0.0
  0
LINE
  8
0
  6
CONTINUOUS
 62
     7
  5
381
 10
-5.487267
 20
-2.068876
 30
0.0
 11
-5.486306
 21
-2.066395
 31
0.0
  0
LINE
  8
0
  6
CONTINUOUS
 62
     7
  5
382
 10
-5.486306
 20
-2.066395
 30
0.0
 11
-5.485319
 21
-2.064934
 31
0.0
  0
LINE
  8
0
  6
CONTINUOUS
 62
     7
  5
383
 10
-5.485319
 20
-2.064934
 30
0.0
 11
-5.484323
 21
-2.06446
 31
0.0
  0
LINE
  8
0
  6
CONTINUOUS
 62
     7
  5
384
 10
-5.471175
 20
-2.18946
 30
0.0
 11
-5.471189
 21
-2.194893
 31
0.0
  0
LINE
  8
0
  6
CONTINUOUS
 62
     7
  5
385
 10
-5.471189
 20
-2.194893
 30
0.0
 11
-5.471231
 21
-2.200388
 31
0.0
  0
LINE
  8
0
  6
CONTINUOUS
 62
     7
  5
386
 10
-5.471231
 20
-2.200388
 30
0.0
 11
-5.471303
 21
-2.205922
 31
0.0
  0
LINE
  8
0
  6
CONTINUOUS
 62
     7
  5
387
 10
-5.471303
 20
-2.205922
 30
0.0
 11
-5.471405
 21
-2.211473
 31
0.0
  0
LINE
  8
0
  6
CONTINUOUS
 62
     7
  5
388
 10
-5.471405
 20
-2.211473
 30
0.0
 11
-5.471536
 21
-2.217019
 31
0.0
  0
LINE
  8
0
  6
CONTINUOUS
 62
     7
  5
389
 10
-5.471536
 20
-2.217019
 30
0.0
 11
-5.471698
 21
-2.222536
 31
0.0
  0
LINE
  8
0
  6
CONTINUOUS
 62
     7
  5
38A
 10
-5.471698
 20
-2.222536
 30
0.0
 11
-5.471888
 21
-2.228005
 31
0.0
  0
LINE
  8
0
  6
CONTINUOUS
 62
     7
  5
38B
 10
-5.471888
 20
-2.228005
 30
0.0
 11
-5.472108
 21
-2.233403
 31
0.0
  0
LINE
  8
0
  6
CONTINUOUS
 62
     7
  5
38C
 10
-5.472108
 20
-2.233403
 30
0.0
 11
-5.472355
 21
-2.238713
 31
0.0
  0
LINE
  8
0
  6
CONTINUOUS
 62
     7
  5
38D
 10
-5.472355
 20
-2.238713
 30
0.0
 11
-5.472629
 21
-2.243917
 31
0.0
  0
LINE
  8
0
  6
CONTINUOUS
 62
     7
  5
38E
 10
-5.472629
 20
-2.243917
 30
0.0
 11
-5.472928
 21
-2.248999
 31
0.0
  0
LINE
  8
0
  6
CONTINUOUS
 62
     7
  5
38F
 10
-5.472928
 20
-2.248999
 30
0.0
 11
-5.473252
 21
-2.253941
 31
0.0
  0
LINE
  8
0
  6
CONTINUOUS
 62
     7
  5
390
 10
-5.473252
 20
-2.253941
 30
0.0
 11
-5.473597
 21
-2.258727
 31
0.0
  0
LINE
  8
0
  6
CONTINUOUS
 62
     7
  5
391
 10
-5.473597
 20
-2.258727
 30
0.0
 11
-5.473962
 21
-2.263341
 31
0.0
  0
LINE
  8
0
  6
CONTINUOUS
 62
     7
  5
392
 10
-5.473962
 20
-2.263341
 30
0.0
 11
-5.474344
 21
-2.267768
 31
0.0
  0
LINE
  8
0
  6
CONTINUOUS
 62
     7
  5
393
 10
-5.474344
 20
-2.267768
 30
0.0
 11
-5.474741
 21
-2.271995
 31
0.0
  0
LINE
  8
0
  6
CONTINUOUS
 62
     7
  5
394
 10
-5.474741
 20
-2.271995
 30
0.0
 11
-5.475151
 21
-2.276012
 31
0.0
  0
LINE
  8
0
  6
CONTINUOUS
 62
     7
  5
395
 10
-5.475151
 20
-2.276012
 30
0.0
 11
-5.475573
 21
-2.279826
 31
0.0
  0
LINE
  8
0
  6
CONTINUOUS
 62
     7
  5
396
 10
-5.475573
 20
-2.279826
 30
0.0
 11
-5.476014
 21
-2.283509
 31
0.0
  0
LINE
  8
0
  6
CONTINUOUS
 62
     7
  5
397
 10
-5.476014
 20
-2.283509
 30
0.0
 11
-5.476474
 21
-2.287054
 31
0.0
  0
LINE
  8
0
  6
CONTINUOUS
 62
     7
  5
398
 10
-5.476474
 20
-2.287054
 30
0.0
 11
-5.476952
 21
-2.290441
 31
0.0
  0
LINE
  8
0
  6
CONTINUOUS
 62
     7
  5
399
 10
-5.476952
 20
-2.290441
 30
0.0
 11
-5.477446
 21
-2.293652
 31
0.0
  0
LINE
  8
0
  6
CONTINUOUS
 62
     7
  5
39A
 10
-5.477446
 20
-2.293652
 30
0.0
 11
-5.477953
 21
-2.296669
 31
0.0
  0
LINE
  8
0
  6
CONTINUOUS
 62
     7
  5
39B
 10
-5.477953
 20
-2.296669
 30
0.0
 11
-5.478471
 21
-2.299478
 31
0.0
  0
LINE
  8
0
  6
CONTINUOUS
 62
     7
  5
39C
 10
-5.478471
 20
-2.299478
 30
0.0
 11
-5.478999
 21
-2.302067
 31
0.0
  0
LINE
  8
0
  6
CONTINUOUS
 62
     7
  5
39D
 10
-5.478999
 20
-2.302067
 30
0.0
 11
-5.479534
 21
-2.304425
 31
0.0
  0
LINE
  8
0
  6
CONTINUOUS
 62
     7
  5
39E
 10
-5.479534
 20
-2.304425
 30
0.0
 11
-5.480074
 21
-2.306544
 31
0.0
  0
LINE
  8
0
  6
CONTINUOUS
 62
     7
  5
39F
 10
-5.480074
 20
-2.306544
 30
0.0
 11
-5.480617
 21
-2.308418
 31
0.0
  0
LINE
  8
0
  6
CONTINUOUS
 62
     7
  5
3A0
 10
-5.480617
 20
-2.308418
 30
0.0
 11
-5.481161
 21
-2.310041
 31
0.0
  0
LINE
  8
0
  6
CONTINUOUS
 62
     7
  5
3A1
 10
-5.481161
 20
-2.310041
 30
0.0
 11
-5.481704
 21
-2.31141
 31
0.0
  0
LINE
  8
0
  6
CONTINUOUS
 62
     7
  5
3A2
 10
-5.481704
 20
-2.31141
 30
0.0
 11
-5.482243
 21
-2.312523
 31
0.0
  0
LINE
  8
0
  6
CONTINUOUS
 62
     7
  5
3A3
 10
-5.482243
 20
-2.312523
 30
0.0
 11
-5.482777
 21
-2.313381
 31
0.0
  0
LINE
  8
0
  6
CONTINUOUS
 62
     7
  5
3A4
 10
-5.482777
 20
-2.313381
 30
0.0
 11
-5.483302
 21
-2.313985
 31
0.0
  0
LINE
  8
0
  6
CONTINUOUS
 62
     7
  5
3A5
 10
-5.483302
 20
-2.313985
 30
0.0
 11
-5.483818
 21
-2.314343
 31
0.0
  0
LINE
  8
0
  6
CONTINUOUS
 62
     7
  5
3A6
 10
-5.483818
 20
-2.314343
 30
0.0
 11
-5.484323
 21
-2.31446
 31
0.0
  0
LINE
  8
0
  6
CONTINUOUS
 62
     7
  5
3A7
 10
-5.503596
 20
-2.06446
 30
0.0
 11
-5.503426
 21
-2.064578
 31
0.0
  0
LINE
  8
0
  6
CONTINUOUS
 62
     7
  5
3A8
 10
-5.503426
 20
-2.064578
 30
0.0
 11
-5.503249
 21
-2.064936
 31
0.0
  0
LINE
  8
0
  6
CONTINUOUS
 62
     7
  5
3A9
 10
-5.503249
 20
-2.064936
 30
0.0
 11
-5.503064
 21
-2.065543
 31
0.0
  0
LINE
  8
0
  6
CONTINUOUS
 62
     7
  5
3AA
 10
-5.503064
 20
-2.065543
 30
0.0
 11
-5.502873
 21
-2.066403
 31
0.0
  0
LINE
  8
0
  6
CONTINUOUS
 62
     7
  5
3AB
 10
-5.502873
 20
-2.066403
 30
0.0
 11
-5.502675
 21
-2.06752
 31
0.0
  0
LINE
  8
0
  6
CONTINUOUS
 62
     7
  5
3AC
 10
-5.502675
 20
-2.06752
 30
0.0
 11
-5.502473
 21
-2.068893
 31
0.0
  0
LINE
  8
0
  6
CONTINUOUS
 62
     7
  5
3AD
 10
-5.502473
 20
-2.068893
 30
0.0
 11
-5.502267
 21
-2.070522
 31
0.0
  0
LINE
  8
0
  6
CONTINUOUS
 62
     7
  5
3AE
 10
-5.502267
 20
-2.070522
 30
0.0
 11
-5.502057
 21
-2.072401
 31
0.0
  0
LINE
  8
0
  6
CONTINUOUS
 62
     7
  5
3AF
 10
-5.502057
 20
-2.072401
 30
0.0
 11
-5.501845
 21
-2.074526
 31
0.0
  0
LINE
  8
0
  6
CONTINUOUS
 62
     7
  5
3B0
 10
-5.501845
 20
-2.074526
 30
0.0
 11
-5.501632
 21
-2.076891
 31
0.0
  0
LINE
  8
0
  6
CONTINUOUS
 62
     7
  5
3B1
 10
-5.501632
 20
-2.076891
 30
0.0
 11
-5.501419
 21
-2.079486
 31
0.0
  0
LINE
  8
0
  6
CONTINUOUS
 62
     7
  5
3B2
 10
-5.501419
 20
-2.079486
 30
0.0
 11
-5.501207
 21
-2.082302
 31
0.0
  0
LINE
  8
0
  6
CONTINUOUS
 62
     7
  5
3B3
 10
-5.501207
 20
-2.082302
 30
0.0
 11
-5.500996
 21
-2.085326
 31
0.0
  0
LINE
  8
0
  6
CONTINUOUS
 62
     7
  5
3B4
 10
-5.500996
 20
-2.085326
 30
0.0
 11
-5.500789
 21
-2.088543
 31
0.0
  0
LINE
  8
0
  6
CONTINUOUS
 62
     7
  5
3B5
 10
-5.500789
 20
-2.088543
 30
0.0
 11
-5.500586
 21
-2.091935
 31
0.0
  0
LINE
  8
0
  6
CONTINUOUS
 62
     7
  5
3B6
 10
-5.500586
 20
-2.091935
 30
0.0
 11
-5.500389
 21
-2.095485
 31
0.0
  0
LINE
  8
0
  6
CONTINUOUS
 62
     7
  5
3B7
 10
-5.500389
 20
-2.095485
 30
0.0
 11
-5.500198
 21
-2.099172
 31
0.0
  0
LINE
  8
0
  6
CONTINUOUS
 62
     7
  5
3B8
 10
-5.500198
 20
-2.099172
 30
0.0
 11
-5.500014
 21
-2.10299
 31
0.0
  0
LINE
  8
0
  6
CONTINUOUS
 62
     7
  5
3B9
 10
-5.500014
 20
-2.10299
 30
0.0
 11
-5.499833
 21
-2.107011
 31
0.0
  0
LINE
  8
0
  6
CONTINUOUS
 62
     7
  5
3BA
 10
-5.499833
 20
-2.107011
 30
0.0
 11
-5.499657
 21
-2.111243
 31
0.0
  0
LINE
  8
0
  6
CONTINUOUS
 62
     7
  5
3BB
 10
-5.499657
 20
-2.111243
 30
0.0
 11
-5.499486
 21
-2.115672
 31
0.0
  0
LINE
  8
0
  6
CONTINUOUS
 62
     7
  5
3BC
 10
-5.499486
 20
-2.115672
 30
0.0
 11
-5.499322
 21
-2.120288
 31
0.0
  0
LINE
  8
0
  6
CONTINUOUS
 62
     7
  5
3BD
 10
-5.499322
 20
-2.120288
 30
0.0
 11
-5.499166
 21
-2.125073
 31
0.0
  0
LINE
  8
0
  6
CONTINUOUS
 62
     7
  5
3BE
 10
-5.499166
 20
-2.125073
 30
0.0
 11
-5.499019
 21
-2.130014
 31
0.0
  0
LINE
  8
0
  6
CONTINUOUS
 62
     7
  5
3BF
 10
-5.499019
 20
-2.130014
 30
0.0
 11
-5.498882
 21
-2.135093
 31
0.0
  0
LINE
  8
0
  6
CONTINUOUS
 62
     7
  5
3C0
 10
-5.498882
 20
-2.135093
 30
0.0
 11
-5.498756
 21
-2.140293
 31
0.0
  0
LINE
  8
0
  6
CONTINUOUS
 62
     7
  5
3C1
 10
-5.498756
 20
-2.140293
 30
0.0
 11
-5.498641
 21
-2.145597
 31
0.0
  0
LINE
  8
0
  6
CONTINUOUS
 62
     7
  5
3C2
 10
-5.498641
 20
-2.145597
 30
0.0
 11
-5.49854
 21
-2.150988
 31
0.0
  0
LINE
  8
0
  6
CONTINUOUS
 62
     7
  5
3C3
 10
-5.49854
 20
-2.150988
 30
0.0
 11
-5.498451
 21
-2.156449
 31
0.0
  0
LINE
  8
0
  6
CONTINUOUS
 62
     7
  5
3C4
 10
-5.498451
 20
-2.156449
 30
0.0
 11
-5.498376
 21
-2.161957
 31
0.0
  0
LINE
  8
0
  6
CONTINUOUS
 62
     7
  5
3C5
 10
-5.498376
 20
-2.161957
 30
0.0
 11
-5.498314
 21
-2.167493
 31
0.0
  0
LINE
  8
0
  6
CONTINUOUS
 62
     7
  5
3C6
 10
-5.498314
 20
-2.167493
 30
0.0
 11
-5.498267
 21
-2.173033
 31
0.0
  0
LINE
  8
0
  6
CONTINUOUS
 62
     7
  5
3C7
 10
-5.498267
 20
-2.173033
 30
0.0
 11
-5.498233
 21
-2.178556
 31
0.0
  0
LINE
  8
0
  6
CONTINUOUS
 62
     7
  5
3C8
 10
-5.498233
 20
-2.178556
 30
0.0
 11
-5.498213
 21
-2.184039
 31
0.0
  0
LINE
  8
0
  6
CONTINUOUS
 62
     7
  5
3C9
 10
-5.498213
 20
-2.184039
 30
0.0
 11
-5.498207
 21
-2.18946
 31
0.0
  0
LINE
  8
0
  6
CONTINUOUS
 62
     7
  5
3CA
 10
-5.503596
 20
-2.31446
 30
0.0
 11
-5.50392
 21
-2.313984
 31
0.0
  0
LINE
  8
0
  6
CONTINUOUS
 62
     7
  5
3CB
 10
-5.50392
 20
-2.313984
 30
0.0
 11
-5.504224
 21
-2.312517
 31
0.0
  0
LINE
  8
0
  6
CONTINUOUS
 62
     7
  5
3CC
 10
-5.504224
 20
-2.312517
 30
0.0
 11
-5.504504
 21
-2.310028
 31
0.0
  0
LINE
  8
0
  6
CONTINUOUS
 62
     7
  5
3CD
 10
-5.504504
 20
-2.310028
 30
0.0
 11
-5.504756
 21
-2.30652
 31
0.0
  0
LINE
  8
0
  6
CONTINUOUS
 62
     7
  5
3CE
 10
-5.504756
 20
-2.30652
 30
0.0
 11
-5.504978
 21
-2.30203
 31
0.0
  0
LINE
  8
0
  6
CONTINUOUS
 62
     7
  5
3CF
 10
-5.504978
 20
-2.30203
 30
0.0
 11
-5.505169
 21
-2.296617
 31
0.0
  0
LINE
  8
0
  6
CONTINUOUS
 62
     7
  5
3D0
 10
-5.505169
 20
-2.296617
 30
0.0
 11
-5.50533
 21
-2.290376
 31
0.0
  0
LINE
  8
0
  6
CONTINUOUS
 62
     7
  5
3D1
 10
-5.50533
 20
-2.290376
 30
0.0
 11
-5.505463
 21
-2.283432
 31
0.0
  0
LINE
  8
0
  6
CONTINUOUS
 62
     7
  5
3D2
 10
-5.505463
 20
-2.283432
 30
0.0
 11
-5.505571
 21
-2.275925
 31
0.0
  0
LINE
  8
0
  6
CONTINUOUS
 62
     7
  5
3D3
 10
-5.505571
 20
-2.275925
 30
0.0
 11
-5.50566
 21
-2.26767
 31
0.0
  0
LINE
  8
0
  6
CONTINUOUS
 62
     7
  5
3D4
 10
-5.50566
 20
-2.26767
 30
0.0
 11
-5.505732
 21
-2.258624
 31
0.0
  0
LINE
  8
0
  6
CONTINUOUS
 62
     7
  5
3D5
 10
-5.505732
 20
-2.258624
 30
0.0
 11
-5.505789
 21
-2.248896
 31
0.0
  0
LINE
  8
0
  6
CONTINUOUS
 62
     7
  5
3D6
 10
-5.505789
 20
-2.248896
 30
0.0
 11
-5.505832
 21
-2.238618
 31
0.0
  0
LINE
  8
0
  6
CONTINUOUS
 62
     7
  5
3D7
 10
-5.505832
 20
-2.238618
 30
0.0
 11
-5.505863
 21
-2.227923
 31
0.0
  0
LINE
  8
0
  6
CONTINUOUS
 62
     7
  5
3D8
 10
-5.505863
 20
-2.227923
 30
0.0
 11
-5.505884
 21
-2.216956
 31
0.0
  0
LINE
  8
0
  6
CONTINUOUS
 62
     7
  5
3D9
 10
-5.505884
 20
-2.216956
 30
0.0
 11
-5.505897
 21
-2.205882
 31
0.0
  0
LINE
  8
0
  6
CONTINUOUS
 62
     7
  5
3DA
 10
-5.505897
 20
-2.205882
 30
0.0
 11
-5.505903
 21
-2.19488
 31
0.0
  0
LINE
  8
0
  6
CONTINUOUS
 62
     7
  5
3DB
 10
-5.505903
 20
-2.19488
 30
0.0
 11
-5.505903
 21
-2.18404
 31
0.0
  0
LINE
  8
0
  6
CONTINUOUS
 62
     7
  5
3DC
 10
-5.505903
 20
-2.18404
 30
0.0
 11
-5.505897
 21
-2.173038
 31
0.0
  0
LINE
  8
0
  6
CONTINUOUS
 62
     7
  5
3DD
 10
-5.505897
 20
-2.173038
 30
0.0
 11
-5.505884
 21
-2.161964
 31
0.0
  0
LINE
  8
0
  6
CONTINUOUS
 62
     7
  5
3DE
 10
-5.505884
 20
-2.161964
 30
0.0
 11
-5.505863
 21
-2.150997
 31
0.0
  0
LINE
  8
0
  6
CONTINUOUS
 62
     7
  5
3DF
 10
-5.505863
 20
-2.150997
 30
0.0
 11
-5.505832
 21
-2.140302
 31
0.0
  0
LINE
  8
0
  6
CONTINUOUS
 62
     7
  5
3E0
 10
-5.505832
 20
-2.140302
 30
0.0
 11
-5.505789
 21
-2.130024
 31
0.0
  0
LINE
  8
0
  6
CONTINUOUS
 62
     7
  5
3E1
 10
-5.505789
 20
-2.130024
 30
0.0
 11
-5.505732
 21
-2.120296
 31
0.0
  0
LINE
  8
0
  6
CONTINUOUS
 62
     7
  5
3E2
 10
-5.505732
 20
-2.120296
 30
0.0
 11
-5.50566
 21
-2.11125
 31
0.0
  0
LINE
  8
0
  6
CONTINUOUS
 62
     7
  5
3E3
 10
-5.50566
 20
-2.11125
 30
0.0
 11
-5.505571
 21
-2.102995
 31
0.0
  0
LINE
  8
0
  6
CONTINUOUS
 62
     7
  5
3E4
 10
-5.505571
 20
-2.102995
 30
0.0
 11
-5.505463
 21
-2.095488
 31
0.0
  0
LINE
  8
0
  6
CONTINUOUS
 62
     7
  5
3E5
 10
-5.505463
 20
-2.095488
 30
0.0
 11
-5.50533
 21
-2.088544
 31
0.0
  0
LINE
  8
0
  6
CONTINUOUS
 62
     7
  5
3E6
 10
-5.50533
 20
-2.088544
 30
0.0
 11
-5.505169
 21
-2.082303
 31
0.0
  0
LINE
  8
0
  6
CONTINUOUS
 62
     7
  5
3E7
 10
-5.505169
 20
-2.082303
 30
0.0
 11
-5.504978
 21
-2.07689
 31
0.0
  0
LINE
  8
0
  6
CONTINUOUS
 62
     7
  5
3E8
 10
-5.504978
 20
-2.07689
 30
0.0
 11
-5.504756
 21
-2.0724
 31
0.0
  0
LINE
  8
0
  6
CONTINUOUS
 62
     7
  5
3E9
 10
-5.504756
 20
-2.0724
 30
0.0
 11
-5.504504
 21
-2.068892
 31
0.0
  0
LINE
  8
0
  6
CONTINUOUS
 62
     7
  5
3EA
 10
-5.504504
 20
-2.068892
 30
0.0
 11
-5.504224
 21
-2.066403
 31
0.0
  0
LINE
  8
0
  6
CONTINUOUS
 62
     7
  5
3EB
 10
-5.504224
 20
-2.066403
 30
0.0
 11
-5.50392
 21
-2.064936
 31
0.0
  0
LINE
  8
0
  6
CONTINUOUS
 62
     7
  5
3EC
 10
-5.50392
 20
-2.064936
 30
0.0
 11
-5.503596
 21
-2.06446
 31
0.0
  0
LINE
  8
0
  6
CONTINUOUS
 62
     7
  5
3ED
 10
-5.498207
 20
-2.18946
 30
0.0
 11
-5.498213
 21
-2.194881
 31
0.0
  0
LINE
  8
0
  6
CONTINUOUS
 62
     7
  5
3EE
 10
-5.498213
 20
-2.194881
 30
0.0
 11
-5.498233
 21
-2.200364
 31
0.0
  0
LINE
  8
0
  6
CONTINUOUS
 62
     7
  5
3EF
 10
-5.498233
 20
-2.200364
 30
0.0
 11
-5.498267
 21
-2.205887
 31
0.0
  0
LINE
  8
0
  6
CONTINUOUS
 62
     7
  5
3F0
 10
-5.498267
 20
-2.205887
 30
0.0
 11
-5.498314
 21
-2.211427
 31
0.0
  0
LINE
  8
0
  6
CONTINUOUS
 62
     7
  5
3F1
 10
-5.498314
 20
-2.211427
 30
0.0
 11
-5.498376
 21
-2.216963
 31
0.0
  0
LINE
  8
0
  6
CONTINUOUS
 62
     7
  5
3F2
 10
-5.498376
 20
-2.216963
 30
0.0
 11
-5.498451
 21
-2.222471
 31
0.0
  0
LINE
  8
0
  6
CONTINUOUS
 62
     7
  5
3F3
 10
-5.498451
 20
-2.222471
 30
0.0
 11
-5.49854
 21
-2.227932
 31
0.0
  0
LINE
  8
0
  6
CONTINUOUS
 62
     7
  5
3F4
 10
-5.49854
 20
-2.227932
 30
0.0
 11
-5.498641
 21
-2.233323
 31
0.0
  0
LINE
  8
0
  6
CONTINUOUS
 62
     7
  5
3F5
 10
-5.498641
 20
-2.233323
 30
0.0
 11
-5.498756
 21
-2.238627
 31
0.0
  0
LINE
  8
0
  6
CONTINUOUS
 62
     7
  5
3F6
 10
-5.498756
 20
-2.238627
 30
0.0
 11
-5.498882
 21
-2.243827
 31
0.0
  0
LINE
  8
0
  6
CONTINUOUS
 62
     7
  5
3F7
 10
-5.498882
 20
-2.243827
 30
0.0
 11
-5.499019
 21
-2.248906
 31
0.0
  0
LINE
  8
0
  6
CONTINUOUS
 62
     7
  5
3F8
 10
-5.499019
 20
-2.248906
 30
0.0
 11
-5.499166
 21
-2.253847
 31
0.0
  0
LINE
  8
0
  6
CONTINUOUS
 62
     7
  5
3F9
 10
-5.499166
 20
-2.253847
 30
0.0
 11
-5.499322
 21
-2.258632
 31
0.0
  0
LINE
  8
0
  6
CONTINUOUS
 62
     7
  5
3FA
 10
-5.499322
 20
-2.258632
 30
0.0
 11
-5.499486
 21
-2.263248
 31
0.0
  0
LINE
  8
0
  6
CONTINUOUS
 62
     7
  5
3FB
 10
-5.499486
 20
-2.263248
 30
0.0
 11
-5.499657
 21
-2.267677
 31
0.0
  0
LINE
  8
0
  6
CONTINUOUS
 62
     7
  5
3FC
 10
-5.499657
 20
-2.267677
 30
0.0
 11
-5.499833
 21
-2.271909
 31
0.0
  0
LINE
  8
0
  6
CONTINUOUS
 62
     7
  5
3FD
 10
-5.499833
 20
-2.271909
 30
0.0
 11
-5.500014
 21
-2.27593
 31
0.0
  0
LINE
  8
0
  6
CONTINUOUS
 62
     7
  5
3FE
 10
-5.500014
 20
-2.27593
 30
0.0
 11
-5.500198
 21
-2.279748
 31
0.0
  0
LINE
  8
0
  6
CONTINUOUS
 62
     7
  5
3FF
 10
-5.500198
 20
-2.279748
 30
0.0
 11
-5.500389
 21
-2.283435
 31
0.0
  0
LINE
  8
0
  6
CONTINUOUS
 62
     7
  5
400
 10
-5.500389
 20
-2.283435
 30
0.0
 11
-5.500586
 21
-2.286985
 31
0.0
  0
LINE
  8
0
  6
CONTINUOUS
 62
     7
  5
401
 10
-5.500586
 20
-2.286985
 30
0.0
 11
-5.500789
 21
-2.290377
 31
0.0
  0
LINE
  8
0
  6
CONTINUOUS
 62
     7
  5
402
 10
-5.500789
 20
-2.290377
 30
0.0
 11
-5.500996
 21
-2.293594
 31
0.0
  0
LINE
  8
0
  6
CONTINUOUS
 62
     7
  5
403
 10
-5.500996
 20
-2.293594
 30
0.0
 11
-5.501207
 21
-2.296618
 31
0.0
  0
LINE
  8
0
  6
CONTINUOUS
 62
     7
  5
404
 10
-5.501207
 20
-2.296618
 30
0.0
 11
-5.501419
 21
-2.299434
 31
0.0
  0
LINE
  8
0
  6
CONTINUOUS
 62
     7
  5
405
 10
-5.501419
 20
-2.299434
 30
0.0
 11
-5.501632
 21
-2.302029
 31
0.0
  0
LINE
  8
0
  6
CONTINUOUS
 62
     7
  5
406
 10
-5.501632
 20
-2.302029
 30
0.0
 11
-5.501845
 21
-2.304394
 31
0.0
  0
LINE
  8
0
  6
CONTINUOUS
 62
     7
  5
407
 10
-5.501845
 20
-2.304394
 30
0.0
 11
-5.502057
 21
-2.306519
 31
0.0
  0
LINE
  8
0
  6
CONTINUOUS
 62
     7
  5
408
 10
-5.502057
 20
-2.306519
 30
0.0
 11
-5.502267
 21
-2.308398
 31
0.0
  0
LINE
  8
0
  6
CONTINUOUS
 62
     7
  5
409
 10
-5.502267
 20
-2.308398
 30
0.0
 11
-5.502473
 21
-2.310027
 31
0.0
  0
LINE
  8
0
  6
CONTINUOUS
 62
     7
  5
40A
 10
-5.502473
 20
-2.310027
 30
0.0
 11
-5.502675
 21
-2.3114
 31
0.0
  0
LINE
  8
0
  6
CONTINUOUS
 62
     7
  5
40B
 10
-5.502675
 20
-2.3114
 30
0.0
 11
-5.502873
 21
-2.312517
 31
0.0
  0
LINE
  8
0
  6
CONTINUOUS
 62
     7
  5
40C
 10
-5.502873
 20
-2.312517
 30
0.0
 11
-5.503064
 21
-2.313377
 31
0.0
  0
LINE
  8
0
  6
CONTINUOUS
 62
     7
  5
40D
 10
-5.503064
 20
-2.313377
 30
0.0
 11
-5.503249
 21
-2.313984
 31
0.0
  0
LINE
  8
0
  6
CONTINUOUS
 62
     7
  5
40E
 10
-5.503249
 20
-2.313984
 30
0.0
 11
-5.503426
 21
-2.314342
 31
0.0
  0
LINE
  8
0
  6
CONTINUOUS
 62
     7
  5
40F
 10
-5.503426
 20
-2.314342
 30
0.0
 11
-5.503596
 21
-2.31446
 31
0.0
  0
LINE
  8
0
  6
CONTINUOUS
 62
     7
  5
410
 10
-5.484323
 20
2.06446
 30
0.0
 11
-5.484821
 21
2.064577
 31
0.0
  0
LINE
  8
0
  6
CONTINUOUS
 62
     7
  5
411
 10
-5.484821
 20
2.064577
 30
0.0
 11
-5.485319
 21
2.064934
 31
0.0
  0
LINE
  8
0
  6
CONTINUOUS
 62
     7
  5
412
 10
-5.485319
 20
2.064934
 30
0.0
 11
-5.485814
 21
2.065538
 31
0.0
  0
LINE
  8
0
  6
CONTINUOUS
 62
     7
  5
413
 10
-5.485814
 20
2.065538
 30
0.0
 11
-5.486306
 21
2.066395
 31
0.0
  0
LINE
  8
0
  6
CONTINUOUS
 62
     7
  5
414
 10
-5.486306
 20
2.066395
 30
0.0
 11
-5.486791
 21
2.067507
 31
0.0
  0
LINE
  8
0
  6
CONTINUOUS
 62
     7
  5
415
 10
-5.486791
 20
2.067507
 30
0.0
 11
-5.487267
 21
2.068876
 31
0.0
  0
LINE
  8
0
  6
CONTINUOUS
 62
     7
  5
416
 10
-5.487267
 20
2.068876
 30
0.0
 11
-5.487734
 21
2.070499
 31
0.0
  0
LINE
  8
0
  6
CONTINUOUS
 62
     7
  5
417
 10
-5.487734
 20
2.070499
 30
0.0
 11
-5.488189
 21
2.072372
 31
0.0
  0
LINE
  8
0
  6
CONTINUOUS
 62
     7
  5
418
 10
-5.488189
 20
2.072372
 30
0.0
 11
-5.488631
 21
2.074492
 31
0.0
  0
LINE
  8
0
  6
CONTINUOUS
 62
     7
  5
419
 10
-5.488631
 20
2.074492
 30
0.0
 11
-5.489059
 21
2.076851
 31
0.0
  0
LINE
  8
0
  6
CONTINUOUS
 62
     7
  5
41A
 10
-5.489059
 20
2.076851
 30
0.0
 11
-5.489472
 21
2.079441
 31
0.0
  0
LINE
  8
0
  6
CONTINUOUS
 62
     7
  5
41B
 10
-5.489472
 20
2.079441
 30
0.0
 11
-5.489869
 21
2.082252
 31
0.0
  0
LINE
  8
0
  6
CONTINUOUS
 62
     7
  5
41C
 10
-5.489869
 20
2.082252
 30
0.0
 11
-5.490249
 21
2.085271
 31
0.0
  0
LINE
  8
0
  6
CONTINUOUS
 62
     7
  5
41D
 10
-5.490249
 20
2.085271
 30
0.0
 11
-5.490611
 21
2.088484
 31
0.0
  0
LINE
  8
0
  6
CONTINUOUS
 62
     7
  5
41E
 10
-5.490611
 20
2.088484
 30
0.0
 11
-5.490955
 21
2.091873
 31
0.0
  0
LINE
  8
0
  6
CONTINUOUS
 62
     7
  5
41F
 10
-5.490955
 20
2.091873
 30
0.0
 11
-5.49128
 21
2.095421
 31
0.0
  0
LINE
  8
0
  6
CONTINUOUS
 62
     7
  5
420
 10
-5.49128
 20
2.095421
 30
0.0
 11
-5.491586
 21
2.099107
 31
0.0
  0
LINE
  8
0
  6
CONTINUOUS
 62
     7
  5
421
 10
-5.491586
 20
2.099107
 30
0.0
 11
-5.491873
 21
2.102924
 31
0.0
  0
LINE
  8
0
  6
CONTINUOUS
 62
     7
  5
422
 10
-5.491873
 20
2.102924
 30
0.0
 11
-5.492148
 21
2.106943
 31
0.0
  0
LINE
  8
0
  6
CONTINUOUS
 62
     7
  5
423
 10
-5.492148
 20
2.106943
 30
0.0
 11
-5.49241
 21
2.111174
 31
0.0
  0
LINE
  8
0
  6
CONTINUOUS
 62
     7
  5
424
 10
-5.49241
 20
2.111174
 30
0.0
 11
-5.492658
 21
2.115603
 31
0.0
  0
LINE
  8
0
  6
CONTINUOUS
 62
     7
  5
425
 10
-5.492658
 20
2.115603
 30
0.0
 11
-5.492891
 21
2.120219
 31
0.0
  0
LINE
  8
0
  6
CONTINUOUS
 62
     7
  5
426
 10
-5.492891
 20
2.120219
 30
0.0
 11
-5.493108
 21
2.125007
 31
0.0
  0
LINE
  8
0
  6
CONTINUOUS
 62
     7
  5
427
 10
-5.493108
 20
2.125007
 30
0.0
 11
-5.493309
 21
2.12995
 31
0.0
  0
LINE
  8
0
  6
CONTINUOUS
 62
     7
  5
428
 10
-5.493309
 20
2.12995
 30
0.0
 11
-5.493493
 21
2.135032
 31
0.0
  0
LINE
  8
0
  6
CONTINUOUS
 62
     7
  5
429
 10
-5.493493
 20
2.135032
 30
0.0
 11
-5.493659
 21
2.140236
 31
0.0
  0
LINE
  8
0
  6
CONTINUOUS
 62
     7
  5
42A
 10
-5.493659
 20
2.140236
 30
0.0
 11
-5.493807
 21
2.145545
 31
0.0
  0
LINE
  8
0
  6
CONTINUOUS
 62
     7
  5
42B
 10
-5.493807
 20
2.145545
 30
0.0
 11
-5.493938
 21
2.150942
 31
0.0
  0
LINE
  8
0
  6
CONTINUOUS
 62
     7
  5
42C
 10
-5.493938
 20
2.150942
 30
0.0
 11
-5.49405
 21
2.156408
 31
0.0
  0
LINE
  8
0
  6
CONTINUOUS
 62
     7
  5
42D
 10
-5.49405
 20
2.156408
 30
0.0
 11
-5.494145
 21
2.161923
 31
0.0
  0
LINE
  8
0
  6
CONTINUOUS
 62
     7
  5
42E
 10
-5.494145
 20
2.161923
 30
0.0
 11
-5.494221
 21
2.167465
 31
0.0
  0
LINE
  8
0
  6
CONTINUOUS
 62
     7
  5
42F
 10
-5.494221
 20
2.167465
 30
0.0
 11
-5.49428
 21
2.173013
 31
0.0
  0
LINE
  8
0
  6
CONTINUOUS
 62
     7
  5
430
 10
-5.49428
 20
2.173013
 30
0.0
 11
-5.494322
 21
2.178542
 31
0.0
  0
LINE
  8
0
  6
CONTINUOUS
 62
     7
  5
431
 10
-5.494322
 20
2.178542
 30
0.0
 11
-5.494346
 21
2.184032
 31
0.0
  0
LINE
  8
0
  6
CONTINUOUS
 62
     7
  5
432
 10
-5.494346
 20
2.184032
 30
0.0
 11
-5.494354
 21
2.18946
 31
0.0
  0
LINE
  8
0
  6
CONTINUOUS
 62
     7
  5
433
 10
-5.484323
 20
2.31446
 30
0.0
 11
-5.483302
 21
2.313985
 31
0.0
  0
LINE
  8
0
  6
CONTINUOUS
 62
     7
  5
434
 10
-5.483302
 20
2.313985
 30
0.0
 11
-5.482243
 21
2.312523
 31
0.0
  0
LINE
  8
0
  6
CONTINUOUS
 62
     7
  5
435
 10
-5.482243
 20
2.312523
 30
0.0
 11
-5.481161
 21
2.310041
 31
0.0
  0
LINE
  8
0
  6
CONTINUOUS
 62
     7
  5
436
 10
-5.481161
 20
2.310041
 30
0.0
 11
-5.480074
 21
2.306544
 31
0.0
  0
LINE
  8
0
  6
CONTINUOUS
 62
     7
  5
437
 10
-5.480074
 20
2.306544
 30
0.0
 11
-5.478999
 21
2.302067
 31
0.0
  0
LINE
  8
0
  6
CONTINUOUS
 62
     7
  5
438
 10
-5.478999
 20
2.302067
 30
0.0
 11
-5.477953
 21
2.296669
 31
0.0
  0
LINE
  8
0
  6
CONTINUOUS
 62
     7
  5
439
 10
-5.477953
 20
2.296669
 30
0.0
 11
-5.476952
 21
2.290441
 31
0.0
  0
LINE
  8
0
  6
CONTINUOUS
 62
     7
  5
43A
 10
-5.476952
 20
2.290441
 30
0.0
 11
-5.476014
 21
2.283509
 31
0.0
  0
LINE
  8
0
  6
CONTINUOUS
 62
     7
  5
43B
 10
-5.476014
 20
2.283509
 30
0.0
 11
-5.475151
 21
2.276012
 31
0.0
  0
LINE
  8
0
  6
CONTINUOUS
 62
     7
  5
43C
 10
-5.475151
 20
2.276012
 30
0.0
 11
-5.474344
 21
2.267768
 31
0.0
  0
LINE
  8
0
  6
CONTINUOUS
 62
     7
  5
43D
 10
-5.474344
 20
2.267768
 30
0.0
 11
-5.473597
 21
2.258727
 31
0.0
  0
LINE
  8
0
  6
CONTINUOUS
 62
     7
  5
43E
 10
-5.473597
 20
2.258727
 30
0.0
 11
-5.472928
 21
2.248999
 31
0.0
  0
LINE
  8
0
  6
CONTINUOUS
 62
     7
  5
43F
 10
-5.472928
 20
2.248999
 30
0.0
 11
-5.472355
 21
2.238713
 31
0.0
  0
LINE
  8
0
  6
CONTINUOUS
 62
     7
  5
440
 10
-5.472355
 20
2.238713
 30
0.0
 11
-5.471888
 21
2.228005
 31
0.0
  0
LINE
  8
0
  6
CONTINUOUS
 62
     7
  5
441
 10
-5.471888
 20
2.228005
 30
0.0
 11
-5.471536
 21
2.217019
 31
0.0
  0
LINE
  8
0
  6
CONTINUOUS
 62
     7
  5
442
 10
-5.471536
 20
2.217019
 30
0.0
 11
-5.471303
 21
2.205922
 31
0.0
  0
LINE
  8
0
  6
CONTINUOUS
 62
     7
  5
443
 10
-5.471303
 20
2.205922
 30
0.0
 11
-5.471189
 21
2.194893
 31
0.0
  0
LINE
  8
0
  6
CONTINUOUS
 62
     7
  5
444
 10
-5.471189
 20
2.194893
 30
0.0
 11
-5.471189
 21
2.184027
 31
0.0
  0
LINE
  8
0
  6
CONTINUOUS
 62
     7
  5
445
 10
-5.471189
 20
2.184027
 30
0.0
 11
-5.471303
 21
2.172998
 31
0.0
  0
LINE
  8
0
  6
CONTINUOUS
 62
     7
  5
446
 10
-5.471303
 20
2.172998
 30
0.0
 11
-5.471536
 21
2.161901
 31
0.0
  0
LINE
  8
0
  6
CONTINUOUS
 62
     7
  5
447
 10
-5.471536
 20
2.161901
 30
0.0
 11
-5.471888
 21
2.150915
 31
0.0
  0
LINE
  8
0
  6
CONTINUOUS
 62
     7
  5
448
 10
-5.471888
 20
2.150915
 30
0.0
 11
-5.472355
 21
2.140207
 31
0.0
  0
LINE
  8
0
  6
CONTINUOUS
 62
     7
  5
449
 10
-5.472355
 20
2.140207
 30
0.0
 11
-5.472928
 21
2.129921
 31
0.0
  0
LINE
  8
0
  6
CONTINUOUS
 62
     7
  5
44A
 10
-5.472928
 20
2.129921
 30
0.0
 11
-5.473597
 21
2.120193
 31
0.0
  0
LINE
  8
0
  6
CONTINUOUS
 62
     7
  5
44B
 10
-5.473597
 20
2.120193
 30
0.0
 11
-5.474344
 21
2.111152
 31
0.0
  0
LINE
  8
0
  6
CONTINUOUS
 62
     7
  5
44C
 10
-5.474344
 20
2.111152
 30
0.0
 11
-5.475151
 21
2.102908
 31
0.0
  0
LINE
  8
0
  6
CONTINUOUS
 62
     7
  5
44D
 10
-5.475151
 20
2.102908
 30
0.0
 11
-5.476014
 21
2.095411
 31
0.0
  0
LINE
  8
0
  6
CONTINUOUS
 62
     7
  5
44E
 10
-5.476014
 20
2.095411
 30
0.0
 11
-5.476952
 21
2.088479
 31
0.0
  0
LINE
  8
0
  6
CONTINUOUS
 62
     7
  5
44F
 10
-5.476952
 20
2.088479
 30
0.0
 11
-5.477953
 21
2.082251
 31
0.0
  0
LINE
  8
0
  6
CONTINUOUS
 62
     7
  5
450
 10
-5.477953
 20
2.082251
 30
0.0
 11
-5.478999
 21
2.076853
 31
0.0
  0
LINE
  8
0
  6
CONTINUOUS
 62
     7
  5
451
 10
-5.478999
 20
2.076853
 30
0.0
 11
-5.480074
 21
2.072376
 31
0.0
  0
LINE
  8
0
  6
CONTINUOUS
 62
     7
  5
452
 10
-5.480074
 20
2.072376
 30
0.0
 11
-5.481161
 21
2.068879
 31
0.0
  0
LINE
  8
0
  6
CONTINUOUS
 62
     7
  5
453
 10
-5.481161
 20
2.068879
 30
0.0
 11
-5.482243
 21
2.066397
 31
0.0
  0
LINE
  8
0
  6
CONTINUOUS
 62
     7
  5
454
 10
-5.482243
 20
2.066397
 30
0.0
 11
-5.483302
 21
2.064935
 31
0.0
  0
LINE
  8
0
  6
CONTINUOUS
 62
     7
  5
455
 10
-5.483302
 20
2.064935
 30
0.0
 11
-5.484323
 21
2.06446
 31
0.0
  0
LINE
  8
0
  6
CONTINUOUS
 62
     7
  5
456
 10
-5.494354
 20
2.18946
 30
0.0
 11
-5.494346
 21
2.194888
 31
0.0
  0
LINE
  8
0
  6
CONTINUOUS
 62
     7
  5
457
 10
-5.494346
 20
2.194888
 30
0.0
 11
-5.494322
 21
2.200378
 31
0.0
  0
LINE
  8
0
  6
CONTINUOUS
 62
     7
  5
458
 10
-5.494322
 20
2.200378
 30
0.0
 11
-5.49428
 21
2.205907
 31
0.0
  0
LINE
  8
0
  6
CONTINUOUS
 62
     7
  5
459
 10
-5.49428
 20
2.205907
 30
0.0
 11
-5.494221
 21
2.211455
 31
0.0
  0
LINE
  8
0
  6
CONTINUOUS
 62
     7
  5
45A
 10
-5.494221
 20
2.211455
 30
0.0
 11
-5.494145
 21
2.216997
 31
0.0
  0
LINE
  8
0
  6
CONTINUOUS
 62
     7
  5
45B
 10
-5.494145
 20
2.216997
 30
0.0
 11
-5.49405
 21
2.222512
 31
0.0
  0
LINE
  8
0
  6
CONTINUOUS
 62
     7
  5
45C
 10
-5.49405
 20
2.222512
 30
0.0
 11
-5.493938
 21
2.227978
 31
0.0
  0
LINE
  8
0
  6
CONTINUOUS
 62
     7
  5
45D
 10
-5.493938
 20
2.227978
 30
0.0
 11
-5.493807
 21
2.233375
 31
0.0
  0
LINE
  8
0
  6
CONTINUOUS
 62
     7
  5
45E
 10
-5.493807
 20
2.233375
 30
0.0
 11
-5.493659
 21
2.238684
 31
0.0
  0
LINE
  8
0
  6
CONTINUOUS
 62
     7
  5
45F
 10
-5.493659
 20
2.238684
 30
0.0
 11
-5.493493
 21
2.243888
 31
0.0
  0
LINE
  8
0
  6
CONTINUOUS
 62
     7
  5
460
 10
-5.493493
 20
2.243888
 30
0.0
 11
-5.493309
 21
2.24897
 31
0.0
  0
LINE
  8
0
  6
CONTINUOUS
 62
     7
  5
461
 10
-5.493309
 20
2.24897
 30
0.0
 11
-5.493108
 21
2.253913
 31
0.0
  0
LINE
  8
0
  6
CONTINUOUS
 62
     7
  5
462
 10
-5.493108
 20
2.253913
 30
0.0
 11
-5.492891
 21
2.258701
 31
0.0
  0
LINE
  8
0
  6
CONTINUOUS
 62
     7
  5
463
 10
-5.492891
 20
2.258701
 30
0.0
 11
-5.492658
 21
2.263317
 31
0.0
  0
LINE
  8
0
  6
CONTINUOUS
 62
     7
  5
464
 10
-5.492658
 20
2.263317
 30
0.0
 11
-5.49241
 21
2.267746
 31
0.0
  0
LINE
  8
0
  6
CONTINUOUS
 62
     7
  5
465
 10
-5.49241
 20
2.267746
 30
0.0
 11
-5.492148
 21
2.271977
 31
0.0
  0
LINE
  8
0
  6
CONTINUOUS
 62
     7
  5
466
 10
-5.492148
 20
2.271977
 30
0.0
 11
-5.491873
 21
2.275996
 31
0.0
  0
LINE
  8
0
  6
CONTINUOUS
 62
     7
  5
467
 10
-5.491873
 20
2.275996
 30
0.0
 11
-5.491586
 21
2.279813
 31
0.0
  0
LINE
  8
0
  6
CONTINUOUS
 62
     7
  5
468
 10
-5.491586
 20
2.279813
 30
0.0
 11
-5.49128
 21
2.283499
 31
0.0
  0
LINE
  8
0
  6
CONTINUOUS
 62
     7
  5
469
 10
-5.49128
 20
2.283499
 30
0.0
 11
-5.490955
 21
2.287047
 31
0.0
  0
LINE
  8
0
  6
CONTINUOUS
 62
     7
  5
46A
 10
-5.490955
 20
2.287047
 30
0.0
 11
-5.490611
 21
2.290436
 31
0.0
  0
LINE
  8
0
  6
CONTINUOUS
 62
     7
  5
46B
 10
-5.490611
 20
2.290436
 30
0.0
 11
-5.490249
 21
2.293649
 31
0.0
  0
LINE
  8
0
  6
CONTINUOUS
 62
     7
  5
46C
 10
-5.490249
 20
2.293649
 30
0.0
 11
-5.489869
 21
2.296668
 31
0.0
  0
LINE
  8
0
  6
CONTINUOUS
 62
     7
  5
46D
 10
-5.489869
 20
2.296668
 30
0.0
 11
-5.489472
 21
2.299479
 31
0.0
  0
LINE
  8
0
  6
CONTINUOUS
 62
     7
  5
46E
 10
-5.489472
 20
2.299479
 30
0.0
 11
-5.489059
 21
2.302069
 31
0.0
  0
LINE
  8
0
  6
CONTINUOUS
 62
     7
  5
46F
 10
-5.489059
 20
2.302069
 30
0.0
 11
-5.488631
 21
2.304428
 31
0.0
  0
LINE
  8
0
  6
CONTINUOUS
 62
     7
  5
470
 10
-5.488631
 20
2.304428
 30
0.0
 11
-5.488189
 21
2.306548
 31
0.0
  0
LINE
  8
0
  6
CONTINUOUS
 62
     7
  5
471
 10
-5.488189
 20
2.306548
 30
0.0
 11
-5.487734
 21
2.308421
 31
0.0
  0
LINE
  8
0
  6
CONTINUOUS
 62
     7
  5
472
 10
-5.487734
 20
2.308421
 30
0.0
 11
-5.487267
 21
2.310044
 31
0.0
  0
LINE
  8
0
  6
CONTINUOUS
 62
     7
  5
473
 10
-5.487267
 20
2.310044
 30
0.0
 11
-5.486791
 21
2.311413
 31
0.0
  0
LINE
  8
0
  6
CONTINUOUS
 62
     7
  5
474
 10
-5.486791
 20
2.311413
 30
0.0
 11
-5.486306
 21
2.312525
 31
0.0
  0
LINE
  8
0
  6
CONTINUOUS
 62
     7
  5
475
 10
-5.486306
 20
2.312525
 30
0.0
 11
-5.485814
 21
2.313382
 31
0.0
  0
LINE
  8
0
  6
CONTINUOUS
 62
     7
  5
476
 10
-5.485814
 20
2.313382
 30
0.0
 11
-5.485319
 21
2.313986
 31
0.0
  0
LINE
  8
0
  6
CONTINUOUS
 62
     7
  5
477
 10
-5.485319
 20
2.313986
 30
0.0
 11
-5.484821
 21
2.314343
 31
0.0
  0
LINE
  8
0
  6
CONTINUOUS
 62
     7
  5
478
 10
-5.484821
 20
2.314343
 30
0.0
 11
-5.484323
 21
2.31446
 31
0.0
  0
LINE
  8
0
  6
CONTINUOUS
 62
     7
  5
479
 10
-5.503596
 20
2.06446
 30
0.0
 11
-5.50376
 21
2.064577
 31
0.0
  0
LINE
  8
0
  6
CONTINUOUS
 62
     7
  5
47A
 10
-5.50376
 20
2.064577
 30
0.0
 11
-5.50392
 21
2.064936
 31
0.0
  0
LINE
  8
0
  6
CONTINUOUS
 62
     7
  5
47B
 10
-5.50392
 20
2.064936
 30
0.0
 11
-5.504075
 21
2.065543
 31
0.0
  0
LINE
  8
0
  6
CONTINUOUS
 62
     7
  5
47C
 10
-5.504075
 20
2.065543
 30
0.0
 11
-5.504224
 21
2.066403
 31
0.0
  0
LINE
  8
0
  6
CONTINUOUS
 62
     7
  5
47D
 10
-5.504224
 20
2.066403
 30
0.0
 11
-5.504367
 21
2.067519
 31
0.0
  0
LINE
  8
0
  6
CONTINUOUS
 62
     7
  5
47E
 10
-5.504367
 20
2.067519
 30
0.0
 11
-5.504504
 21
2.068892
 31
0.0
  0
LINE
  8
0
  6
CONTINUOUS
 62
     7
  5
47F
 10
-5.504504
 20
2.068892
 30
0.0
 11
-5.504634
 21
2.07052
 31
0.0
  0
LINE
  8
0
  6
CONTINUOUS
 62
     7
  5
480
 10
-5.504634
 20
2.07052
 30
0.0
 11
-5.504756
 21
2.0724
 31
0.0
  0
LINE
  8
0
  6
CONTINUOUS
 62
     7
  5
481
 10
-5.504756
 20
2.0724
 30
0.0
 11
-5.504871
 21
2.074525
 31
0.0
  0
LINE
  8
0
  6
CONTINUOUS
 62
     7
  5
482
 10
-5.504871
 20
2.074525
 30
0.0
 11
-5.504978
 21
2.07689
 31
0.0
  0
LINE
  8
0
  6
CONTINUOUS
 62
     7
  5
483
 10
-5.504978
 20
2.07689
 30
0.0
 11
-5.505077
 21
2.079486
 31
0.0
  0
LINE
  8
0
  6
CONTINUOUS
 62
     7
  5
484
 10
-5.505077
 20
2.079486
 30
0.0
 11
-5.505169
 21
2.082303
 31
0.0
  0
LINE
  8
0
  6
CONTINUOUS
 62
     7
  5
485
 10
-5.505169
 20
2.082303
 30
0.0
 11
-5.505253
 21
2.085327
 31
0.0
  0
LINE
  8
0
  6
CONTINUOUS
 62
     7
  5
486
 10
-5.505253
 20
2.085327
 30
0.0
 11
-5.50533
 21
2.088544
 31
0.0
  0
LINE
  8
0
  6
CONTINUOUS
 62
     7
  5
487
 10
-5.50533
 20
2.088544
 30
0.0
 11
-5.5054
 21
2.091938
 31
0.0
  0
LINE
  8
0
  6
CONTINUOUS
 62
     7
  5
488
 10
-5.5054
 20
2.091938
 30
0.0
 11
-5.505463
 21
2.095488
 31
0.0
  0
LINE
  8
0
  6
CONTINUOUS
 62
     7
  5
489
 10
-5.505463
 20
2.095488
 30
0.0
 11
-5.50552
 21
2.099176
 31
0.0
  0
LINE
  8
0
  6
CONTINUOUS
 62
     7
  5
48A
 10
-5.50552
 20
2.099176
 30
0.0
 11
-5.505571
 21
2.102995
 31
0.0
  0
LINE
  8
0
  6
CONTINUOUS
 62
     7
  5
48B
 10
-5.505571
 20
2.102995
 30
0.0
 11
-5.505618
 21
2.107018
 31
0.0
  0
LINE
  8
0
  6
CONTINUOUS
 62
     7
  5
48C
 10
-5.505618
 20
2.107018
 30
0.0
 11
-5.50566
 21
2.11125
 31
0.0
  0
LINE
  8
0
  6
CONTINUOUS
 62
     7
  5
48D
 10
-5.50566
 20
2.11125
 30
0.0
 11
-5.505698
 21
2.115681
 31
0.0
  0
LINE
  8
0
  6
CONTINUOUS
 62
     7
  5
48E
 10
-5.505698
 20
2.115681
 30
0.0
 11
-5.505732
 21
2.120296
 31
0.0
  0
LINE
  8
0
  6
CONTINUOUS
 62
     7
  5
48F
 10
-5.505732
 20
2.120296
 30
0.0
 11
-5.505763
 21
2.125083
 31
0.0
  0
LINE
  8
0
  6
CONTINUOUS
 62
     7
  5
490
 10
-5.505763
 20
2.125083
 30
0.0
 11
-5.505789
 21
2.130024
 31
0.0
  0
LINE
  8
0
  6
CONTINUOUS
 62
     7
  5
491
 10
-5.505789
 20
2.130024
 30
0.0
 11
-5.505812
 21
2.135103
 31
0.0
  0
LINE
  8
0
  6
CONTINUOUS
 62
     7
  5
492
 10
-5.505812
 20
2.135103
 30
0.0
 11
-5.505832
 21
2.140302
 31
0.0
  0
LINE
  8
0
  6
CONTINUOUS
 62
     7
  5
493
 10
-5.505832
 20
2.140302
 30
0.0
 11
-5.505849
 21
2.145606
 31
0.0
  0
LINE
  8
0
  6
CONTINUOUS
 62
     7
  5
494
 10
-5.505849
 20
2.145606
 30
0.0
 11
-5.505863
 21
2.150997
 31
0.0
  0
LINE
  8
0
  6
CONTINUOUS
 62
     7
  5
495
 10
-5.505863
 20
2.150997
 30
0.0
 11
-5.505875
 21
2.156457
 31
0.0
  0
LINE
  8
0
  6
CONTINUOUS
 62
     7
  5
496
 10
-5.505875
 20
2.156457
 30
0.0
 11
-5.505884
 21
2.161964
 31
0.0
  0
LINE
  8
0
  6
CONTINUOUS
 62
     7
  5
497
 10
-5.505884
 20
2.161964
 30
0.0
 11
-5.505892
 21
2.167499
 31
0.0
  0
LINE
  8
0
  6
CONTINUOUS
 62
     7
  5
498
 10
-5.505892
 20
2.167499
 30
0.0
 11
-5.505897
 21
2.173038
 31
0.0
  0
LINE
  8
0
  6
CONTINUOUS
 62
     7
  5
499
 10
-5.505897
 20
2.173038
 30
0.0
 11
-5.505901
 21
2.178559
 31
0.0
  0
LINE
  8
0
  6
CONTINUOUS
 62
     7
  5
49A
 10
-5.505901
 20
2.178559
 30
0.0
 11
-5.505903
 21
2.18404
 31
0.0
  0
LINE
  8
0
  6
CONTINUOUS
 62
     7
  5
49B
 10
-5.505903
 20
2.18404
 30
0.0
 11
-5.505904
 21
2.18946
 31
0.0
  0
LINE
  8
0
  6
CONTINUOUS
 62
     7
  5
49C
 10
-5.503596
 20
2.31446
 30
0.0
 11
-5.503249
 21
2.313984
 31
0.0
  0
LINE
  8
0
  6
CONTINUOUS
 62
     7
  5
49D
 10
-5.503249
 20
2.313984
 30
0.0
 11
-5.502873
 21
2.312517
 31
0.0
  0
LINE
  8
0
  6
CONTINUOUS
 62
     7
  5
49E
 10
-5.502873
 20
2.312517
 30
0.0
 11
-5.502473
 21
2.310027
 31
0.0
  0
LINE
  8
0
  6
CONTINUOUS
 62
     7
  5
49F
 10
-5.502473
 20
2.310027
 30
0.0
 11
-5.502057
 21
2.306519
 31
0.0
  0
LINE
  8
0
  6
CONTINUOUS
 62
     7
  5
4A0
 10
-5.502057
 20
2.306519
 30
0.0
 11
-5.501632
 21
2.302029
 31
0.0
  0
LINE
  8
0
  6
CONTINUOUS
 62
     7
  5
4A1
 10
-5.501632
 20
2.302029
 30
0.0
 11
-5.501207
 21
2.296618
 31
0.0
  0
LINE
  8
0
  6
CONTINUOUS
 62
     7
  5
4A2
 10
-5.501207
 20
2.296618
 30
0.0
 11
-5.500789
 21
2.290377
 31
0.0
  0
LINE
  8
0
  6
CONTINUOUS
 62
     7
  5
4A3
 10
-5.500789
 20
2.290377
 30
0.0
 11
-5.500389
 21
2.283435
 31
0.0
  0
LINE
  8
0
  6
CONTINUOUS
 62
     7
  5
4A4
 10
-5.500389
 20
2.283435
 30
0.0
 11
-5.500014
 21
2.27593
 31
0.0
  0
LINE
  8
0
  6
CONTINUOUS
 62
     7
  5
4A5
 10
-5.500014
 20
2.27593
 30
0.0
 11
-5.499657
 21
2.267677
 31
0.0
  0
LINE
  8
0
  6
CONTINUOUS
 62
     7
  5
4A6
 10
-5.499657
 20
2.267677
 30
0.0
 11
-5.499322
 21
2.258632
 31
0.0
  0
LINE
  8
0
  6
CONTINUOUS
 62
     7
  5
4A7
 10
-5.499322
 20
2.258632
 30
0.0
 11
-5.499019
 21
2.248906
 31
0.0
  0
LINE
  8
0
  6
CONTINUOUS
 62
     7
  5
4A8
 10
-5.499019
 20
2.248906
 30
0.0
 11
-5.498756
 21
2.238627
 31
0.0
  0
LINE
  8
0
  6
CONTINUOUS
 62
     7
  5
4A9
 10
-5.498756
 20
2.238627
 30
0.0
 11
-5.49854
 21
2.227932
 31
0.0
  0
LINE
  8
0
  6
CONTINUOUS
 62
     7
  5
4AA
 10
-5.49854
 20
2.227932
 30
0.0
 11
-5.498376
 21
2.216963
 31
0.0
  0
LINE
  8
0
  6
CONTINUOUS
 62
     7
  5
4AB
 10
-5.498376
 20
2.216963
 30
0.0
 11
-5.498267
 21
2.205887
 31
0.0
  0
LINE
  8
0
  6
CONTINUOUS
 62
     7
  5
4AC
 10
-5.498267
 20
2.205887
 30
0.0
 11
-5.498213
 21
2.194881
 31
0.0
  0
LINE
  8
0
  6
CONTINUOUS
 62
     7
  5
4AD
 10
-5.498213
 20
2.194881
 30
0.0
 11
-5.498213
 21
2.184039
 31
0.0
  0
LINE
  8
0
  6
CONTINUOUS
 62
     7
  5
4AE
 10
-5.498213
 20
2.184039
 30
0.0
 11
-5.498267
 21
2.173033
 31
0.0
  0
LINE
  8
0
  6
CONTINUOUS
 62
     7
  5
4AF
 10
-5.498267
 20
2.173033
 30
0.0
 11
-5.498376
 21
2.161957
 31
0.0
  0
LINE
  8
0
  6
CONTINUOUS
 62
     7
  5
4B0
 10
-5.498376
 20
2.161957
 30
0.0
 11
-5.49854
 21
2.150988
 31
0.0
  0
LINE
  8
0
  6
CONTINUOUS
 62
     7
  5
4B1
 10
-5.49854
 20
2.150988
 30
0.0
 11
-5.498756
 21
2.140293
 31
0.0
  0
LINE
  8
0
  6
CONTINUOUS
 62
     7
  5
4B2
 10
-5.498756
 20
2.140293
 30
0.0
 11
-5.499019
 21
2.130014
 31
0.0
  0
LINE
  8
0
  6
CONTINUOUS
 62
     7
  5
4B3
 10
-5.499019
 20
2.130014
 30
0.0
 11
-5.499322
 21
2.120288
 31
0.0
  0
LINE
  8
0
  6
CONTINUOUS
 62
     7
  5
4B4
 10
-5.499322
 20
2.120288
 30
0.0
 11
-5.499657
 21
2.111243
 31
0.0
  0
LINE
  8
0
  6
CONTINUOUS
 62
     7
  5
4B5
 10
-5.499657
 20
2.111243
 30
0.0
 11
-5.500014
 21
2.10299
 31
0.0
  0
LINE
  8
0
  6
CONTINUOUS
 62
     7
  5
4B6
 10
-5.500014
 20
2.10299
 30
0.0
 11
-5.500389
 21
2.095485
 31
0.0
  0
LINE
  8
0
  6
CONTINUOUS
 62
     7
  5
4B7
 10
-5.500389
 20
2.095485
 30
0.0
 11
-5.500789
 21
2.088543
 31
0.0
  0
LINE
  8
0
  6
CONTINUOUS
 62
     7
  5
4B8
 10
-5.500789
 20
2.088543
 30
0.0
 11
-5.501207
 21
2.082302
 31
0.0
  0
LINE
  8
0
  6
CONTINUOUS
 62
     7
  5
4B9
 10
-5.501207
 20
2.082302
 30
0.0
 11
-5.501632
 21
2.076891
 31
0.0
  0
LINE
  8
0
  6
CONTINUOUS
 62
     7
  5
4BA
 10
-5.501632
 20
2.076891
 30
0.0
 11
-5.502057
 21
2.072401
 31
0.0
  0
LINE
  8
0
  6
CONTINUOUS
 62
     7
  5
4BB
 10
-5.502057
 20
2.072401
 30
0.0
 11
-5.502473
 21
2.068893
 31
0.0
  0
LINE
  8
0
  6
CONTINUOUS
 62
     7
  5
4BC
 10
-5.502473
 20
2.068893
 30
0.0
 11
-5.502873
 21
2.066403
 31
0.0
  0
LINE
  8
0
  6
CONTINUOUS
 62
     7
  5
4BD
 10
-5.502873
 20
2.066403
 30
0.0
 11
-5.503249
 21
2.064936
 31
0.0
  0
LINE
  8
0
  6
CONTINUOUS
 62
     7
  5
4BE
 10
-5.503249
 20
2.064936
 30
0.0
 11
-5.503596
 21
2.06446
 31
0.0
  0
LINE
  8
0
  6
CONTINUOUS
 62
     7
  5
4BF
 10
-5.505904
 20
2.18946
 30
0.0
 11
-5.505903
 21
2.19488
 31
0.0
  0
LINE
  8
0
  6
CONTINUOUS
 62
     7
  5
4C0
 10
-5.505903
 20
2.19488
 30
0.0
 11
-5.505901
 21
2.200361
 31
0.0
  0
LINE
  8
0
  6
CONTINUOUS
 62
     7
  5
4C1
 10
-5.505901
 20
2.200361
 30
0.0
 11
-5.505897
 21
2.205882
 31
0.0
  0
LINE
  8
0
  6
CONTINUOUS
 62
     7
  5
4C2
 10
-5.505897
 20
2.205882
 30
0.0
 11
-5.505892
 21
2.211421
 31
0.0
  0
LINE
  8
0
  6
CONTINUOUS
 62
     7
  5
4C3
 10
-5.505892
 20
2.211421
 30
0.0
 11
-5.505884
 21
2.216956
 31
0.0
  0
LINE
  8
0
  6
CONTINUOUS
 62
     7
  5
4C4
 10
-5.505884
 20
2.216956
 30
0.0
 11
-5.505875
 21
2.222463
 31
0.0
  0
LINE
  8
0
  6
CONTINUOUS
 62
     7
  5
4C5
 10
-5.505875
 20
2.222463
 30
0.0
 11
-5.505863
 21
2.227923
 31
0.0
  0
LINE
  8
0
  6
CONTINUOUS
 62
     7
  5
4C6
 10
-5.505863
 20
2.227923
 30
0.0
 11
-5.505849
 21
2.233314
 31
0.0
  0
LINE
  8
0
  6
CONTINUOUS
 62
     7
  5
4C7
 10
-5.505849
 20
2.233314
 30
0.0
 11
-5.505832
 21
2.238618
 31
0.0
  0
LINE
  8
0
  6
CONTINUOUS
 62
     7
  5
4C8
 10
-5.505832
 20
2.238618
 30
0.0
 11
-5.505812
 21
2.243817
 31
0.0
  0
LINE
  8
0
  6
CONTINUOUS
 62
     7
  5
4C9
 10
-5.505812
 20
2.243817
 30
0.0
 11
-5.505789
 21
2.248896
 31
0.0
  0
LINE
  8
0
  6
CONTINUOUS
 62
     7
  5
4CA
 10
-5.505789
 20
2.248896
 30
0.0
 11
-5.505763
 21
2.253837
 31
0.0
  0
LINE
  8
0
  6
CONTINUOUS
 62
     7
  5
4CB
 10
-5.505763
 20
2.253837
 30
0.0
 11
-5.505732
 21
2.258624
 31
0.0
  0
LINE
  8
0
  6
CONTINUOUS
 62
     7
  5
4CC
 10
-5.505732
 20
2.258624
 30
0.0
 11
-5.505698
 21
2.263239
 31
0.0
  0
LINE
  8
0
  6
CONTINUOUS
 62
     7
  5
4CD
 10
-5.505698
 20
2.263239
 30
0.0
 11
-5.50566
 21
2.26767
 31
0.0
  0
LINE
  8
0
  6
CONTINUOUS
 62
     7
  5
4CE
 10
-5.50566
 20
2.26767
 30
0.0
 11
-5.505618
 21
2.271902
 31
0.0
  0
LINE
  8
0
  6
CONTINUOUS
 62
     7
  5
4CF
 10
-5.505618
 20
2.271902
 30
0.0
 11
-5.505571
 21
2.275925
 31
0.0
  0
LINE
  8
0
  6
CONTINUOUS
 62
     7
  5
4D0
 10
-5.505571
 20
2.275925
 30
0.0
 11
-5.50552
 21
2.279744
 31
0.0
  0
LINE
  8
0
  6
CONTINUOUS
 62
     7
  5
4D1
 10
-5.50552
 20
2.279744
 30
0.0
 11
-5.505463
 21
2.283432
 31
0.0
  0
LINE
  8
0
  6
CONTINUOUS
 62
     7
  5
4D2
 10
-5.505463
 20
2.283432
 30
0.0
 11
-5.5054
 21
2.286982
 31
0.0
  0
LINE
  8
0
  6
CONTINUOUS
 62
     7
  5
4D3
 10
-5.5054
 20
2.286982
 30
0.0
 11
-5.50533
 21
2.290376
 31
0.0
  0
LINE
  8
0
  6
CONTINUOUS
 62
     7
  5
4D4
 10
-5.50533
 20
2.290376
 30
0.0
 11
-5.505253
 21
2.293593
 31
0.0
  0
LINE
  8
0
  6
CONTINUOUS
 62
     7
  5
4D5
 10
-5.505253
 20
2.293593
 30
0.0
 11
-5.505169
 21
2.296617
 31
0.0
  0
LINE
  8
0
  6
CONTINUOUS
 62
     7
  5
4D6
 10
-5.505169
 20
2.296617
 30
0.0
 11
-5.505077
 21
2.299434
 31
0.0
  0
LINE
  8
0
  6
CONTINUOUS
 62
     7
  5
4D7
 10
-5.505077
 20
2.299434
 30
0.0
 11
-5.504978
 21
2.30203
 31
0.0
  0
LINE
  8
0
  6
CONTINUOUS
 62
     7
  5
4D8
 10
-5.504978
 20
2.30203
 30
0.0
 11
-5.504871
 21
2.304395
 31
0.0
  0
LINE
  8
0
  6
CONTINUOUS
 62
     7
  5
4D9
 10
-5.504871
 20
2.304395
 30
0.0
 11
-5.504756
 21
2.30652
 31
0.0
  0
LINE
  8
0
  6
CONTINUOUS
 62
     7
  5
4DA
 10
-5.504756
 20
2.30652
 30
0.0
 11
-5.504634
 21
2.3084
 31
0.0
  0
LINE
  8
0
  6
CONTINUOUS
 62
     7
  5
4DB
 10
-5.504634
 20
2.3084
 30
0.0
 11
-5.504504
 21
2.310028
 31
0.0
  0
LINE
  8
0
  6
CONTINUOUS
 62
     7
  5
4DC
 10
-5.504504
 20
2.310028
 30
0.0
 11
-5.504367
 21
2.311401
 31
0.0
  0
LINE
  8
0
  6
CONTINUOUS
 62
     7
  5
4DD
 10
-5.504367
 20
2.311401
 30
0.0
 11
-5.504224
 21
2.312517
 31
0.0
  0
LINE
  8
0
  6
CONTINUOUS
 62
     7
  5
4DE
 10
-5.504224
 20
2.312517
 30
0.0
 11
-5.504075
 21
2.313377
 31
0.0
  0
LINE
  8
0
  6
CONTINUOUS
 62
     7
  5
4DF
 10
-5.504075
 20
2.313377
 30
0.0
 11
-5.50392
 21
2.313984
 31
0.0
  0
LINE
  8
0
  6
CONTINUOUS
 62
     7
  5
4E0
 10
-5.50392
 20
2.313984
 30
0.0
 11
-5.50376
 21
2.314343
 31
0.0
  0
LINE
  8
0
  6
CONTINUOUS
 62
     7
  5
4E1
 10
-5.50376
 20
2.314343
 30
0.0
 11
-5.503596
 21
2.31446
 31
0.0
  0
LINE
  8
0
  6
CONTINUOUS
 62
     7
  5
4E2
 10
-0.236
 20
0.8055
 30
0.0
 11
0.0
 21
0.8055
 31
0.0
  0
LINE
  8
0
  6
CONTINUOUS
 62
     7
  5
4E3
 10
0.0
 20
0.8055
 30
0.0
 11
0.0
 21
0.5785
 31
0.0
  0
LINE
  8
0
  6
CONTINUOUS
 62
     7
  5
4E4
 10
0.0
 20
0.5785
 30
0.0
 11
-0.197
 21
0.5785
 31
0.0
  0
LINE
  8
0
  6
CONTINUOUS
 62
     7
  5
4E5
 10
-0.197
 20
0.5785
 30
0.0
 11
-0.197
 21
0.6885
 31
0.0
  0
LINE
  8
0
  6
CONTINUOUS
 62
     7
  5
4E6
 10
-0.197
 20
0.6885
 30
0.0
 11
-0.236
 21
0.6885
 31
0.0
  0
LINE
  8
0
  6
CONTINUOUS
 62
     7
  5
4E7
 10
-0.197
 20
-0.6885
 30
0.0
 11
-0.197
 21
-0.60588
 31
0.0
  0
LINE
  8
0
  6
CONTINUOUS
 62
     7
  5
4E8
 10
-0.197
 20
-0.60588
 30
0.0
 11
-0.1775
 21
-0.60588
 31
0.0
  0
LINE
  8
0
  6
CONTINUOUS
 62
     7
  5
4E9
 10
-0.1775
 20
-0.60588
 30
0.0
 11
0.0
 21
-0.70836
 31
0.0
  0
LINE
  8
0
  6
CONTINUOUS
 62
     7
  5
4EA
 10
0.0
 20
-0.70836
 30
0.0
 11
0.0
 21
-0.9225
 31
0.0
  0
LINE
  8
0
  6
CONTINUOUS
 62
     7
  5
4EB
 10
0.0
 20
-0.9225
 30
0.0
 11
-0.236
 21
-0.9225
 31
0.0
  0
LINE
  8
0
  6
CONTINUOUS
 62
     7
  5
4EC
 10
-0.236
 20
-0.6885
 30
0.0
 11
-0.197
 21
-0.6885
 31
0.0
  0
LINE
  8
0
  6
CONTINUOUS
 62
     7
  5
4ED
 10
-5.36835
 20
1.625
 30
0.0
 11
-5.441932
 21
1.625
 31
0.0
  0
LINE
  8
0
  6
CONTINUOUS
 62
     7
  5
4EE
 10
-5.441932
 20
-0.875
 30
0.0
 11
-5.441932
 21
1.625
 31
0.0
  0
LINE
  8
0
  6
CONTINUOUS
 62
     7
  5
4EF
 10
-5.36835
 20
-0.875
 30
0.0
 11
-5.441932
 21
-0.875
 31
0.0
  0
LINE
  8
0
  6
CONTINUOUS
 62
     7
  5
4F0
 10
-5.441932
 20
1.625
 30
0.0
 11
-5.506
 21
1.625
 31
0.0
  0
LINE
  8
0
  6
CONTINUOUS
 62
     7
  5
4F1
 10
-5.441932
 20
-0.875
 30
0.0
 11
-5.506
 21
-0.875
 31
0.0
  0
LINE
  8
0
  6
CONTINUOUS
 62
     7
  5
4F2
 10
-5.441932
 20
1.75
 30
0.0
 11
-5.36835
 21
1.75
 31
0.0
  0
LINE
  8
0
  6
CONTINUOUS
 62
     7
  5
4F3
 10
-5.506
 20
1.75
 30
0.0
 11
-5.441932
 21
1.75
 31
0.0
  0
LINE
  8
0
  6
CONTINUOUS
 62
     7
  5
4F4
 10
-5.441932
 20
2.4605
 30
0.0
 11
-5.441932
 21
1.75
 31
0.0
  0
LINE
  8
0
  6
CONTINUOUS
 62
     7
  5
4F5
 10
-5.36835
 20
-1.75
 30
0.0
 11
-5.441932
 21
-1.75
 31
0.0
  0
LINE
  8
0
  6
CONTINUOUS
 62
     7
  5
4F6
 10
-5.441932
 20
-2.4605
 30
0.0
 11
-5.441932
 21
-1.75
 31
0.0
  0
LINE
  8
0
  6
CONTINUOUS
 62
     7
  5
4F7
 10
-5.441932
 20
-1.75
 30
0.0
 11
-5.506
 21
-1.75
 31
0.0
  0
LINE
  8
0
  6
CONTINUOUS
 62
     7
  5
4F8
 10
-5.36835
 20
-2.4605
 30
0.0
 11
-5.36835
 21
2.4605
 31
0.0
  0
LINE
  8
0
  6
CONTINUOUS
 62
     7
  5
4F9
 10
-5.506
 20
1.625
 30
0.0
 11
-5.506
 21
1.435
 31
0.0
  0
LINE
  8
0
  6
CONTINUOUS
 62
     7
  5
4FA
 10
-5.506
 20
-0.535
 30
0.0
 11
-5.506
 21
-0.875
 31
0.0
  0
LINE
  8
0
  6
CONTINUOUS
 62
     7
  5
4FB
 10
-5.506
 20
2.4605
 30
0.0
 11
-5.506
 21
1.75
 31
0.0
  0
LINE
  8
0
  6
CONTINUOUS
 62
     7
  5
4FC
 10
-5.506
 20
-1.75
 30
0.0
 11
-5.506
 21
-2.4605
 31
0.0
  0
LINE
  8
0
  6
CONTINUOUS
 62
     3
  5
4FD
 10
0.0
 20
0.0
 30
0.0
 11
-5.506
 21
0.0
 31
0.0
  0
ENDSEC
  0
EOF
