999
DXF file: C:\Users\sesa63760\Dev\_Creo\CAD\MCADID0002809_3D-CAD\drw0001_1.dxf
999
Pro/ENGINEER 2019471 by Parametric Technology Corporation
  0
SECTION
  2
HEADER
  9
$ACADVER
  1
AC1024
  9
$DWGCODEPAGE
  3
ANSI_1252
  9
$EXTMAX
 10
70.2191724543
 20
99.3099724711
 30
0.0
  9
$EXTMIN
 10
0.0
 20
0.0
 30
0.0
  9
$LIMMIN
 10
0.0
 20
0.0
  9
$LIMMAX
 10
70.2191724543
 20
99.3099724711
  9
$VIEWCTR
 10
35.1095862271
 20
49.6549862355
  9
$VIEWSIZE
 40
99.3099724711
  9
$CLAYER
  8
0
  9
$LTSCALE
 40
6.4735389463
  9
$CELTYPE
  6
BYLAYER
  9
$DIMSCALE
 40
1.0
  9
$DIMASZ
 40
0.8359425292
  9
$DIMEXO
 40
1.0
  9
$DIMDLI
 40
4.4726269083
  9
$DIMEXE
 40
1.0
  9
$DIMCEN
 40
1.059306373
  9
$DIMLFAC
 40
1.0
  9
$DIMBLK
  1
_FILLED
  9
$DIMALT
 70
0
  9
$DIMALTF
 40
0.0393700787
  9
$DIMTXT
 40
1.1703195409
  9
$DIMTOL
 70
1
  9
$DIMLIM
 70
0
  9
$DIMTFAC
 40
1.0
  9
$DIMTP
 40
0.01
  9
$DIMTM
 40
0.01
  9
$DIMGAP
 40
0.625
  9
$DIMDSEP
 70
46
  9
$AUNITS
 70
0
  9
$PDMODE
 70
3
  9
$PDSIZE
 40
0.3125
  9
$HANDSEED
  5
27D
  9
$TILEMODE
 70
1
  9
$MEASUREMENT
 70
1
  9
$INSUNITS
 70
4
  0
ENDSEC
  0
SECTION
  2
CLASSES
  0
CLASS
  1
ACDBDICTIONARYWDFLT
  2
AcDbDictionaryWithDefault
  3
AutoCAD 2000
 90
0
 91
1
280
0
281
0
  0
CLASS
  1
ACDBPLACEHOLDER
  2
AcDbPlaceHolder
  3
AutoCAD 2000
 90
0
 91
1
280
0
281
0
  0
CLASS
  1
LAYOUT
  2
AcDbLayout
  3
AutoCAD 2000
 90
0
 91
0
280
0
281
0
  0
ENDSEC
  0
SECTION
  2
TABLES
  0
TABLE
  2
VPORT
  5
8
100
AcDbSymbolTable
 70
2
  0
VPORT
  5
1F4
100
AcDbSymbolTableRecord
100
AcDbViewportTableRecord
  2
*ACTIVE
 70
0
 10
0.0
 20
0.0
 11
1.0
 21
1.0
 12
35.1095862271
 22
49.6549862355
 13
0.0
 23
0.0
 14
1.0
 24
1.0
 15
0.0
 25
0.0
 16
0.0
 26
0.0
 36
1.0
 17
0.0
 27
0.0
 37
0.0
 40
99.3099724711
 41
0.7070707071
 42
50.0
 43
0.0
 44
0.0
 50
0.0
 51
0.0
 71
0
 72
100
 73
1
 74
1
 75
0
 76
0
 77
0
 78
0
  0
ENDTAB
  0
TABLE
  2
LTYPE
  5
5
100
AcDbSymbolTable
 70
6
  0
LTYPE
  5
14
100
AcDbSymbolTableRecord
100
AcDbLinetypeTableRecord
  2
BYBLOCK
 70
0
  3

 72
65
 73
0
 40
0.0
  0
LTYPE
  5
15
100
AcDbSymbolTableRecord
100
AcDbLinetypeTableRecord
  2
BYLAYER
 70
0
  3

 72
65
 73
0
 40
0.0
  0
LTYPE
  5
16
100
AcDbSymbolTableRecord
100
AcDbLinetypeTableRecord
  2
CONTINUOUS
 70
64
  3
Solid line
 72
65
 73
0
 40
0.0
  0
LTYPE
  5
1F5
100
AcDbSymbolTableRecord
100
AcDbLinetypeTableRecord
  2
CENTER
 70
64
  3
____ _ ____ _ ____ _ ____ _ ____ _ ____ _ ____
 72
65
 73
4
 40
0.6
 49
0.375
 74
0
 49
-0.075
 74
0
 49
0.075
 74
0
 49
-0.075
 74
0
  0
LTYPE
  5
1F6
100
AcDbSymbolTableRecord
100
AcDbLinetypeTableRecord
  2
HIDDEN
 70
64
  3
- - - - - - - - - - - - - - - - - - - -
 72
65
 73
2
 40
0.2
 49
0.1
 74
0
 49
-0.1
 74
0
  0
LTYPE
  5
1F7
100
AcDbSymbolTableRecord
100
AcDbLinetypeTableRecord
  2
PHANTOM
 70
64
  3
_____ _ _ _____ _ _ _____ _ _ _____
 72
65
 73
6
 40
0.8
 49
0.45
 74
0
 49
-0.05
 74
0
 49
0.1
 74
0
 49
-0.05
 74
0
 49
0.1
 74
0
 49
-0.05
 74
0
  0
LTYPE
  5
1F8
100
AcDbSymbolTableRecord
100
AcDbLinetypeTableRecord
  2
DOT
 70
64
  3
. . . . . . . . . . . . . . . . . . . .
 72
65
 73
2
 40
0.2
 49
0.1
 74
0
 49
-0.1
 74
0
  0
LTYPE
  5
1F9
100
AcDbSymbolTableRecord
100
AcDbLinetypeTableRecord
  2
DASHED
 70
64
  3
- - - - - - - - - - - - - - - - - - - -
 72
65
 73
2
 40
0.2
 49
0.1
 74
0
 49
-0.1
 74
0
  0
ENDTAB
  0
TABLE
  2
LAYER
  5
2
100
AcDbSymbolTable
 70
36
  0
LAYER
  5
10
100
AcDbSymbolTableRecord
100
AcDbLayerTableRecord
  2
0
 70
0
 62
7
  6
CONTINUOUS
370
-3
390
F
  0
LAYER
  5
1FA
100
AcDbSymbolTableRecord
100
AcDbLayerTableRecord
  2
DEFAULT_1
 70
0
 62
7
  6
CENTER
370
-3
390
F
  0
LAYER
  5
1FB
100
AcDbSymbolTableRecord
100
AcDbLayerTableRecord
  2
DEFAULT_2
 70
0
 62
7
  6
HIDDEN
370
-3
390
F
  0
LAYER
  5
1FC
100
AcDbSymbolTableRecord
100
AcDbLayerTableRecord
  2
DEFAULT_3
 70
0
 62
7
  6
PHANTOM
370
-3
390
F
  0
LAYER
  5
1FD
100
AcDbSymbolTableRecord
100
AcDbLayerTableRecord
  2
00_COMPONENTS
 70
0
 62
7
  6
CONTINUOUS
370
-3
390
F
  0
LAYER
  5
1FE
100
AcDbSymbolTableRecord
100
AcDbLayerTableRecord
  2
01_1_DEFAULT_DATUMS
 70
0
 62
7
  6
CONTINUOUS
370
-3
390
F
  0
LAYER
  5
1FF
100
AcDbSymbolTableRecord
100
AcDbLayerTableRecord
  2
01_PLANES
 70
0
 62
7
  6
CONTINUOUS
370
-3
390
F
  0
LAYER
  5
200
100
AcDbSymbolTableRecord
100
AcDbLayerTableRecord
  2
02_COORD_SYS
 70
0
 62
7
  6
CONTINUOUS
370
-3
390
F
  0
LAYER
  5
201
100
AcDbSymbolTableRecord
100
AcDbLayerTableRecord
  2
03_AXES
 70
0
 62
7
  6
CONTINUOUS
370
-3
390
F
  0
LAYER
  5
202
100
AcDbSymbolTableRecord
100
AcDbLayerTableRecord
  2
04_POINTS
 70
0
 62
7
  6
CONTINUOUS
370
-3
390
F
  0
LAYER
  5
203
100
AcDbSymbolTableRecord
100
AcDbLayerTableRecord
  2
05_CURVES
 70
0
 62
7
  6
CONTINUOUS
370
-3
390
F
  0
LAYER
  5
204
100
AcDbSymbolTableRecord
100
AcDbLayerTableRecord
  2
06_SURFS
 70
0
 62
7
  6
CONTINUOUS
370
-3
390
F
  0
LAYER
  5
205
100
AcDbSymbolTableRecord
100
AcDbLayerTableRecord
  2
07_COSMETICS
 70
0
 62
7
  6
CONTINUOUS
370
-3
390
F
  0
LAYER
  5
206
100
AcDbSymbolTableRecord
100
AcDbLayerTableRecord
  2
10_NOTES
 70
0
 62
7
  6
CONTINUOUS
370
-3
390
F
  0
LAYER
  5
207
100
AcDbSymbolTableRecord
100
AcDbLayerTableRecord
  2
11_NOTES_PUB
 70
0
 62
7
  6
CONTINUOUS
370
-3
390
F
  0
LAYER
  5
208
100
AcDbSymbolTableRecord
100
AcDbLayerTableRecord
  2
13_REF_GTOL
 70
0
 62
7
  6
CONTINUOUS
370
-3
390
F
  0
LAYER
  5
209
100
AcDbSymbolTableRecord
100
AcDbLayerTableRecord
  2
16_MISC
 70
0
 62
7
  6
CONTINUOUS
370
-3
390
F
  0
LAYER
  5
20A
100
AcDbSymbolTableRecord
100
AcDbLayerTableRecord
  2
17_NO_PRINT
 70
0
 62
7
  6
CONTINUOUS
370
-3
390
F
  0
LAYER
  5
20B
100
AcDbSymbolTableRecord
100
AcDbLayerTableRecord
  2
18_DATUM_CAMS_JOINTS
 70
0
 62
7
  6
CONTINUOUS
370
-3
390
F
  0
LAYER
  5
20C
100
AcDbSymbolTableRecord
100
AcDbLayerTableRecord
  2
19_DATUM_FUNCTIONAL
 70
0
 62
7
  6
CONTINUOUS
370
-3
390
F
  0
LAYER
  5
20D
100
AcDbSymbolTableRecord
100
AcDbLayerTableRecord
  2
20_DATUM_KINEMATIC_SCHEME
 70
0
 62
7
  6
CONTINUOUS
370
-3
390
F
  0
ENDTAB
  0
TABLE
  2
STYLE
  5
3
100
AcDbSymbolTable
 70
1
  0
STYLE
  5
11
100
AcDbSymbolTableRecord
100
AcDbTextStyleTableRecord
  2
STANDARD
 70
0
 40
0.0
 41
1.0
 50
0.0
 71
0
 42
0.2
  3
ARIAL.TTF
  4

  0
STYLE
  5
20E
100
AcDbSymbolTableRecord
100
AcDbTextStyleTableRecord
  2
TEXTSTYLE_1
 70
0
 40
0.0
 41
0.8
 50
0.0
 71
0
 42
0.2
  3
gdt
  4

  0
ENDTAB
  0
TABLE
  2
VIEW
  5
6
100
AcDbSymbolTable
 70
0
  0
ENDTAB
  0
TABLE
  2
UCS
  5
7
100
AcDbSymbolTable
 70
0
  0
ENDTAB
  0
TABLE
  2
APPID
  5
9
100
AcDbSymbolTable
 70
1
  0
APPID
  5
20F
100
AcDbSymbolTableRecord
100
AcDbRegAppTableRecord
  2
ACAD
 70
0
  0
ENDTAB
  0
TABLE
  2
BLOCK_RECORD
  5
1
100
AcDbSymbolTable
 70
0
  0
BLOCK_RECORD
  5
210
100
AcDbSymbolTableRecord
100
AcDbBlockTableRecord
  2
*Model_Space
  0
BLOCK_RECORD
  5
211
100
AcDbSymbolTableRecord
100
AcDbBlockTableRecord
  2
*Paper_Space
  0
BLOCK_RECORD
  5
212
100
AcDbSymbolTableRecord
100
AcDbBlockTableRecord
  2
_FILLED
  0
ENDTAB
  0
TABLE
  2
DIMSTYLE
  5
A
100
AcDbSymbolTable
 70
1
100
AcDbDimStyleTable
 71
0
  0
DIMSTYLE
105
213
100
AcDbSymbolTableRecord
100
AcDbDimStyleTableRecord
  2
STANDARD
 70
0
  3

  4

 40
1.0
 41
0.8359425292
 42
1.0
 43
0.38
 44
1.0
 45
0.0
 46
0.0
 47
0.01
 48
0.01
140
1.1703195409
141
0.09
142
0.0
143
25.4
144
1.0
145
0.0
146
1.0
147
0.625
 71
1
 72
0
 73
0
 74
0
 75
0
 76
0
 77
1
 78
8
 79
2
170
0
171
1
172
0
173
0
174
0
175
0
176
0
177
0
178
0
270
2
179
2
271
2
272
2
273
2
274
2
275
0
280
0
281
0
282
0
283
1
284
8
285
0
286
0
287
3
288
0
340
11
278
46
341
212
342
212
343
212
344
212
  0
ENDTAB
  0
ENDSEC
  0
SECTION
  2
BLOCKS
  0
BLOCK
  5
20
100
AcDbEntity
  8
0
100
AcDbBlockBegin
  2
*Model_Space
 70
0
 10
0.0
 20
0.0
 30
0.0
  3
*Model_Space
  1

  0
ENDBLK
  5
21
100
AcDbEntity
  8
0
100
AcDbBlockEnd
  0
BLOCK
  5
1C
100
AcDbEntity
  8
0
100
AcDbBlockBegin
  2
*Paper_Space
 70
0
 10
0.0
 20
0.0
 30
0.0
  3
*Paper_Space
  1

  0
ENDBLK
  5
1D
100
AcDbEntity
  8
0
100
AcDbBlockEnd
  0
BLOCK
  5
214
100
AcDbEntity
  8
0
100
AcDbBlockBegin
  2
_FILLED
 70
64
 10
0.0
 20
0.0
  3
_FILLED
  1

  0
SOLID
  5
215
100
AcDbEntity
  8
0
  6
BYBLOCK
 62
0
100
AcDbTrace
 10
0.0
 20
0.0
 11
-1.0
 21
0.25
 12
-1.0
 22
-0.25
 13
-1.0
 23
-0.25
  0
ENDBLK
  5
216
100
AcDbEntity
  8
0
  6
BYBLOCK
 62
0
100
AcDbBlockEnd
  0
ENDSEC
  0
SECTION
  2
ENTITIES
  0
LINE
  5
217
100
AcDbEntity
  8
0
100
AcDbLine
 62
7
  6
BYLAYER
 10
9.7746475845
 20
59.8076811825
 11
9.7746475845
 21
49.7647014518
  0
LINE
  5
218
100
AcDbEntity
  8
0
100
AcDbLine
 62
7
  6
BYLAYER
 10
9.7674705788
 20
49.6899091247
 11
9.7746475845
 21
49.7647014518
  0
LINE
  5
219
100
AcDbEntity
  8
0
100
AcDbLine
 62
7
  6
BYLAYER
 10
11.5320245613
 20
47.3152365286
 11
11.5320245614
 21
57.3582162592
  0
LINE
  5
21A
100
AcDbEntity
  8
0
100
AcDbLine
 62
7
  6
BYLAYER
 10
10.3700152059
 20
44.1948468677
 11
36.9077032699
 21
28.873652132
  0
LINE
  5
21B
100
AcDbEntity
  8
0
100
AcDbLine
 62
7
  6
BYLAYER
 10
21.6188748301
 20
51.5347022867
 11
21.6188775268
 21
50.9632865899
  0
LINE
  5
21C
100
AcDbEntity
  8
0
100
AcDbLine
 62
7
  6
BYLAYER
 10
9.7383563125
 20
50.0221696272
 11
9.7719575417
 21
50.0471276542
  0
LINE
  5
21D
100
AcDbEntity
  8
0
100
AcDbLine
 62
7
  6
BYLAYER
 10
9.7383563125
 20
50.0221696272
 11
9.7746475845
 21
50.0459196526
  0
LINE
  5
21E
100
AcDbEntity
  8
0
100
AcDbLine
 62
7
  6
BYLAYER
 10
38.0697126253
 20
31.9940417929
 11
11.5320245613
 21
47.3152365286
  0
LINE
  5
21F
100
AcDbEntity
  8
0
100
AcDbLine
 62
7
  6
BYLAYER
 10
25.154408736
 20
50.9631590929
 11
25.154408736
 21
51.5347107851
  0
LINE
  5
220
100
AcDbEntity
  8
0
100
AcDbLine
 62
7
  6
BYLAYER
 10
41.5592071612
 20
64.5169040329
 11
24.3765839168
 21
54.5965710938
  0
LINE
  5
221
100
AcDbEntity
  8
0
100
AcDbLine
 62
7
  6
BYLAYER
 10
25.6493814221
 20
52.3920333848
 11
42.8320046664
 21
62.3123663239
  0
LINE
  5
222
100
AcDbEntity
  8
0
100
AcDbLine
 62
7
  6
BYLAYER
 10
23.9523131005
 20
46.9215149964
 11
38.0697126253
 21
38.771011855
  0
LINE
  5
223
100
AcDbEntity
  8
0
100
AcDbLine
 62
7
  6
BYLAYER
 10
43.3269773524
 20
61.4550338474
 11
25.154408736
 21
50.9631590929
  0
LINE
  5
224
100
AcDbEntity
  8
0
100
AcDbLine
 62
7
  6
BYLAYER
 10
25.7200965156
 20
49.9833645561
 11
43.8926651325
 21
60.4752393103
  0
LINE
  5
225
100
AcDbEntity
  8
0
100
AcDbLine
 62
7
  6
BYLAYER
 10
11.5320245614
 20
57.3582162592
 11
21.6188748301
 21
51.5347022867
  0
LINE
  5
226
100
AcDbEntity
  8
0
100
AcDbLine
 62
7
  6
BYLAYER
 10
39.8374731651
 20
41.8328776759
 11
25.7200965156
 21
49.9833645561
  0
LINE
  5
227
100
AcDbEntity
  8
0
100
AcDbLine
 62
7
  6
BYLAYER
 10
23.3866344232
 20
54.5965687142
 11
13.2997824884
 21
60.4200836093
  0
LINE
  5
228
100
AcDbEntity
  8
0
100
AcDbLine
 62
7
  6
BYLAYER
 10
38.0697126253
 20
38.771011855
 11
38.0697126253
 21
31.9940417929
  0
LINE
  5
229
100
AcDbEntity
  8
0
100
AcDbLine
 62
7
  6
BYLAYER
 10
43.3269773524
 20
62.0265855396
 11
43.3269773524
 21
61.4550338474
  0
LINE
  5
22A
100
AcDbEntity
  8
0
100
AcDbLine
 62
7
  6
BYLAYER
 10
44.0592030396
 20
62.4756357334
 11
44.0592030396
 21
63.0471874259
  0
LINE
  5
22B
100
AcDbEntity
  8
0
100
AcDbLine
 62
7
  6
BYLAYER
 10
45.9929819931
 20
31.7078044585
 11
45.9929819931
 21
38.4847745207
  0
LWPOLYLINE
  5
22C
100
AcDbEntity
  8
0
100
AcDbPolyline
 62
7
  6
BYLAYER
 90
5
 70
0
 10
61.5351774045
 20
42.2509090248
 10
62.5029101607
 20
41.4420858022
 10
63.1635837454
 20
39.903758898
 10
62.840233612
 20
38.3298950426
 10
61.5714686765
 20
36.9211897153
  0
LINE
  5
22D
100
AcDbEntity
  8
0
100
AcDbLine
 62
7
  6
BYLAYER
 10
43.8926651325
 20
60.4752393103
 11
58.0100433835
 21
52.3247516256
  0
LINE
  5
22E
100
AcDbEntity
  8
0
100
AcDbLine
 62
7
  6
BYLAYER
 10
59.2600196399
 20
52.4485727404
 11
45.1426439238
 21
60.5990590217
  0
LINE
  5
22F
100
AcDbEntity
  8
0
100
AcDbLine
 62
7
  6
BYLAYER
 10
31.4723511727
 20
70.911958403
 11
41.5592030396
 21
65.0884434687
  0
LINE
  5
230
100
AcDbEntity
  8
0
100
AcDbLine
 62
7
  6
BYLAYER
 10
32.7223315474
 20
71.035777161
 11
42.8091818308
 21
65.2122631801
  0
LINE
  5
231
100
AcDbEntity
  8
0
100
AcDbLine
 62
7
  6
BYLAYER
 10
60.2736510937
 20
39.952703392
 11
60.2736510937
 21
46.7296734542
  0
LINE
  5
232
100
AcDbEntity
  8
0
100
AcDbLine
 62
7
  6
BYLAYER
 10
61.5351774045
 20
48.8546424556
 11
61.5351774045
 21
42.0776723935
  0
LINE
  5
233
100
AcDbEntity
  8
0
100
AcDbLine
 62
7
  6
BYLAYER
 10
61.5351774045
 20
42.0776723935
 11
61.5444020147
 21
41.9989570349
  0
ARC
  5
234
100
AcDbEntity
  8
0
100
AcDbCircle
 62
7
  6
BYLAYER
 10
13.1482079117
 20
45.4327773979
 40
5.717482747
100
AcDbArc
 50
126.6118113699
 51
128.4312545502
  0
ARC
  5
235
100
AcDbEntity
  8
0
100
AcDbCircle
 62
7
  6
BYLAYER
 10
41.5592030396
 20
63.0471874259
 40
2.5
100
AcDbArc
 50
0.0
 51
60.0005612632
  0
ARC
  5
236
100
AcDbEntity
  8
0
100
AcDbCircle
 62
7
  6
BYLAYER
 10
11.776916049
 20
49.7646031421
 40
2.0022558477
100
AcDbArc
 50
179.9971868149
 51
182.121486115
  0
ARC
  5
237
100
AcDbEntity
  8
0
100
AcDbCircle
 62
7
  6
BYLAYER
 10
9.3827119071
 20
51.6993068873
 40
1.7144306147
100
AcDbArc
 50
281.9724714601
 51
283.3380152963
  0
SPLINE
  5
238
100
AcDbEntity
  8
0
100
AcDbSpline
 62
7
  6
BYLAYER
 70
0
 71
3
 72
15
 73
11
 74
0
 42
0.0000001
 43
0.0000001
 44
0.0000000001
 40
0.0
 40
0.0
 40
0.0
 40
0.0
 40
0.1251817365
 40
0.2500226929
 40
0.3747483511
 40
0.4991766178
 40
0.6235144258
 40
0.7481189945
 40
0.8734101367
 40
1.0
 40
1.0
 40
1.0
 40
1.0
 10
61.5351774045
 20
48.8546424556
 30
0.0
 10
61.5351774045
 20
49.0405972252
 30
0.0
 10
61.5068531263
 20
49.41263148
 30
0.0
 10
61.3806626944
 20
49.9568468532
 30
0.0
 10
61.1766994532
 20
50.475731761
 30
0.0
 10
60.9016463047
 20
50.9596049402
 30
0.0
 10
60.5646705273
 20
51.4020897163
 30
0.0
 10
60.1742310644
 20
51.7997203998
 30
0.0
 10
59.7381163739
 20
52.1515958738
 30
0.0
 10
59.4228736196
 20
52.3545510777
 30
0.0
 10
59.2600196428
 20
52.4485727387
 30
0.0
  0
SPLINE
  5
239
100
AcDbEntity
  8
0
100
AcDbSpline
 62
7
  6
BYLAYER
 70
0
 71
3
 72
17
 73
13
 74
0
 42
0.0000001
 43
0.0000001
 44
0.0000000001
 40
0.0
 40
0.0
 40
0.0
 40
0.0
 40
0.0291483544
 40
0.0717361192
 40
0.1899176573
 40
0.3379396463
 40
0.5000084616
 40
0.6620778197
 40
0.8100976417
 40
0.9282724187
 40
0.9708444551
 40
1.0
 40
1.0
 40
1.0
 40
1.0
 10
45.1426439238
 20
60.5990590217
 30
0.0
 10
45.1238656195
 20
60.6099004354
 30
0.0
 10
45.0789716055
 20
60.6388677278
 30
0.0
 10
44.9660370482
 20
60.7239251811
 30
0.0
 10
44.7985850354
 20
60.8823050895
 30
0.0
 10
44.5945536061
 20
61.1278657001
 30
0.0
 10
44.401889383
 20
61.4224575955
 30
0.0
 10
44.2431016656
 20
61.7366056506
 30
0.0
 10
44.13246034
 20
62.036078219
 30
0.0
 10
44.0790397768
 20
62.2602695511
 30
0.0
 10
44.0618390345
 20
62.4005903539
 30
0.0
 10
44.0592030396
 20
62.4539471894
 30
0.0
 10
44.0592030396
 20
62.4756357337
 30
0.0
  0
SPLINE
  5
23A
100
AcDbEntity
  8
0
100
AcDbSpline
 62
7
  6
BYLAYER
 70
0
 71
3
 72
13
 73
9
 74
0
 42
0.0000001
 43
0.0000001
 44
0.0000000001
 40
0.0
 40
0.0
 40
0.0
 40
0.0
 40
0.2431706034
 40
0.3691297439
 40
0.4969354335
 40
0.6252636874
 40
0.7526704705
 40
1.0
 40
1.0
 40
1.0
 40
1.0
 10
32.7223315445
 20
71.0357771627
 30
0.0
 10
32.2219151024
 20
71.3246861919
 30
0.0
 10
31.3938346725
 20
71.6515130265
 30
0.0
 10
30.2359086753
 20
71.8885336497
 30
0.0
 10
29.3298555641
 20
71.9723954729
 30
0.0
 10
28.4166816243
 20
71.9590582082
 30
0.0
 10
27.2289413039
 20
71.814134945
 30
0.0
 10
26.3637150954
 20
71.5592791921
 30
0.0
 10
25.827460295
 20
71.3187915396
 30
0.0
  0
SPLINE
  5
23B
100
AcDbEntity
  8
0
100
AcDbSpline
 62
7
  6
BYLAYER
 70
0
 71
3
 72
11
 73
7
 74
0
 42
0.0000001
 43
0.0000001
 44
0.0000000001
 40
0.0
 40
0.0
 40
0.0
 40
0.0
 40
0.2607006551
 40
0.514399575
 40
0.7608730658
 40
1.0
 40
1.0
 40
1.0
 40
1.0
 10
25.827460295
 20
71.3187915396
 30
0.0
 10
24.5148404807
 20
70.7301369345
 30
0.0
 10
21.951972665
 20
69.5068199299
 30
0.0
 10
18.2582268982
 20
67.5068192044
 30
0.0
 10
14.7792739773
 20
65.3723974542
 30
0.0
 10
12.5782079009
 20
63.8408527192
 30
0.0
 10
11.5191817781
 20
63.0537002256
 30
0.0
  0
SPLINE
  5
23C
100
AcDbEntity
  8
0
100
AcDbSpline
 62
7
  6
BYLAYER
 70
0
 71
3
 72
15
 73
11
 74
0
 42
0.0000001
 43
0.0000001
 44
0.0000000001
 40
0.0
 40
0.0
 40
0.0
 40
0.0
 40
0.1255644569
 40
0.2503586084
 40
0.3749630797
 40
0.499574667
 40
0.6243576588
 40
0.7494139405
 40
0.8745737008
 40
1.0
 40
1.0
 40
1.0
 40
1.0
 10
11.5191817743
 20
63.0537002229
 30
0.0
 10
11.39077242
 20
62.9582561709
 30
0.0
 10
11.1432970445
 20
62.7560436391
 30
0.0
 10
10.8047143095
 20
62.4177946471
 30
0.0
 10
10.5045412292
 20
62.0464031726
 30
0.0
 10
10.248145529
 20
61.6434312709
 30
0.0
 10
10.0411344345
 20
61.2122385077
 30
0.0
 10
9.8889759304
 20
60.7579313347
 30
0.0
 10
9.7955635389
 20
60.2871983542
 30
0.0
 10
9.7746475845
 20
59.9675005447
 30
0.0
 10
9.7746475845
 20
59.8076811825
 30
0.0
  0
SPLINE
  5
23D
100
AcDbEntity
  8
0
100
AcDbSpline
 62
7
  6
BYLAYER
 70
0
 71
3
 72
21
 73
17
 74
0
 42
0.0000001
 43
0.0000001
 44
0.0000000001
 40
0.0
 40
0.0
 40
0.0
 40
0.0
 40
0.0759177719
 40
0.1483704066
 40
0.2172600528
 40
0.2827116503
 40
0.4042757479
 40
0.4615628658
 40
0.5173081292
 40
0.5723032885
 40
0.6273981337
 40
0.6834343261
 40
0.7411789041
 40
0.8640447144
 40
0.9303063837
 40
1.0
 40
1.0
 40
1.0
 40
1.0
 10
10.3700152059
 20
44.1948468677
 30
0.0
 10
10.2144337399
 20
44.2846698369
 30
0.0
 10
9.9167887825
 20
44.4717220816
 30
0.0
 10
9.5052835053
 20
44.7809081015
 30
0.0
 10
9.1422676604
 20
45.1103968847
 30
0.0
 10
8.7371852792
 20
45.5613277292
 30
0.0
 10
8.4234491482
 20
46.0554902918
 30
0.0
 10
8.2288361029
 20
46.5771602388
 30
0.0
 10
8.1449883552
 20
46.967384226
 30
0.0
 10
8.1216961223
 20
47.3606615851
 30
0.0
 10
8.1589939474
 20
47.7535420597
 30
0.0
 10
8.2567034333
 20
48.1425722014
 30
0.0
 10
8.4699520344
 20
48.6621083316
 30
0.0
 10
8.8009464591
 20
49.1519917997
 30
0.0
 10
9.2217230267
 20
49.5977480243
 30
0.0
 10
9.4651779817
 20
49.8090745411
 30
0.0
 10
9.5943624952
 20
49.9115932814
 30
0.0
  0
SPLINE
  5
23E
100
AcDbEntity
  8
0
100
AcDbSpline
 62
7
  6
BYLAYER
 70
0
 71
3
 72
15
 73
11
 74
0
 42
0.0000001
 43
0.0000001
 44
0.0000000001
 40
0.0
 40
0.0
 40
0.0
 40
0.0
 40
0.118775815
 40
0.2445749371
 40
0.3749828452
 40
0.507261479
 40
0.6385479065
 40
0.7660448975
 40
0.887216083
 40
1.0
 40
1.0
 40
1.0
 40
1.0
 10
47.0010719142
 20
28.5090174363
 30
0.0
 10
46.6244356348
 20
28.3401119559
 30
0.0
 10
45.8233750963
 20
28.0475836317
 30
0.0
 10
44.551950616
 20
27.7500611452
 30
0.0
 10
43.2090262125
 20
27.5877489154
 30
0.0
 10
41.8376067157
 20
27.5659238672
 30
0.0
 10
40.4813179706
 20
27.6852235224
 30
0.0
 10
39.1832200634
 20
27.9419379775
 30
0.0
 10
37.9847821775
 20
28.3278039553
 30
0.0
 10
37.2471460546
 20
28.6776791823
 30
0.0
 10
36.9077032699
 20
28.873652132
 30
0.0
  0
SPLINE
  5
23F
100
AcDbEntity
  8
0
100
AcDbSpline
 62
7
  6
BYLAYER
 70
0
 71
3
 72
11
 73
7
 74
0
 42
0.0000001
 43
0.0000001
 44
0.0000000001
 40
0.0
 40
0.0
 40
0.0
 40
0.0
 40
0.2382095863
 40
0.4844241179
 40
0.7384514138
 40
1.0
 40
1.0
 40
1.0
 40
1.0
 10
61.5714686765
 20
36.9211897153
 30
0.0
 10
60.4973184759
 20
36.1227958039
 30
0.0
 10
58.2615032223
 20
34.567378211
 30
0.0
 10
54.7230858241
 20
32.3970464935
 30
0.0
 10
50.9574222845
 20
30.3585985621
 30
0.0
 10
48.3419114655
 20
29.1103274028
 30
0.0
 10
47.0010719142
 20
28.5090174363
 30
0.0
  0
SPLINE
  5
240
100
AcDbEntity
  8
0
100
AcDbSpline
 62
7
  6
BYLAYER
 70
0
 71
3
 72
15
 73
11
 74
0
 42
0.0000001
 43
0.0000001
 44
0.0000000001
 40
0.0
 40
0.0
 40
0.0
 40
0.0
 40
0.1080107213
 40
0.2180594421
 40
0.3319998155
 40
0.4513584351
 40
0.5772642427
 40
0.7104914727
 40
0.851452211
 40
1.0
 40
1.0
 40
1.0
 40
1.0
 10
9.7746602037
 20
59.8076811823
 30
0.0
 10
9.7746542385
 20
59.6940943739
 30
0.0
 10
9.7943814386
 20
59.4643159828
 30
0.0
 10
9.8824260516
 20
59.124921992
 30
0.0
 10
10.0277727967
 20
58.7928434683
 30
0.0
 10
10.2285404162
 20
58.4714448736
 30
0.0
 10
10.4824939197
 20
58.1636276089
 30
0.0
 10
10.7870615809
 20
57.8720798967
 30
0.0
 10
11.1392068943
 20
57.5995927101
 30
0.0
 10
11.3967362391
 20
57.4363232415
 30
0.0
 10
11.5320245614
 20
57.3582162592
 30
0.0
  0
SPLINE
  5
241
100
AcDbEntity
  8
0
100
AcDbSpline
 62
7
  6
BYLAYER
 70
0
 71
3
 72
13
 73
9
 74
0
 42
0.0000001
 43
0.0000001
 44
0.0000000001
 40
0.0
 40
0.0
 40
0.0
 40
0.0
 40
0.111813809
 40
0.2251303146
 40
0.3413491774
 40
0.4616827038
 40
0.7181502747
 40
1.0
 40
1.0
 40
1.0
 40
1.0
 10
61.5351647853
 20
42.0776723937
 30
0.0
 10
61.5351597724
 20
41.982217902
 30
0.0
 10
61.521325941
 20
41.7897479529
 30
0.0
 10
61.4593029525
 20
41.5041003449
 30
0.0
 10
61.356596563
 20
41.2226835593
 30
0.0
 10
61.162622109
 20
40.8480366468
 30
0.0
 10
60.8154799178
 20
40.3995761137
 30
0.0
 10
60.466762399
 20
40.0962390822
 30
0.0
 10
60.2736510937
 20
39.952703392
 30
0.0
  0
SPLINE
  5
242
100
AcDbEntity
  8
0
100
AcDbSpline
 62
7
  6
BYLAYER
 70
0
 71
3
 72
29
 73
25
 74
0
 42
0.0000001
 43
0.0000001
 44
0.0000000001
 40
0.0
 40
0.0
 40
0.0
 40
0.0
 40
0.0665293251
 40
0.1383276594
 40
0.2139065558
 40
0.291447666
 40
0.3689837198
 40
0.4445451999
 40
0.5163367753
 40
0.5828713407
 40
0.6431982841
 40
0.6709941585
 40
0.6972618869
 40
0.7221596275
 40
0.745927237
 40
0.7688858909
 40
0.7914192216
 40
0.8139532828
 40
0.8369147557
 40
0.8606891076
 40
0.8855907721
 40
0.9118620964
 40
0.9396677635
 40
1.0
 40
1.0
 40
1.0
 40
1.0
 10
23.2859929349
 20
65.55358075
 30
0.0
 10
23.4937435638
 20
65.6735237134
 30
0.0
 10
23.9480844437
 20
65.8850602403
 30
0.0
 10
24.6879672199
 20
66.109957993
 30
0.0
 10
25.4890680816
 20
66.2483463225
 30
0.0
 10
26.3212031035
 20
66.2950557561
 30
0.0
 10
27.1532973898
 20
66.2483177655
 30
0.0
 10
27.9542223529
 20
66.1099551505
 30
0.0
 10
28.6942579234
 20
65.8849255406
 30
0.0
 10
29.3460021271
 20
65.5816142505
 30
0.0
 10
29.808312043
 20
65.2631447386
 30
0.0
 10
30.1068962494
 20
64.9774372218
 30
0.0
 10
30.2885388451
 20
64.757229799
 30
0.0
 10
30.432176721
 20
64.5273636258
 30
0.0
 10
30.5360921508
 20
64.2898398764
 30
0.0
 10
30.5991169258
 20
64.0470339714
 30
0.0
 10
30.6202180302
 20
63.8014632607
 30
0.0
 10
30.5991726236
 20
63.5558778343
 30
0.0
 10
30.5361812335
 20
63.3130215281
 30
0.0
 10
30.432236428
 20
63.0754589648
 30
0.0
 10
30.2886599446
 20
62.8454982035
 30
0.0
 10
30.1069475199
 20
62.6252434871
 30
0.0
 10
29.8084191977
 20
62.3395095985
 30
0.0
 10
29.5445694977
 20
62.1577848785
 30
0.0
 10
29.3561707352
 20
62.0490139326
 30
0.0
  0
SPLINE
  5
243
100
AcDbEntity
  8
0
100
AcDbSpline
 62
7
  6
BYLAYER
 70
0
 71
3
 72
32
 73
28
 74
0
 42
0.0000001
 43
0.0000001
 44
0.0000000001
 40
0.0
 40
0.0
 40
0.0
 40
0.0
 40
0.0309840992
 40
0.0603862358
 40
0.088177658
 40
0.1144432435
 40
0.1393434978
 40
0.1631138457
 40
0.1860712236
 40
0.2086030947
 40
0.2311348954
 40
0.254091071
 40
0.2778580542
 40
0.3027543263
 40
0.329019266
 40
0.3568110568
 40
0.3862023427
 40
0.4171988714
 40
0.4837203181
 40
0.5554932326
 40
0.6310372658
 40
0.7085525425
 40
0.7860729861
 40
0.8616357942
 40
0.9334210484
 40
0.9674542239
 40
1.0
 40
1.0
 40
1.0
 40
1.0
 10
31.4554898977
 20
60.7207052948
 30
0.0
 10
31.6191984149
 20
60.8152231273
 30
0.0
 10
31.9308332381
 20
61.0127923987
 30
0.0
 10
32.3569741262
 20
61.3425368069
 30
0.0
 10
32.7255582925
 20
61.6953648338
 30
0.0
 10
33.0329193879
 20
62.0678925845
 30
0.0
 10
33.2758782018
 20
62.4569035284
 30
0.0
 10
33.451820073
 20
62.8587763047
 30
0.0
 10
33.5583287597
 20
63.2696468907
 30
0.0
 10
33.5940303582
 20
63.6851256362
 30
0.0
 10
33.5582941062
 20
64.1005970495
 30
0.0
 10
33.4517236496
 20
64.5114189005
 30
0.0
 10
33.2758308537
 20
64.9132560907
 30
0.0
 10
33.0328422426
 20
65.3021905422
 30
0.0
 10
32.7255118766
 20
65.6747144028
 30
0.0
 10
32.3569218136
 20
66.0274179397
 30
0.0
 10
31.9308232358
 20
66.3573108641
 30
0.0
 10
31.2759837029
 20
66.7722214063
 30
0.0
 10
30.3354140915
 20
67.21005561
 30
0.0
 10
29.0838313059
 20
67.5905542113
 30
0.0
 10
27.7289081077
 20
67.8246748855
 30
0.0
 10
26.3213905014
 20
67.9037226256
 30
0.0
 10
24.9136683898
 20
67.8247441357
 30
0.0
 10
23.558760863
 20
67.5906521349
 30
0.0
 10
22.4964438624
 20
67.2678481814
 30
0.0
 10
21.7193612752
 20
66.9364304222
 30
0.0
 10
21.3585991982
 20
66.7485753985
 30
0.0
 10
21.1866383475
 20
66.6492953789
 30
0.0
  0
SPLINE
  5
244
100
AcDbEntity
  8
0
100
AcDbSpline
 62
7
  6
BYLAYER
 70
0
 71
3
 72
32
 73
28
 74
0
 42
0.0000001
 43
0.0000001
 44
0.0000000001
 40
0.0
 40
0.0
 40
0.0
 40
0.0
 40
0.030984093
 40
0.0603862381
 40
0.0881776614
 40
0.1144432442
 40
0.1393434985
 40
0.1631138475
 40
0.1860712255
 40
0.2086030965
 40
0.2311348974
 40
0.2540910732
 40
0.2778580564
 40
0.3027543287
 40
0.3290192686
 40
0.3568110595
 40
0.3862023456
 40
0.4171988744
 40
0.4837203216
 40
0.5554932364
 40
0.6310372702
 40
0.708552547
 40
0.786072992
 40
0.8616357983
 40
0.9334210574
 40
0.9674541898
 40
1.0
 40
1.0
 40
1.0
 40
1.0
 10
21.1866383475
 20
66.6492953789
 30
0.0
 10
21.0229297521
 20
66.5547777597
 30
0.0
 10
20.7112948918
 20
66.3572084855
 30
0.0
 10
20.2851541856
 20
66.0274638237
 30
0.0
 10
19.916569974
 20
65.6746358005
 30
0.0
 10
19.6092088393
 20
65.3021080943
 30
0.0
 10
19.3662500405
 20
64.9130971534
 30
0.0
 10
19.1903081754
 20
64.51122437
 30
0.0
 10
19.0837994854
 20
64.1003537813
 30
0.0
 10
19.048097887
 20
63.6848750371
 30
0.0
 10
19.0838341391
 20
63.2694036248
 30
0.0
 10
19.1904045953
 20
62.8585817733
 30
0.0
 10
19.3662973915
 20
62.4567445829
 30
0.0
 10
19.6092860027
 20
62.0678101317
 30
0.0
 10
19.9166163685
 20
61.695286271
 30
0.0
 10
20.2852064316
 20
61.342582734
 30
0.0
 10
20.7113050094
 20
61.0126898096
 30
0.0
 10
21.3661445423
 20
60.5977792676
 30
0.0
 10
22.3067141537
 20
60.1599450626
 30
0.0
 10
23.5582969388
 20
59.7794464671
 30
0.0
 10
24.9132201402
 20
59.5453257716
 30
0.0
 10
26.3207377302
 20
59.4662781046
 30
0.0
 10
27.7284599093
 20
59.5452563562
 30
0.0
 10
29.0833671825
 20
59.7793491087
 30
0.0
 10
30.1456846969
 20
60.1021510562
 30
0.0
 10
30.922765947
 20
60.4335720615
 30
0.0
 10
31.2835279103
 20
60.62142683
 30
0.0
 10
31.4554898977
 20
60.7207052948
 30
0.0
  0
SPLINE
  5
245
100
AcDbEntity
  8
0
100
AcDbSpline
 62
7
  6
BYLAYER
 70
0
 71
3
 72
29
 73
25
 74
0
 42
0.0000001
 43
0.0000001
 44
0.0000000001
 40
0.0
 40
0.0
 40
0.0
 40
0.0
 40
0.0665294175
 40
0.1383276681
 40
0.2139064111
 40
0.2914473467
 40
0.3689832885
 40
0.4445447387
 40
0.5163365194
 40
0.5828714755
 40
0.643198326
 40
0.6709940195
 40
0.6972617088
 40
0.7221594897
 40
0.7459270155
 40
0.7688854837
 40
0.7914186713
 40
0.813952647
 40
0.8369140502
 40
0.8606883138
 40
0.8855897626
 40
0.9118607937
 40
0.9396665834
 40
1.0
 40
1.0
 40
1.0
 40
1.0
 10
29.3561353102
 20
62.049019361
 30
0.0
 10
29.1483852642
 20
61.929076617
 30
0.0
 10
28.694049473
 20
61.7175342423
 30
0.0
 10
27.9541705691
 20
61.4926347468
 30
0.0
 10
27.153075315
 20
61.3542426843
 30
0.0
 10
26.3209450746
 20
61.3075299892
 30
0.0
 10
25.4888554622
 20
61.3542709624
 30
0.0
 10
24.6879328829
 20
61.4926292855
 30
0.0
 10
23.9478986538
 20
61.7176613781
 30
0.0
 10
23.2961577578
 20
62.0209760625
 30
0.0
 10
22.8338437259
 20
62.3394350783
 30
0.0
 10
22.5352542371
 20
62.6251331877
 30
0.0
 10
22.3536086514
 20
62.8453359246
 30
0.0
 10
22.2099674968
 20
63.075198384
 30
0.0
 10
22.1060473536
 20
63.3127179856
 30
0.0
 10
22.0430172024
 20
63.5555199204
 30
0.0
 10
22.0219101205
 20
63.8010876206
 30
0.0
 10
22.0429490882
 20
64.0466715619
 30
0.0
 10
22.1059346801
 20
64.2895274887
 30
0.0
 10
22.2098731417
 20
64.5270901201
 30
0.0
 10
22.3534395891
 20
64.7570531435
 30
0.0
 10
22.5351420058
 20
64.9773130482
 30
0.0
 10
22.8336704639
 20
65.2630507781
 30
0.0
 10
23.0975286528
 20
65.4447687793
 30
0.0
 10
23.2859289731
 20
65.5535438192
 30
0.0
  0
SPLINE
  5
246
100
AcDbEntity
  8
0
100
AcDbSpline
 62
7
  6
BYLAYER
 70
0
 71
3
 72
15
 73
11
 74
0
 42
0.0000001
 43
0.0000001
 44
0.0000000001
 40
0.0
 40
0.0
 40
0.0
 40
0.0
 40
0.1141541678
 40
0.2373250912
 40
0.3669747292
 40
0.499998918
 40
0.6330232573
 40
0.762673335
 40
0.8858449508
 40
1.0
 40
1.0
 40
1.0
 40
1.0
 10
41.5592071612
 20
64.5169040329
 30
0.0
 10
41.6463399725
 20
64.4665990189
 30
0.0
 10
41.8184421752
 20
64.3459569836
 30
0.0
 10
42.0552496224
 20
64.1244121551
 30
0.0
 10
42.2734776813
 20
63.8625245002
 30
0.0
 10
42.4649135862
 20
63.5701242512
 30
0.0
 10
42.6224233306
 20
63.2581361729
 30
0.0
 10
42.7401127313
 20
62.9382008681
 30
0.0
 10
42.8135748612
 20
62.6223459389
 30
0.0
 10
42.8320046665
 20
62.4129788358
 30
0.0
 10
42.8320046665
 20
62.3123663239
 30
0.0
  0
SPLINE
  5
247
100
AcDbEntity
  8
0
100
AcDbSpline
 62
7
  6
BYLAYER
 70
0
 71
3
 72
29
 73
25
 74
0
 42
0.0000001
 43
0.0000001
 44
0.0000000001
 40
0.0
 40
0.0
 40
0.0
 40
0.0
 40
0.0665293251
 40
0.1383276594
 40
0.2139065558
 40
0.291447666
 40
0.3689837198
 40
0.4445451999
 40
0.5163367753
 40
0.5828713407
 40
0.6431982841
 40
0.6709941585
 40
0.6972618869
 40
0.7221596275
 40
0.745927237
 40
0.7688858909
 40
0.7914192216
 40
0.8139532828
 40
0.8369147557
 40
0.8606891076
 40
0.8855907721
 40
0.9118620964
 40
0.9396677635
 40
1.0
 40
1.0
 40
1.0
 40
1.0
 10
41.9536896788
 20
51.5100151624
 30
0.0
 10
42.1614403077
 20
51.6299581257
 30
0.0
 10
42.6157811876
 20
51.8414946526
 30
0.0
 10
43.3556639638
 20
52.0663924053
 30
0.0
 10
44.1567648254
 20
52.2047807348
 30
0.0
 10
44.9888998473
 20
52.2514901683
 30
0.0
 10
45.8209941337
 20
52.2047521777
 30
0.0
 10
46.6219190968
 20
52.0663895627
 30
0.0
 10
47.3619546673
 20
51.8413599527
 30
0.0
 10
48.0136988709
 20
51.5380486626
 30
0.0
 10
48.4760087869
 20
51.2195791507
 30
0.0
 10
48.7745929933
 20
50.9338716338
 30
0.0
 10
48.956235589
 20
50.7136642111
 30
0.0
 10
49.0998734648
 20
50.4837980379
 30
0.0
 10
49.2037888947
 20
50.2462742884
 30
0.0
 10
49.2668136696
 20
50.0034683834
 30
0.0
 10
49.2879147741
 20
49.7578976727
 30
0.0
 10
49.2668693674
 20
49.5123122463
 30
0.0
 10
49.2038779774
 20
49.2694559401
 30
0.0
 10
49.0999331719
 20
49.0318933768
 30
0.0
 10
48.9563566885
 20
48.8019326155
 30
0.0
 10
48.7746442638
 20
48.5816778991
 30
0.0
 10
48.4761159416
 20
48.2959440105
 30
0.0
 10
48.2122662416
 20
48.1142192905
 30
0.0
 10
48.0238674791
 20
48.0054483446
 30
0.0
  0
SPLINE
  5
248
100
AcDbEntity
  8
0
100
AcDbSpline
 62
7
  6
BYLAYER
 70
0
 71
3
 72
32
 73
28
 74
0
 42
0.0000001
 43
0.0000001
 44
0.0000000001
 40
0.0
 40
0.0
 40
0.0
 40
0.0
 40
0.0309840992
 40
0.0603862358
 40
0.088177658
 40
0.1144432435
 40
0.1393434978
 40
0.1631138457
 40
0.1860712236
 40
0.2086030947
 40
0.2311348954
 40
0.254091071
 40
0.2778580542
 40
0.3027543263
 40
0.329019266
 40
0.3568110568
 40
0.3862023427
 40
0.4171988714
 40
0.4837203181
 40
0.5554932326
 40
0.6310372658
 40
0.7085525425
 40
0.7860729861
 40
0.8616357942
 40
0.9334210484
 40
0.9674542239
 40
1.0
 40
1.0
 40
1.0
 40
1.0
 10
50.1231866415
 20
46.677139707
 30
0.0
 10
50.2868951588
 20
46.7716575394
 30
0.0
 10
50.5985299819
 20
46.9692268108
 30
0.0
 10
51.0246708701
 20
47.298971219
 30
0.0
 10
51.3932550364
 20
47.6517992459
 30
0.0
 10
51.7006161318
 20
48.0243269966
 30
0.0
 10
51.9435749456
 20
48.4133379406
 30
0.0
 10
52.1195168169
 20
48.8152107169
 30
0.0
 10
52.2260255036
 20
49.2260813028
 30
0.0
 10
52.2617271021
 20
49.6415600483
 30
0.0
 10
52.2259908501
 20
50.0570314617
 30
0.0
 10
52.1194203935
 20
50.4678533126
 30
0.0
 10
51.9435275976
 20
50.8696905029
 30
0.0
 10
51.7005389864
 20
51.2586249543
 30
0.0
 10
51.3932086205
 20
51.631148815
 30
0.0
 10
51.0246185574
 20
51.9838523519
 30
0.0
 10
50.5985199797
 20
52.3137452762
 30
0.0
 10
49.9436804468
 20
52.7286558185
 30
0.0
 10
49.0031108354
 20
53.1664900221
 30
0.0
 10
47.7515280498
 20
53.5469886235
 30
0.0
 10
46.3966048516
 20
53.7811092976
 30
0.0
 10
44.9890872452
 20
53.8601570377
 30
0.0
 10
43.5813651336
 20
53.7811785478
 30
0.0
 10
42.2264576069
 20
53.5470865471
 30
0.0
 10
41.1641406063
 20
53.2242825935
 30
0.0
 10
40.3870580191
 20
52.8928648343
 30
0.0
 10
40.0262959421
 20
52.7050098107
 30
0.0
 10
39.8543350914
 20
52.6057297911
 30
0.0
  0
SPLINE
  5
249
100
AcDbEntity
  8
0
100
AcDbSpline
 62
7
  6
BYLAYER
 70
0
 71
3
 72
13
 73
9
 74
0
 42
0.0000001
 43
0.0000001
 44
0.0000000001
 40
0.0
 40
0.0
 40
0.0
 40
0.0
 40
0.1080961762
 40
0.2182368155
 40
0.3322623314
 40
0.4516920354
 40
0.7106271874
 40
1.0
 40
1.0
 40
1.0
 40
1.0
 10
42.8091759913
 20
65.2122530656
 30
0.0
 10
42.7681885777
 20
65.2359166266
 30
0.0
 10
42.6811717626
 20
65.2766929375
 30
0.0
 10
42.5403483882
 20
65.3155831919
 30
0.0
 10
42.3902501359
 20
65.3323472627
 30
0.0
 10
42.1741366319
 20
65.3248383132
 30
0.0
 10
41.8870012362
 20
65.2556446959
 30
0.0
 10
41.6689256445
 20
65.1517914661
 30
0.0
 10
41.5592030396
 20
65.0884434687
 30
0.0
  0
SPLINE
  5
24A
100
AcDbEntity
  8
0
100
AcDbSpline
 62
7
  6
BYLAYER
 70
0
 71
3
 72
13
 73
9
 74
0
 42
0.0000001
 43
0.0000001
 44
0.0000000001
 40
0.0
 40
0.0
 40
0.0
 40
0.0
 40
0.1080961766
 40
0.2182368163
 40
0.3322623324
 40
0.4516920366
 40
0.7106271883
 40
1.0
 40
1.0
 40
1.0
 40
1.0
 10
59.2600138004
 20
52.4485626258
 30
0.0
 10
59.2190263876
 20
52.4722261864
 30
0.0
 10
59.1320095743
 20
52.5130024966
 30
0.0
 10
58.9911862028
 20
52.5518927509
 30
0.0
 10
58.8410879537
 20
52.5686568225
 30
0.0
 10
58.6249744546
 20
52.5611478751
 30
0.0
 10
58.3378390652
 20
52.4919542628
 30
0.0
 10
58.1197634776
 20
52.3881010383
 30
0.0
 10
58.0100408747
 20
52.324753044
 30
0.0
  0
SPLINE
  5
24B
100
AcDbEntity
  8
0
100
AcDbSpline
 62
7
  6
BYLAYER
 70
0
 71
3
 72
32
 73
28
 74
0
 42
0.0000001
 43
0.0000001
 44
0.0000000001
 40
0.0
 40
0.0
 40
0.0
 40
0.0
 40
0.030984093
 40
0.0603862381
 40
0.0881776614
 40
0.1144432442
 40
0.1393434985
 40
0.1631138475
 40
0.1860712255
 40
0.2086030965
 40
0.2311348974
 40
0.2540910732
 40
0.2778580564
 40
0.3027543287
 40
0.3290192686
 40
0.3568110595
 40
0.3862023456
 40
0.4171988744
 40
0.4837203216
 40
0.5554932364
 40
0.6310372702
 40
0.708552547
 40
0.786072992
 40
0.8616357983
 40
0.9334210574
 40
0.9674541898
 40
1.0
 40
1.0
 40
1.0
 40
1.0
 10
39.8543350914
 20
52.6057297911
 30
0.0
 10
39.690626496
 20
52.5112121719
 30
0.0
 10
39.3789916357
 20
52.3136428976
 30
0.0
 10
38.9528509295
 20
51.9838982358
 30
0.0
 10
38.5842667179
 20
51.6310702126
 30
0.0
 10
38.2769055831
 20
51.2585425065
 30
0.0
 10
38.0339467843
 20
50.8695315656
 30
0.0
 10
37.8580049193
 20
50.4676587822
 30
0.0
 10
37.7514962293
 20
50.0567881934
 30
0.0
 10
37.7157946309
 20
49.6413094492
 30
0.0
 10
37.751530883
 20
49.225838037
 30
0.0
 10
37.8581013392
 20
48.8150161855
 30
0.0
 10
38.0339941353
 20
48.4131789951
 30
0.0
 10
38.2769827466
 20
48.0242445438
 30
0.0
 10
38.5843131124
 20
47.6517206831
 30
0.0
 10
38.9529031755
 20
47.2990171462
 30
0.0
 10
39.3790017532
 20
46.9691242218
 30
0.0
 10
40.0338412862
 20
46.5542136797
 30
0.0
 10
40.9744108976
 20
46.1163794747
 30
0.0
 10
42.2259936827
 20
45.7358808792
 30
0.0
 10
43.5809168841
 20
45.5017601837
 30
0.0
 10
44.9884344741
 20
45.4227125168
 30
0.0
 10
46.3961566532
 20
45.5016907683
 30
0.0
 10
47.7510639264
 20
45.7357835209
 30
0.0
 10
48.8133814407
 20
46.0585854684
 30
0.0
 10
49.5904626909
 20
46.3900064737
 30
0.0
 10
49.9512246542
 20
46.5778612421
 30
0.0
 10
50.1231866415
 20
46.677139707
 30
0.0
  0
SPLINE
  5
24C
100
AcDbEntity
  8
0
100
AcDbSpline
 62
7
  6
BYLAYER
 70
0
 71
3
 72
29
 73
25
 74
0
 42
0.0000001
 43
0.0000001
 44
0.0000000001
 40
0.0
 40
0.0
 40
0.0
 40
0.0
 40
0.0665294175
 40
0.1383276681
 40
0.2139064111
 40
0.2914473467
 40
0.3689832885
 40
0.4445447387
 40
0.5163365194
 40
0.5828714755
 40
0.643198326
 40
0.6709940195
 40
0.6972617088
 40
0.7221594897
 40
0.7459270155
 40
0.7688854837
 40
0.7914186713
 40
0.813952647
 40
0.8369140502
 40
0.8606883138
 40
0.8855897626
 40
0.9118607937
 40
0.9396665834
 40
1.0
 40
1.0
 40
1.0
 40
1.0
 10
48.0238320541
 20
48.005453773
 30
0.0
 10
47.8160820081
 20
47.885511029
 30
0.0
 10
47.3617462169
 20
47.6739686543
 30
0.0
 10
46.621867313
 20
47.4490691588
 30
0.0
 10
45.8207720588
 20
47.3106770963
 30
0.0
 10
44.9886418185
 20
47.2639644012
 30
0.0
 10
44.1565522061
 20
47.3107053744
 30
0.0
 10
43.3556296268
 20
47.4490636976
 30
0.0
 10
42.6155953976
 20
47.6740957902
 30
0.0
 10
41.9638545017
 20
47.9774104747
 30
0.0
 10
41.5015404698
 20
48.2958694905
 30
0.0
 10
41.202950981
 20
48.5815675999
 30
0.0
 10
41.0213053953
 20
48.8017703368
 30
0.0
 10
40.8776642407
 20
49.0316327962
 30
0.0
 10
40.7737440975
 20
49.2691523979
 30
0.0
 10
40.7107139463
 20
49.5119543327
 30
0.0
 10
40.6896068644
 20
49.7575220329
 30
0.0
 10
40.7106458321
 20
50.0031059742
 30
0.0
 10
40.773631424
 20
50.2459619009
 30
0.0
 10
40.8775698856
 20
50.4835245324
 30
0.0
 10
41.021136333
 20
50.7134875557
 30
0.0
 10
41.2028387497
 20
50.9337474604
 30
0.0
 10
41.5013672078
 20
51.2194851904
 30
0.0
 10
41.7652253967
 20
51.4012031916
 30
0.0
 10
41.953625717
 20
51.5099782315
 30
0.0
  0
SPLINE
  5
24D
100
AcDbEntity
  8
0
100
AcDbSpline
 62
7
  6
BYLAYER
 70
0
 71
3
 72
35
 73
31
 74
0
 42
0.0000001
 43
0.0000001
 44
0.0000000001
 40
0.0
 40
0.0
 40
0.0
 40
0.0
 40
0.0325430372
 40
0.0665668333
 40
0.1018986292
 40
0.1383737692
 40
0.2139187231
 40
0.2914289579
 40
0.3689407616
 40
0.4444856093
 40
0.4809634032
 40
0.5162949023
 40
0.5503064882
 40
0.5828597508
 40
0.6138540535
 40
0.6432406275
 40
0.6710267171
 40
0.6972897478
 40
0.7221843284
 40
0.7459480653
 40
0.7689011249
 40
0.7914293657
 40
0.8139573537
 40
0.8369098269
 40
0.8606737735
 40
0.8855688095
 40
0.9118294633
 40
0.9396162477
 40
0.9690156668
 40
1.0
 40
1.0
 40
1.0
 40
1.0
 10
51.1759709615
 20
45.7785284659
 30
0.0
 10
50.9687417356
 20
45.6588853307
 30
0.0
 10
50.5340477176
 20
45.4325190714
 30
0.0
 10
49.8442829977
 20
45.1383177004
 30
0.0
 10
49.1079814754
 20
44.8845328093
 30
0.0
 10
48.0618740665
 20
44.5999798684
 30
0.0
 10
46.6849767085
 20
44.3621046625
 30
0.0
 10
44.9887898002
 20
44.2669050539
 30
0.0
 10
43.2926049382
 20
44.362109805
 30
0.0
 10
41.9156738902
 20
44.5999612527
 30
0.0
 10
40.8695529046
 20
44.884547337
 30
0.0
 10
40.1333348034
 20
45.1383076694
 30
0.0
 10
39.4435213691
 20
45.4324689892
 30
0.0
 10
38.8065968263
 20
45.7641832002
 30
0.0
 10
38.2286746409
 20
46.1305049567
 30
0.0
 10
37.7151694914
 20
46.5279493837
 30
0.0
 10
37.2710790838
 20
46.9530457848
 30
0.0
 10
36.900709276
 20
47.4019364203
 30
0.0
 10
36.6078939359
 20
47.8706479638
 30
0.0
 10
36.3959761374
 20
48.3549027174
 30
0.0
 10
36.2675262164
 20
48.849950668
 30
0.0
 10
36.2245596473
 20
49.350604706
 30
0.0
 10
36.2675153306
 20
49.8512544315
 30
0.0
 10
36.3959408627
 20
50.3463044162
 30
0.0
 10
36.6078628544
 20
50.8305590228
 30
0.0
 10
36.9006666587
 20
51.2992615769
 30
0.0
 10
37.2709939938
 20
51.748171903
 30
0.0
 10
37.7151480114
 20
52.1733385405
 30
0.0
 10
38.2286783915
 20
52.5707300392
 30
0.0
 10
38.6042471411
 20
52.8088290459
 30
0.0
 10
38.8015507714
 20
52.92274167
 30
0.0
  0
SPLINE
  5
24E
100
AcDbEntity
  8
0
100
AcDbSpline
 62
7
  6
BYLAYER
 70
0
 71
3
 72
35
 73
31
 74
0
 42
0.0000001
 43
0.0000001
 44
0.0000000001
 40
0.0
 40
0.0
 40
0.0
 40
0.0
 40
0.0325430372
 40
0.0665668333
 40
0.1018986292
 40
0.1383737692
 40
0.2139187231
 40
0.2914289579
 40
0.3689407616
 40
0.4444856093
 40
0.4809634032
 40
0.5162949023
 40
0.5503064882
 40
0.5828597508
 40
0.6138540535
 40
0.6432406275
 40
0.6710267171
 40
0.6972897478
 40
0.7221843284
 40
0.7459480653
 40
0.7689011249
 40
0.7914293657
 40
0.8139573537
 40
0.8369098269
 40
0.8606737735
 40
0.8855688095
 40
0.9118294633
 40
0.9396162477
 40
0.9690156668
 40
1.0
 40
1.0
 40
1.0
 40
1.0
 10
38.8015507714
 20
52.92274167
 30
0.0
 10
39.0087799973
 20
53.0423848052
 30
0.0
 10
39.4434740154
 20
53.2687510645
 30
0.0
 10
40.1332387352
 20
53.5629524355
 30
0.0
 10
40.8695402575
 20
53.8167373266
 30
0.0
 10
41.9156476664
 20
54.1012902675
 30
0.0
 10
43.2925450244
 20
54.3391654734
 30
0.0
 10
44.9887319327
 20
54.434365082
 30
0.0
 10
46.6849167947
 20
54.3391603309
 30
0.0
 10
48.0618478428
 20
54.1013088832
 30
0.0
 10
49.1079688283
 20
53.816722799
 30
0.0
 10
49.8441869296
 20
53.5629624666
 30
0.0
 10
50.5340003638
 20
53.2688011468
 30
0.0
 10
51.1709249066
 20
52.9370869358
 30
0.0
 10
51.748847092
 20
52.5707651792
 30
0.0
 10
52.2623522415
 20
52.1733207522
 30
0.0
 10
52.7064426491
 20
51.7482243511
 30
0.0
 10
53.0768124569
 20
51.2993337156
 30
0.0
 10
53.3696277971
 20
50.8306221722
 30
0.0
 10
53.5815455956
 20
50.3463674185
 30
0.0
 10
53.7099955165
 20
49.8513194679
 30
0.0
 10
53.7529620856
 20
49.3506654299
 30
0.0
 10
53.7100064024
 20
48.8500157044
 30
0.0
 10
53.5815808702
 20
48.3549657197
 30
0.0
 10
53.3696588785
 20
47.8707111131
 30
0.0
 10
53.0768550742
 20
47.4020085591
 30
0.0
 10
52.7065277391
 20
46.953098233
 30
0.0
 10
52.2623737215
 20
46.5279315954
 30
0.0
 10
51.7488433415
 20
46.1305400967
 30
0.0
 10
51.3732745918
 20
45.89244109
 30
0.0
 10
51.1759709615
 20
45.7785284659
 30
0.0
  0
SPLINE
  5
24F
100
AcDbEntity
  8
0
100
AcDbSpline
 62
7
  6
BYLAYER
 70
0
 71
3
 72
11
 73
7
 74
0
 42
0.0000001
 43
0.0000001
 44
0.0000000001
 40
0.0
 40
0.0
 40
0.0
 40
0.0
 40
0.261548587
 40
0.5155758839
 40
0.7617904152
 40
1.0
 40
1.0
 40
1.0
 40
1.0
 10
44.4593778543
 20
41.6659057386
 30
0.0
 10
45.7329944361
 20
42.2370690392
 30
0.0
 10
48.2173766726
 20
43.4227581231
 30
0.0
 10
51.7942487452
 20
45.3590084643
 30
0.0
 10
55.1552676332
 20
47.4205306251
 30
0.0
 10
57.2789902798
 20
48.897967415
 30
0.0
 10
58.2992879679
 20
49.6563338534
 30
0.0
  0
SPLINE
  5
250
100
AcDbEntity
  8
0
100
AcDbSpline
 62
7
  6
BYLAYER
 70
0
 71
3
 72
18
 73
14
 74
0
 42
0.0000001
 43
0.0000001
 44
0.0000000001
 40
0.0
 40
0.0
 40
0.0
 40
0.0
 40
0.1376746245
 40
0.2619126607
 40
0.3200348554
 40
0.3762459531
 40
0.4313190873
 40
0.4861155641
 40
0.5415242548
 40
0.5983884392
 40
0.7189926585
 40
0.8523432294
 40
1.0
 40
1.0
 40
1.0
 40
1.0
 10
58.2992879679
 20
49.6563338534
 30
0.0
 10
58.4220137162
 20
49.7475533962
 30
0.0
 10
58.6417485966
 20
49.9412560453
 30
0.0
 10
58.8533283646
 20
50.2316838172
 30
0.0
 10
58.9628773809
 20
50.4738516893
 30
0.0
 10
59.0150981615
 20
50.655350652
 30
0.0
 10
59.0386199884
 20
50.839062276
 30
0.0
 10
59.0330115148
 20
51.0233073136
 30
0.0
 10
58.9984814016
 20
51.2063845104
 30
0.0
 10
58.9126818243
 20
51.4512989818
 30
0.0
 10
58.7293554905
 20
51.7489167985
 30
0.0
 10
58.411601824
 20
52.0662137974
 30
0.0
 10
58.1520730559
 20
52.2427526104
 30
0.0
 10
58.0100433835
 20
52.3247516256
 30
0.0
  0
SPLINE
  5
251
100
AcDbEntity
  8
0
100
AcDbSpline
 62
7
  6
BYLAYER
 70
0
 71
3
 72
12
 73
8
 74
0
 42
0.0000001
 43
0.0000001
 44
0.0000000001
 40
0.0
 40
0.0
 40
0.0
 40
0.0
 40
0.2623576352
 40
0.5232149973
 40
0.7719920164
 40
0.8891105164
 40
1.0
 40
1.0
 40
1.0
 40
1.0
 10
10.3700152059
 20
44.1948468677
 30
0.0
 10
10.5490299881
 20
44.4302655193
 30
0.0
 10
10.8714037632
 20
44.9271458545
 30
0.0
 10
11.2377733496
 20
45.7194903021
 30
0.0
 10
11.436489797
 20
46.4011335959
 30
0.0
 10
11.5176856511
 20
46.9330587718
 30
0.0
 10
11.5320245613
 20
47.1902331268
 30
0.0
 10
11.5320245613
 20
47.3152365286
 30
0.0
  0
SPLINE
  5
252
100
AcDbEntity
  8
0
100
AcDbSpline
 62
7
  6
BYLAYER
 70
0
 71
3
 72
15
 73
11
 74
0
 42
0.0000001
 43
0.0000001
 44
0.0000000001
 40
0.0
 40
0.0
 40
0.0
 40
0.0
 40
0.1127768733
 40
0.2339624333
 40
0.3614522028
 40
0.4927386156
 40
0.6250174135
 40
0.7554174784
 40
0.8812317382
 40
1.0
 40
1.0
 40
1.0
 40
1.0
 10
39.8374731651
 20
41.8328776759
 30
0.0
 10
39.9928991878
 20
41.7431444499
 30
0.0
 10
40.3306899283
 20
41.5829412488
 30
0.0
 10
40.8794643403
 20
41.4062218271
 30
0.0
 10
41.4739001866
 20
41.2887011458
 30
0.0
 10
42.0949506452
 20
41.2340498425
 30
0.0
 10
42.7229305292
 20
41.2440667055
 30
0.0
 10
43.3378908527
 20
41.3183587488
 30
0.0
 10
43.9200886675
 20
41.4546240873
 30
0.0
 10
44.2869216557
 20
41.5885664104
 30
0.0
 10
44.4593778543
 20
41.6659057386
 30
0.0
  0
SPLINE
  5
253
100
AcDbEntity
  8
0
100
AcDbSpline
 62
7
  6
BYLAYER
 70
0
 71
3
 72
15
 73
11
 74
0
 42
0.0000001
 43
0.0000001
 44
0.0000000001
 40
0.0
 40
0.0
 40
0.0
 40
0.0
 40
0.1480711277
 40
0.2888006363
 40
0.4220269003
 40
0.5481119663
 40
0.66775389
 40
0.7819745878
 40
0.8921554785
 40
1.0
 40
1.0
 40
1.0
 40
1.0
 10
11.5320245614
 20
47.3152365285
 30
0.0
 10
11.4003347296
 20
47.3912659683
 30
0.0
 10
11.1493124907
 20
47.5500283958
 30
0.0
 10
10.8050067757
 20
47.8143085837
 30
0.0
 10
10.5055816122
 20
48.0967423311
 30
0.0
 10
10.2538438179
 20
48.3947358769
 30
0.0
 10
10.0522174015
 20
48.7058454924
 30
0.0
 10
9.9027148251
 20
49.0273859486
 30
0.0
 10
9.8072030007
 20
49.3563448828
 30
0.0
 10
9.7801323816
 20
49.5798078318
 30
0.0
 10
9.7760325835
 20
49.6904827187
 30
0.0
  0
SPLINE
  5
254
100
AcDbEntity
  8
0
100
AcDbSpline
 62
7
  6
BYLAYER
 70
0
 71
3
 72
12
 73
8
 74
0
 42
0.0000001
 43
0.0000001
 44
0.0000000001
 40
0.0
 40
0.0
 40
0.0
 40
0.0
 40
0.1108894836
 40
0.2280079836
 40
0.4767850027
 40
0.7376423648
 40
1.0
 40
1.0
 40
1.0
 40
1.0
 10
38.0697126253
 20
31.9940417928
 30
0.0
 10
38.0697126253
 20
31.8690383911
 30
0.0
 10
38.0553737152
 20
31.6118640361
 30
0.0
 10
37.974177861
 20
31.0799388601
 30
0.0
 10
37.7754614137
 20
30.3982955664
 30
0.0
 10
37.4090918273
 20
29.6059511188
 30
0.0
 10
37.0867180522
 20
29.1090707836
 30
0.0
 10
36.9077032699
 20
28.8736521319
 30
0.0
  0
SPLINE
  5
255
100
AcDbEntity
  8
0
100
AcDbSpline
 62
7
  6
BYLAYER
 70
0
 71
3
 72
15
 73
11
 74
0
 42
0.0000001
 43
0.0000001
 44
0.0000000001
 40
0.0
 40
0.0
 40
0.0
 40
0.0
 40
0.1187753253
 40
0.2445742246
 40
0.3749824066
 40
0.5072614978
 40
0.6385483704
 40
0.7660456039
 40
0.8872165543
 40
1.0
 40
1.0
 40
1.0
 40
1.0
 10
45.9929819931
 20
31.7078044585
 30
0.0
 10
45.6973245905
 20
31.5752145879
 30
0.0
 10
45.068496204
 20
31.3455800588
 30
0.0
 10
44.0704324871
 20
31.1120239148
 30
0.0
 10
43.0162387164
 20
30.9846070957
 30
0.0
 10
41.939674282
 20
30.9674738438
 30
0.0
 10
40.8749875867
 20
31.061124631
 30
0.0
 10
39.8559828222
 20
31.2626470444
 30
0.0
 10
38.9152136257
 20
31.5655525389
 30
0.0
 10
38.3361733245
 20
31.8402041167
 30
0.0
 10
38.0697126253
 20
31.9940417929
 30
0.0
  0
SPLINE
  5
256
100
AcDbEntity
  8
0
100
AcDbSpline
 62
7
  6
BYLAYER
 70
0
 71
3
 72
12
 73
8
 74
0
 42
0.0000001
 43
0.0000001
 44
0.0000000001
 40
0.0
 40
0.0
 40
0.0
 40
0.0
 40
0.1108999007
 40
0.2284968677
 40
0.478640945
 40
0.7398323206
 40
1.0
 40
1.0
 40
1.0
 40
1.0
 10
45.9929819973
 20
31.7078044604
 30
0.0
 10
45.9929819973
 20
31.5824004376
 30
0.0
 10
46.0054987481
 20
31.3239147061
 30
0.0
 10
46.0759606428
 20
30.7868268941
 30
0.0
 10
46.2477510362
 20
30.0940637756
 30
0.0
 10
46.5643762616
 20
29.2790234647
 30
0.0
 10
46.8447027085
 20
28.7582135812
 30
0.0
 10
47.0010719142
 20
28.5090174363
 30
0.0
  0
SPLINE
  5
257
100
AcDbEntity
  8
0
100
AcDbSpline
 62
7
  6
BYLAYER
 70
0
 71
3
 72
9
 73
5
 74
0
 42
0.0000001
 43
0.0000001
 44
0.0000000001
 40
0.0
 40
0.0
 40
0.0
 40
0.0
 40
0.4927059004
 40
1.0
 40
1.0
 40
1.0
 40
1.0
 10
53.580144027
 20
35.5722837955
 30
0.0
 10
52.3686941096
 20
34.8728570347
 30
0.0
 10
49.8705968794
 20
33.5205690648
 30
0.0
 10
47.3071595455
 20
32.2971576434
 30
0.0
 10
45.9929819931
 20
31.7078044585
 30
0.0
  0
SPLINE
  5
258
100
AcDbEntity
  8
0
100
AcDbSpline
 62
7
  6
BYLAYER
 70
0
 71
3
 72
9
 73
5
 74
0
 42
0.0000001
 43
0.0000001
 44
0.0000000001
 40
0.0
 40
0.0
 40
0.0
 40
0.0
 40
0.2438376148
 40
1.0
 40
1.0
 40
1.0
 40
1.0
 10
60.2736510937
 20
39.952703392
 30
0.0
 10
59.7516559893
 20
39.5647150894
 30
0.0
 10
57.5861895542
 20
38.0069324785
 30
0.0
 10
55.3268625351
 20
36.5807461767
 30
0.0
 10
53.580144027
 20
35.5722837955
 30
0.0
  0
SPLINE
  5
259
100
AcDbEntity
  8
0
100
AcDbSpline
 62
7
  6
BYLAYER
 70
0
 71
3
 72
11
 73
7
 74
0
 42
0.0000001
 43
0.0000001
 44
0.0000000001
 40
0.0
 40
0.0
 40
0.0
 40
0.0
 40
0.2275233891
 40
0.4750011203
 40
0.7354831047
 40
1.0
 40
1.0
 40
1.0
 40
1.0
 10
60.2736510937
 20
39.952703392
 30
0.0
 10
60.2736510937
 20
39.6976343668
 30
0.0
 10
60.3408995247
 20
39.1642654194
 30
0.0
 10
60.6028075649
 20
38.378080003
 30
0.0
 10
61.0137322675
 20
37.6114514344
 30
0.0
 10
61.3728830723
 20
37.1414179184
 30
0.0
 10
61.5714686765
 20
36.9211897153
 30
0.0
  0
SPLINE
  5
25A
100
AcDbEntity
  8
0
100
AcDbSpline
 62
7
  6
BYLAYER
 70
0
 71
3
 72
13
 73
9
 74
0
 42
0.0000001
 43
0.0000001
 44
0.0000000001
 40
0.0
 40
0.0
 40
0.0
 40
0.0
 40
0.1080952413
 40
0.2182350756
 40
0.3322600289
 40
0.4516894855
 40
0.710625211
 40
1.0
 40
1.0
 40
1.0
 40
1.0
 10
44.0591913608
 20
62.4756357334
 30
0.0
 10
44.059191361
 20
62.4283081007
 30
0.0
 10
44.0509970181
 20
62.3325616031
 30
0.0
 10
44.014265821
 20
62.1911603455
 30
0.0
 10
43.9537347866
 20
62.0527897495
 30
0.0
 10
43.8391741994
 20
61.8693844495
 30
0.0
 10
43.6356805363
 20
61.6553146217
 30
0.0
 10
43.436700985
 20
61.5183824378
 30
0.0
 10
43.3269773524
 20
61.4550338471
 30
0.0
  0
SPLINE
  5
25B
100
AcDbEntity
  8
0
100
AcDbSpline
 62
7
  6
BYLAYER
 70
0
 71
3
 72
15
 73
11
 74
0
 42
0.0000001
 43
0.0000001
 44
0.0000000001
 40
0.0
 40
0.0
 40
0.0
 40
0.0
 40
0.1379810526
 40
0.2651135112
 40
0.3849945414
 40
0.5009376541
 40
0.6163008853
 40
0.7348563429
 40
0.8610452507
 40
1.0
 40
1.0
 40
1.0
 40
1.0
 10
43.3269773524
 20
62.0265855396
 30
0.0
 10
43.3260232738
 20
62.0588055462
 30
0.0
 10
43.3175068808
 20
62.120819722
 30
0.0
 10
43.2839117272
 20
62.2052141407
 30
0.0
 10
43.2331050353
 20
62.2743056404
 30
0.0
 10
43.1680441987
 20
62.3259098705
 30
0.0
 10
43.091681074
 20
62.3578572001
 30
0.0
 10
43.0070614094
 20
62.3678806175
 30
0.0
 10
42.9174905168
 20
62.3538210482
 30
0.0
 10
42.8601172763
 20
62.3285970499
 30
0.0
 10
42.8320046664
 20
62.3123663239
 30
0.0
  0
SPLINE
  5
25C
100
AcDbEntity
  8
0
100
AcDbSpline
 62
7
  6
BYLAYER
 70
0
 71
3
 72
15
 73
11
 74
0
 42
0.0000001
 43
0.0000001
 44
0.0000000001
 40
0.0
 40
0.0
 40
0.0
 40
0.0
 40
0.1084268514
 40
0.2299466909
 40
0.3610887623
 40
0.4974328885
 40
0.6341764406
 40
0.7664649207
 40
0.8896975608
 40
1.0
 40
1.0
 40
1.0
 40
1.0
 10
25.6493814221
 20
52.3920333848
 30
0.0
 10
25.6174653106
 20
52.3736067192
 30
0.0
 10
25.5544873295
 20
52.3263572782
 30
0.0
 10
25.468431924
 20
52.2384714501
 30
0.0
 10
25.3871523068
 20
52.133863312
 30
0.0
 10
25.3135066306
 20
52.017654478
 30
0.0
 10
25.2503008282
 20
51.895019528
 30
0.0
 10
25.2003449785
 20
51.7711557905
 30
0.0
 10
25.1663885455
 20
51.651294609
 30
0.0
 10
25.1554817525
 20
51.5721864215
 30
0.0
 10
25.1544087361
 20
51.5347107851
 30
0.0
  0
SPLINE
  5
25D
100
AcDbEntity
  8
0
100
AcDbSpline
 62
7
  6
BYLAYER
 70
0
 71
3
 72
15
 73
11
 74
0
 42
0.0000001
 43
0.0000001
 44
0.0000000001
 40
0.0
 40
0.0
 40
0.0
 40
0.0
 40
0.114147991
 40
0.2373378129
 40
0.3669789407
 40
0.5000027854
 40
0.6330261431
 40
0.7626663483
 40
0.8858540737
 40
1.0
 40
1.0
 40
1.0
 40
1.0
 10
23.9523131005
 20
46.9215149964
 30
0.0
 10
23.7925752878
 20
47.0137375794
 30
0.0
 10
23.4770501251
 20
47.234955539
 30
0.0
 10
23.0428741961
 20
47.6411165394
 30
0.0
 10
22.642810781
 20
48.1212984732
 30
0.0
 10
22.2918351116
 20
48.657353808
 30
0.0
 10
22.0031037536
 20
49.2293430487
 30
0.0
 10
21.7873057075
 20
49.8158999714
 30
0.0
 10
21.6526674906
 20
50.3949854099
 30
0.0
 10
21.6188775268
 20
50.7788416309
 30
0.0
 10
21.6188775268
 20
50.9632865899
 30
0.0
  0
SPLINE
  5
25E
100
AcDbEntity
  8
0
100
AcDbSpline
 62
7
  6
BYLAYER
 70
0
 71
3
 72
15
 73
11
 74
0
 42
0.0000001
 43
0.0000001
 44
0.0000000001
 40
0.0
 40
0.0
 40
0.0
 40
0.0
 40
0.1141441531
 40
0.2373312038
 40
0.3669729364
 40
0.4999983967
 40
0.63302408
 40
0.7626664638
 40
0.8858545409
 40
1.0
 40
1.0
 40
1.0
 40
1.0
 10
23.3866344232
 20
54.5965687142
 30
0.0
 10
23.265627993
 20
54.5267060362
 30
0.0
 10
23.0266000897
 20
54.3591329545
 30
0.0
 10
22.6976888175
 20
54.0514482526
 30
0.0
 10
22.3946124364
 20
53.687686297
 30
0.0
 10
22.1287193773
 20
53.2815905535
 30
0.0
 10
21.9099784442
 20
52.8482707574
 30
0.0
 10
21.746490586
 20
52.4039150893
 30
0.0
 10
21.6444837403
 20
51.9652234315
 30
0.0
 10
21.6188748301
 20
51.6744298669
 30
0.0
 10
21.6188748301
 20
51.5347022867
 30
0.0
  0
SPLINE
  5
25F
100
AcDbEntity
  8
0
100
AcDbSpline
 62
7
  6
BYLAYER
 70
0
 71
3
 72
27
 73
23
 74
0
 42
0.0000001
 43
0.0000001
 44
0.0000000001
 40
0.0
 40
0.0
 40
0.0
 40
0.0
 40
0.0558483808
 40
0.112980417
 40
0.1422440051
 40
0.1720358148
 40
0.2024412157
 40
0.2334982168
 40
0.2974379569
 40
0.3636002472
 40
0.4313757783
 40
0.5000229642
 40
0.5686741182
 40
0.6364402112
 40
0.7025860634
 40
0.7664955482
 40
0.7975332765
 40
0.8279203347
 40
0.8576958862
 40
0.8869599163
 40
0.9441321171
 40
1.0
 40
1.0
 40
1.0
 40
1.0
 10
25.154408736
 20
51.5347107851
 30
0.0
 10
25.073010667
 20
51.4895967726
 30
0.0
 10
24.8966324459
 20
51.4181698937
 30
0.0
 10
24.6603604958
 20
51.3814317897
 30
0.0
 10
24.4664146989
 20
51.383886133
 30
0.0
 10
24.3182097188
 20
51.4026880242
 30
0.0
 10
24.1699740803
 20
51.4377525549
 30
0.0
 10
23.971975673
 20
51.5053820001
 30
0.0
 10
23.7307866696
 20
51.6269440024
 30
0.0
 10
23.4650654317
 20
51.8248872071
 30
0.0
 10
23.231913049
 20
52.0712857936
 30
0.0
 10
23.0392982713
 20
52.3551203763
 30
0.0
 10
22.8899098296
 20
52.6638876969
 30
0.0
 10
22.7933764684
 20
52.9890644741
 30
0.0
 10
22.75524546
 20
53.3180961699
 30
0.0
 10
22.7702934367
 20
53.5876146732
 30
0.0
 10
22.8101902795
 20
53.7928857946
 30
0.0
 10
22.8534641512
 20
53.9388413697
 30
0.0
 10
22.9109876199
 20
54.0766693206
 30
0.0
 10
23.0060944214
 20
54.2457855119
 30
0.0
 10
23.1566493369
 20
54.4316602256
 30
0.0
 10
23.3068061187
 20
54.5486686999
 30
0.0
 10
23.3866344232
 20
54.5965687142
 30
0.0
  0
SPLINE
  5
260
100
AcDbEntity
  8
0
100
AcDbSpline
 62
7
  6
BYLAYER
 70
0
 71
3
 72
15
 73
11
 74
0
 42
0.0000001
 43
0.0000001
 44
0.0000000001
 40
0.0
 40
0.0
 40
0.0
 40
0.0
 40
0.1141447985
 40
0.2373324971
 40
0.3669747555
 40
0.5000005214
 40
0.6330262147
 40
0.7626682613
 40
0.8858556261
 40
1.0
 40
1.0
 40
1.0
 40
1.0
 10
21.6188748301
 20
51.5347022867
 30
0.0
 10
21.7398822981
 20
51.464840173
 30
0.0
 10
22.0045210894
 20
51.3416246668
 30
0.0
 10
22.4354418757
 20
51.2106237897
 30
0.0
 10
22.9020085905
 20
51.1300342978
 30
0.0
 10
23.3866447643
 20
51.1028124476
 30
0.0
 10
23.8712805507
 20
51.1300365979
 30
0.0
 10
24.337846121
 20
51.2106283052
 30
0.0
 10
24.768765052
 20
51.3416312307
 30
0.0
 10
25.0334022221
 20
51.4648480587
 30
0.0
 10
25.154408736
 20
51.5347107851
 30
0.0
  0
SPLINE
  5
261
100
AcDbEntity
  8
0
100
AcDbSpline
 62
7
  6
BYLAYER
 70
0
 71
3
 72
15
 73
11
 74
0
 42
0.0000001
 43
0.0000001
 44
0.0000000001
 40
0.0
 40
0.0
 40
0.0
 40
0.0
 40
0.1141550492
 40
0.237326665
 40
0.3669767427
 40
0.500001082
 40
0.6330252708
 40
0.7626749089
 40
0.8858458322
 40
1.0
 40
1.0
 40
1.0
 40
1.0
 10
25.649381422
 20
52.3920333848
 30
0.0
 10
25.649381422
 20
52.4926458966
 30
0.0
 10
25.6309516166
 20
52.7020129997
 30
0.0
 10
25.5574894866
 20
53.0178679288
 30
0.0
 10
25.4398000859
 20
53.3378032336
 30
0.0
 10
25.2822903415
 20
53.6497913119
 30
0.0
 10
25.0908544366
 20
53.9421915609
 30
0.0
 10
24.8726263778
 20
54.2040792158
 30
0.0
 10
24.6358189307
 20
54.4256240444
 30
0.0
 10
24.463716728
 20
54.5462660798
 30
0.0
 10
24.3765839167
 20
54.5965710938
 30
0.0
  0
SPLINE
  5
262
100
AcDbEntity
  8
0
100
AcDbSpline
 62
7
  6
BYLAYER
 70
0
 71
3
 72
15
 73
11
 74
0
 42
0.0000001
 43
0.0000001
 44
0.0000000001
 40
0.0
 40
0.0
 40
0.0
 40
0.0
 40
0.1092332773
 40
0.2318190406
 40
0.3639282455
 40
0.5008858186
 40
0.6377055872
 40
0.7694191368
 40
0.8914135331
 40
1.0
 40
1.0
 40
1.0
 40
1.0
 10
23.3866344232
 20
54.5965687143
 30
0.0
 10
23.4189942415
 20
54.5783105404
 30
0.0
 10
23.4921876571
 20
54.5475601593
 30
0.0
 10
23.6123308323
 20
54.5167038586
 30
0.0
 10
23.7444825346
 20
54.4980360468
 30
0.0
 10
23.8825830337
 20
54.4916921017
 30
0.0
 10
24.0205640353
 20
54.4977306636
 30
0.0
 10
24.1523649935
 20
54.516201926
 30
0.0
 10
24.2719407402
 20
54.5470782741
 30
0.0
 10
24.3445969416
 20
54.5781035153
 30
0.0
 10
24.3765839168
 20
54.5965710938
 30
0.0
  0
SPLINE
  5
263
100
AcDbEntity
  8
0
100
AcDbSpline
 62
7
  6
BYLAYER
 70
0
 71
3
 72
18
 73
14
 74
0
 42
0.0000001
 43
0.0000001
 44
0.0000000001
 40
0.0
 40
0.0
 40
0.0
 40
0.0
 40
0.1376746141
 40
0.2619126454
 40
0.320034837
 40
0.376245931
 40
0.4313190619
 40
0.4861155359
 40
0.541524225
 40
0.5983884094
 40
0.7189926345
 40
0.8523432185
 40
1.0
 40
1.0
 40
1.0
 40
1.0
 10
13.0105372787
 20
63.0885020796
 30
0.0
 10
12.8878114953
 20
62.9972825099
 30
0.0
 10
12.6680765693
 20
62.8035797786
 30
0.0
 10
12.4564967217
 20
62.5131519326
 30
0.0
 10
12.3469476622
 20
62.2709839872
 30
0.0
 10
12.2947268777
 20
62.0894849652
 30
0.0
 10
12.2712050663
 20
61.9057732819
 30
0.0
 10
12.2768135725
 20
61.7215281865
 30
0.0
 10
12.3113437362
 20
61.5384509347
 30
0.0
 10
12.3971434102
 20
61.2935363919
 30
0.0
 10
12.5804699053
 20
60.9959184999
 30
0.0
 10
12.8982238151
 20
60.6786214617
 30
0.0
 10
13.1577527536
 20
60.5020826599
 30
0.0
 10
13.2997824884
 20
60.4200836093
 30
0.0
  0
SPLINE
  5
264
100
AcDbEntity
  8
0
100
AcDbSpline
 62
7
  6
BYLAYER
 70
0
 71
3
 72
11
 73
7
 74
0
 42
0.0000001
 43
0.0000001
 44
0.0000000001
 40
0.0
 40
0.0
 40
0.0
 40
0.0
 40
0.261548587
 40
0.5155758832
 40
0.7617904144
 40
1.0
 40
1.0
 40
1.0
 40
1.0
 10
26.850446324
 20
71.078929596
 30
0.0
 10
25.5768298403
 20
70.5077663391
 30
0.0
 10
23.092447797
 20
69.3220773486
 30
0.0
 10
19.5155760162
 20
67.3858271316
 30
0.0
 10
16.1545573925
 20
65.3243051202
 30
0.0
 10
14.0308348913
 20
63.8468684623
 30
0.0
 10
13.0105372787
 20
63.0885020796
 30
0.0
  0
SPLINE
  5
265
100
AcDbEntity
  8
0
100
AcDbSpline
 62
7
  6
BYLAYER
 70
0
 71
3
 72
15
 73
11
 74
0
 42
0.0000001
 43
0.0000001
 44
0.0000000001
 40
0.0
 40
0.0
 40
0.0
 40
0.0
 40
0.1127768879
 40
0.2339624594
 40
0.3614522334
 40
0.4927386487
 40
0.6250174437
 40
0.755417502
 40
0.8812317498
 40
1.0
 40
1.0
 40
1.0
 40
1.0
 10
31.4723511727
 20
70.911958403
 30
0.0
 10
31.3169251259
 20
71.0016916423
 30
0.0
 10
30.9791342634
 20
71.1618947169
 30
0.0
 10
30.4303597722
 20
71.3386140719
 30
0.0
 10
29.8359238614
 20
71.4561346697
 30
0.0
 10
29.2148733726
 20
71.510785871
 30
0.0
 10
28.5868934856
 20
71.5007689079
 30
0.0
 10
27.971933194
 20
71.4264767646
 30
0.0
 10
27.389735433
 20
71.2902113276
 30
0.0
 10
27.0229025099
 20
71.1562689192
 30
0.0
 10
26.850446324
 20
71.078929596
 30
0.0
  0
SPLINE
  5
266
100
AcDbEntity
  8
0
100
AcDbSpline
 62
7
  6
BYLAYER
 70
0
 71
3
 72
15
 73
11
 74
0
 42
0.0000001
 43
0.0000001
 44
0.0000000001
 40
0.0
 40
0.0
 40
0.0
 40
0.0
 40
0.1387606203
 40
0.2652561003
 40
0.3841922857
 40
0.4996759972
 40
0.6153580373
 40
0.7347478823
 40
0.8615675704
 40
1.0
 40
1.0
 40
1.0
 40
1.0
 10
41.5592071611
 20
64.5169040329
 30
0.0
 10
41.5873920535
 20
64.533176491
 30
0.0
 10
41.6381289078
 20
64.5704235717
 30
0.0
 10
41.695540351
 20
64.6411796832
 30
0.0
 10
41.7298357687
 20
64.7197386316
 30
0.0
 10
41.7410272822
 20
64.8021457131
 30
0.0
 10
41.729277944
 20
64.884567088
 30
0.0
 10
41.6947117961
 20
64.9632139443
 30
0.0
 10
41.6375298868
 20
65.034231647
 30
0.0
 10
41.5871575569
 20
65.0719291817
 30
0.0
 10
41.5592030395
 20
65.0884434687
 30
0.0
  0
SPLINE
  5
267
100
AcDbEntity
  8
0
100
AcDbSpline
 62
7
  6
BYLAYER
 70
0
 71
3
 72
35
 73
31
 74
0
 42
0.0000001
 43
0.0000001
 44
0.0000000001
 40
0.0
 40
0.0
 40
0.0
 40
0.0
 40
0.0325430372
 40
0.0665668333
 40
0.1018986292
 40
0.1383737692
 40
0.2139187231
 40
0.2914289579
 40
0.3689407616
 40
0.4444856093
 40
0.4809634032
 40
0.5162949023
 40
0.5503064882
 40
0.5828597508
 40
0.6138540535
 40
0.6432406275
 40
0.6710267171
 40
0.6972897478
 40
0.7221843284
 40
0.7459480653
 40
0.7689011249
 40
0.7914293657
 40
0.8139573537
 40
0.8369098269
 40
0.8606737735
 40
0.8855688095
 40
0.9118294633
 40
0.9396162477
 40
0.9690156668
 40
1.0
 40
1.0
 40
1.0
 40
1.0
 10
20.1338540276
 20
66.9663072579
 30
0.0
 10
20.3410832534
 20
67.085950393
 30
0.0
 10
20.7757772715
 20
67.3123166524
 30
0.0
 10
21.4655419913
 20
67.6065180234
 30
0.0
 10
22.2018435137
 20
67.8603029145
 30
0.0
 10
23.2479509225
 20
68.1448558554
 30
0.0
 10
24.6248482805
 20
68.3827310613
 30
0.0
 10
26.3210351888
 20
68.4779306699
 30
0.0
 10
28.0172200509
 20
68.3827259187
 30
0.0
 10
29.3941510989
 20
68.144874471
 30
0.0
 10
30.4402720845
 20
67.8602883868
 30
0.0
 10
31.1764901857
 20
67.6065280544
 30
0.0
 10
31.8663036199
 20
67.3123667346
 30
0.0
 10
32.5032281628
 20
66.9806525236
 30
0.0
 10
33.0811503481
 20
66.6143307671
 30
0.0
 10
33.5946554976
 20
66.21688634
 30
0.0
 10
34.0387459052
 20
65.7917899389
 30
0.0
 10
34.409115713
 20
65.3428993035
 30
0.0
 10
34.7019310532
 20
64.87418776
 30
0.0
 10
34.9138488517
 20
64.3899330064
 30
0.0
 10
35.0422987726
 20
63.8948850558
 30
0.0
 10
35.0852653417
 20
63.3942310178
 30
0.0
 10
35.0423096585
 20
62.8935812923
 30
0.0
 10
34.9138841264
 20
62.3985313076
 30
0.0
 10
34.7019621346
 20
61.914276701
 30
0.0
 10
34.4091583303
 20
61.4455741469
 30
0.0
 10
34.0388309953
 20
60.9966638208
 30
0.0
 10
33.5946769776
 20
60.5714971833
 30
0.0
 10
33.0811465976
 20
60.1741056845
 30
0.0
 10
32.7055778479
 20
59.9360066779
 30
0.0
 10
32.5082742176
 20
59.8220940538
 30
0.0
  0
SPLINE
  5
268
100
AcDbEntity
  8
0
100
AcDbSpline
 62
7
  6
BYLAYER
 70
0
 71
3
 72
35
 73
31
 74
0
 42
0.0000001
 43
0.0000001
 44
0.0000000001
 40
0.0
 40
0.0
 40
0.0
 40
0.0
 40
0.0325430372
 40
0.0665668333
 40
0.1018986292
 40
0.1383737692
 40
0.2139187231
 40
0.2914289579
 40
0.3689407616
 40
0.4444856093
 40
0.4809634032
 40
0.5162949023
 40
0.5503064882
 40
0.5828597508
 40
0.6138540535
 40
0.6432406275
 40
0.6710267171
 40
0.6972897478
 40
0.7221843284
 40
0.7459480653
 40
0.7689011249
 40
0.7914293657
 40
0.8139573537
 40
0.8369098269
 40
0.8606737735
 40
0.8855688095
 40
0.9118294633
 40
0.9396162477
 40
0.9690156668
 40
1.0
 40
1.0
 40
1.0
 40
1.0
 10
32.5082742176
 20
59.8220940538
 30
0.0
 10
32.3010449917
 20
59.7024509186
 30
0.0
 10
31.8663509737
 20
59.4760846593
 30
0.0
 10
31.1765862539
 20
59.1818832883
 30
0.0
 10
30.4402847315
 20
58.9280983972
 30
0.0
 10
29.3941773226
 20
58.6435454563
 30
0.0
 10
28.0172799647
 20
58.4056702504
 30
0.0
 10
26.3210930563
 20
58.3104706418
 30
0.0
 10
24.6249081943
 20
58.4056753929
 30
0.0
 10
23.2479771463
 20
58.6435268406
 30
0.0
 10
22.2018561607
 20
58.9281129248
 30
0.0
 10
21.4656380595
 20
59.1818732572
 30
0.0
 10
20.7758246253
 20
59.476034577
 30
0.0
 10
20.1389000824
 20
59.807748788
 30
0.0
 10
19.5609778971
 20
60.1740705446
 30
0.0
 10
19.0474727476
 20
60.5715149716
 30
0.0
 10
18.6033823399
 20
60.9966113727
 30
0.0
 10
18.2330125321
 20
61.4455020082
 30
0.0
 10
17.940197192
 20
61.9142135516
 30
0.0
 10
17.7282793935
 20
62.3984683052
 30
0.0
 10
17.5998294725
 20
62.8935162559
 30
0.0
 10
17.5568629035
 20
63.3941702939
 30
0.0
 10
17.5998185867
 20
63.8948200194
 30
0.0
 10
17.7282441188
 20
64.3898700041
 30
0.0
 10
17.9401661105
 20
64.8741246107
 30
0.0
 10
18.2329699149
 20
65.3428271647
 30
0.0
 10
18.6032972499
 20
65.7917374908
 30
0.0
 10
19.0474512676
 20
66.2169041284
 30
0.0
 10
19.5609816476
 20
66.6142956271
 30
0.0
 10
19.9365503973
 20
66.8523946338
 30
0.0
 10
20.1338540276
 20
66.9663072579
 30
0.0
  0
SPLINE
  5
269
100
AcDbEntity
  8
0
100
AcDbSpline
 62
7
  6
BYLAYER
 70
0
 71
3
 72
13
 73
9
 74
0
 42
0.0000001
 43
0.0000001
 44
0.0000000001
 40
0.0
 40
0.0
 40
0.0
 40
0.0
 40
0.2833487435
 40
0.5409935029
 40
0.6613143641
 40
0.7770146187
 40
0.8893787495
 40
1.0
 40
1.0
 40
1.0
 40
1.0
 10
13.0105378101
 20
63.0885025208
 30
0.0
 10
12.8759191105
 20
63.1488722817
 30
0.0
 10
12.6079725427
 20
63.2421108015
 30
0.0
 10
12.2622228059
 20
63.2823316108
 30
0.0
 10
12.0054089738
 20
63.2594517968
 30
0.0
 10
11.828275155
 20
63.2171675579
 30
0.0
 10
11.6645857672
 20
63.14963259
 30
0.0
 10
11.5654149706
 20
63.088053042
 30
0.0
 10
11.5191836252
 20
63.053697739
 30
0.0
  0
SPLINE
  5
26A
100
AcDbEntity
  8
0
100
AcDbSpline
 62
7
  6
BYLAYER
 70
0
 71
3
 72
15
 73
11
 74
0
 42
0.0000001
 43
0.0000001
 44
0.0000000001
 40
0.0
 40
0.0
 40
0.0
 40
0.0
 40
0.1141454591
 40
0.2373335362
 40
0.36697592
 40
0.5000016033
 40
0.6330270636
 40
0.7626687962
 40
0.8858558469
 40
1.0
 40
1.0
 40
1.0
 40
1.0
 10
11.5320245615
 20
57.3582162591
 30
0.0
 10
11.5320245615
 20
57.4979438393
 30
0.0
 10
11.5576334717
 20
57.7887374038
 30
0.0
 10
11.6596403174
 20
58.2274290617
 30
0.0
 10
11.8231281756
 20
58.6717847298
 30
0.0
 10
12.0418691087
 20
59.1051045258
 30
0.0
 10
12.3077621678
 20
59.5112002694
 30
0.0
 10
12.6108385489
 20
59.874962225
 30
0.0
 10
12.9397498211
 20
60.1826469268
 30
0.0
 10
13.1787777244
 20
60.3502200086
 30
0.0
 10
13.2997841546
 20
60.4200826866
 30
0.0
  0
SPLINE
  5
26B
100
AcDbEntity
  8
0
100
AcDbSpline
 62
7
  6
BYLAYER
 70
0
 71
3
 72
13
 73
9
 74
0
 42
0.0000001
 43
0.0000001
 44
0.0000000001
 40
0.0
 40
0.0
 40
0.0
 40
0.0
 40
0.2981043595
 40
0.5591674731
 40
0.677391106
 40
0.7889650082
 40
0.8957502433
 40
1.0
 40
1.0
 40
1.0
 40
1.0
 10
26.8504455878
 20
71.0789292551
 30
0.0
 10
26.7627643603
 20
71.1440997972
 30
0.0
 10
26.5890551917
 20
71.2547990836
 30
0.0
 10
26.3552626996
 20
71.3453398112
 30
0.0
 10
26.177302453
 20
71.3752995318
 30
0.0
 10
26.053442809
 20
71.3773302804
 30
0.0
 10
25.9359794269
 20
71.3596168758
 30
0.0
 10
25.8623206407
 20
71.3344244272
 30
0.0
 10
25.8274626884
 20
71.3187862032
 30
0.0
  0
SPLINE
  5
26C
100
AcDbEntity
  8
0
100
AcDbSpline
 62
7
  6
BYLAYER
 70
0
 71
3
 72
13
 73
9
 74
0
 42
0.0000001
 43
0.0000001
 44
0.0000000001
 40
0.0
 40
0.0
 40
0.0
 40
0.0
 40
0.1141732089
 40
0.2375638707
 40
0.4999989157
 40
0.7624345537
 40
0.8858259098
 40
1.0
 40
1.0
 40
1.0
 40
1.0
 10
25.7200965162
 20
49.9833645558
 30
0.0
 10
25.6813992819
 20
50.005705909
 30
0.0
 10
25.6049210243
 20
50.0593665993
 30
0.0
 10
25.461645087
 20
50.1933348661
 30
0.0
 10
25.3104396887
 20
50.4000446547
 30
0.0
 10
25.2070253018
 20
50.6343470174
 30
0.0
 10
25.1626419457
 20
50.8254122886
 30
0.0
 10
25.1544087361
 20
50.9184752835
 30
0.0
 10
25.154408736
 20
50.9631590929
 30
0.0
  0
SPLINE
  5
26D
100
AcDbEntity
  8
0
100
AcDbSpline
 62
7
  6
BYLAYER
 70
0
 71
3
 72
13
 73
9
 74
0
 42
0.0000001
 43
0.0000001
 44
0.0000000001
 40
0.0
 40
0.0
 40
0.0
 40
0.0
 40
0.2893728127
 40
0.5483079648
 40
0.6677376687
 40
0.7817631846
 40
0.8919038239
 40
1.0
 40
1.0
 40
1.0
 40
1.0
 10
31.4723527562
 20
70.9119574496
 30
0.0
 10
31.582075361
 20
70.9753054469
 30
0.0
 10
31.8001509522
 20
71.0791586764
 30
0.0
 10
32.0872863473
 20
71.1483522938
 30
0.0
 10
32.3033998507
 20
71.1558612436
 30
0.0
 10
32.4534981027
 20
71.1390971731
 30
0.0
 10
32.5943214769
 20
71.1002069193
 30
0.0
 10
32.6813382919
 20
71.0594306088
 30
0.0
 10
32.7223257054
 20
71.0357670479
 30
0.0
  0
SPLINE
  5
26E
100
AcDbEntity
  8
0
100
AcDbSpline
 62
7
  6
BYLAYER
 70
0
 71
3
 72
15
 73
11
 74
0
 42
0.0000001
 43
0.0000001
 44
0.0000000001
 40
0.0
 40
0.0
 40
0.0
 40
0.0
 40
0.1141443739
 40
0.2373317387
 40
0.3669737853
 40
0.4999994786
 40
0.6330252445
 40
0.7626675029
 40
0.8858552015
 40
1.0
 40
1.0
 40
1.0
 40
1.0
 10
25.154408736
 20
50.9631590926
 30
0.0
 10
25.0334022221
 20
50.8932963663
 30
0.0
 10
24.768765052
 20
50.7700795382
 30
0.0
 10
24.337846121
 20
50.6390766127
 30
0.0
 10
23.8712805507
 20
50.5584849055
 30
0.0
 10
23.3866447643
 20
50.5312607551
 30
0.0
 10
22.9020085905
 20
50.5584826053
 30
0.0
 10
22.4354418757
 20
50.6390720972
 30
0.0
 10
22.0045210894
 20
50.7700729743
 30
0.0
 10
21.7398822981
 20
50.8932884806
 30
0.0
 10
21.6188748301
 20
50.9631505943
 30
0.0
  0
SPLINE
  5
26F
100
AcDbEntity
  8
0
100
AcDbSpline
 62
7
  6
BYLAYER
 70
0
 71
3
 72
15
 73
11
 74
0
 42
0.0000001
 43
0.0000001
 44
0.0000000001
 40
0.0
 40
0.0
 40
0.0
 40
0.0
 40
0.1141454664
 40
0.237333546
 40
0.366975927
 40
0.500001609
 40
0.6330270674
 40
0.7626687986
 40
0.8858558475
 40
1.0
 40
1.0
 40
1.0
 40
1.0
 10
23.9523369219
 20
46.921498129
 30
0.0
 10
23.9523369219
 20
47.0612257171
 30
0.0
 10
23.9779458384
 20
47.3520192908
 30
0.0
 10
24.079952682
 20
47.790710954
 30
0.0
 10
24.2434405446
 20
48.2350666143
 30
0.0
 10
24.4621814713
 20
48.6683864005
 30
0.0
 10
24.7280745256
 20
49.0744821358
 30
0.0
 10
25.0311508997
 20
49.438244084
 30
0.0
 10
25.3600621637
 20
49.7459287824
 30
0.0
 10
25.5990900613
 20
49.9135018629
 30
0.0
 10
25.7200964889
 20
49.9833645415
 30
0.0
  0
SPLINE
  5
270
100
AcDbEntity
  8
0
100
AcDbSpline
 62
7
  6
BYLAYER
 70
0
 71
3
 72
13
 73
9
 74
0
 42
0.0000001
 43
0.0000001
 44
0.0000000001
 40
0.0
 40
0.0
 40
0.0
 40
0.0
 40
0.2893747881
 40
0.5483105147
 40
0.6677399712
 40
0.7817649241
 40
0.8919047586
 40
1.0
 40
1.0
 40
1.0
 40
1.0
 10
43.3269773524
 20
62.0265855396
 30
0.0
 10
43.4367009847
 20
62.0899341301
 30
0.0
 10
43.6356805359
 20
62.2268663144
 30
0.0
 10
43.8391741988
 20
62.4409361421
 30
0.0
 10
43.9537347873
 20
62.6243414417
 30
0.0
 10
44.01426582
 20
62.7627120382
 30
0.0
 10
44.0509970184
 20
62.9041132954
 30
0.0
 10
44.0591913609
 20
62.9998597933
 30
0.0
 10
44.0591913603
 20
63.0471874259
 30
0.0
  0
SPLINE
  5
271
100
AcDbEntity
  8
0
100
AcDbSpline
 62
7
  6
BYLAYER
 70
0
 71
3
 72
26
 73
22
 74
0
 42
0.0000001
 43
0.0000001
 44
0.0000000001
 40
0.0
 40
0.0
 40
0.0
 40
0.0
 40
0.0564324284
 40
0.1138237012
 40
0.1431670178
 40
0.1731278293
 40
0.2037343232
 40
0.2349090688
 40
0.2987066257
 40
0.3645047774
 40
0.4318979457
 40
0.5000902538
 40
0.5682837317
 40
0.6356708247
 40
0.7014679205
 40
0.7652251928
 40
0.8268093241
 40
0.8567599794
 40
0.886128871
 40
0.943509954
 40
1.0
 40
1.0
 40
1.0
 40
1.0
 10
41.5592030396
 20
65.0884434687
 30
0.0
 10
41.6418457221
 20
65.1346737778
 30
0.0
 10
41.8205737547
 20
65.2076235642
 30
0.0
 10
42.0597541411
 20
65.2462966552
 30
0.0
 10
42.2559185672
 20
65.2451269804
 30
0.0
 10
42.4060565968
 20
65.2274143818
 30
0.0
 10
42.5564872783
 20
65.1934891728
 30
0.0
 10
42.7568228739
 20
65.1272621914
 30
0.0
 10
42.9999562279
 20
65.006634815
 30
0.0
 10
43.2668898628
 20
64.808966031
 30
0.0
 10
43.5017676037
 20
64.563847446
 30
0.0
 10
43.6963655363
 20
64.2809310866
 30
0.0
 10
43.8440607805
 20
63.9709373374
 30
0.0
 10
43.9388283884
 20
63.6449811849
 30
0.0
 10
43.976610401
 20
63.3149978454
 30
0.0
 10
43.9562938821
 20
62.9931971745
 30
0.0
 10
43.8911202
 20
62.738987425
 30
0.0
 10
43.8107365447
 20
62.5523259046
 30
0.0
 10
43.7139040083
 20
62.3817179322
 30
0.0
 10
43.560830766
 20
62.193635715
 30
0.0
 10
43.4080781576
 20
62.0756572621
 30
0.0
 10
43.3269773524
 20
62.0265855396
 30
0.0
  0
SPLINE
  5
272
100
AcDbEntity
  8
0
100
AcDbSpline
 62
7
  6
BYLAYER
 70
0
 71
3
 72
15
 73
11
 74
0
 42
0.0000001
 43
0.0000001
 44
0.0000000001
 40
0.0
 40
0.0
 40
0.0
 40
0.0
 40
0.1141441537
 40
0.2373312047
 40
0.3669729373
 40
0.4999983976
 40
0.6330240807
 40
0.7626664643
 40
0.8858545411
 40
1.0
 40
1.0
 40
1.0
 40
1.0
 10
39.8374721924
 20
41.8328782675
 30
0.0
 10
39.7164657635
 20
41.7630155882
 30
0.0
 10
39.4774378631
 20
41.5954425047
 30
0.0
 10
39.1485265952
 20
41.287757802
 30
0.0
 10
38.8454502184
 20
40.9239958472
 30
0.0
 10
38.5795571636
 20
40.5179001059
 30
0.0
 10
38.3608162341
 20
40.0845803132
 30
0.0
 10
38.1973283788
 20
39.6402246491
 30
0.0
 10
38.095321535
 20
39.2015329955
 30
0.0
 10
38.0697126253
 20
38.9107394339
 30
0.0
 10
38.0697126253
 20
38.771011855
 30
0.0
  0
SPLINE
  5
273
100
AcDbEntity
  8
0
100
AcDbSpline
 62
7
  6
BYLAYER
 70
0
 71
3
 72
13
 73
9
 74
0
 42
0.0000001
 43
0.0000001
 44
0.0000000001
 40
0.0
 40
0.0
 40
0.0
 40
0.0
 40
0.2893728117
 40
0.5483079634
 40
0.6677376676
 40
0.7817631837
 40
0.8919038234
 40
1.0
 40
1.0
 40
1.0
 40
1.0
 10
43.8926651585
 20
60.4752393253
 30
0.0
 10
44.0023877615
 20
60.5385873196
 30
0.0
 10
44.220463349
 20
60.6424405441
 30
0.0
 10
44.5075987384
 20
60.7116341564
 30
0.0
 10
44.7237122376
 20
60.7191431038
 30
0.0
 10
44.8738104866
 20
60.7023790322
 30
0.0
 10
45.0146338581
 20
60.663488778
 30
0.0
 10
45.1016506715
 20
60.6227124678
 30
0.0
 10
45.1426380843
 20
60.5990489071
 30
0.0
  0
SPLINE
  5
274
100
AcDbEntity
  8
0
100
AcDbSpline
 62
7
  6
BYLAYER
 70
0
 71
3
 72
13
 73
9
 74
0
 42
0.0000001
 43
0.0000001
 44
0.0000000001
 40
0.0
 40
0.0
 40
0.0
 40
0.0
 40
0.1141740902
 40
0.2375654463
 40
0.5000010843
 40
0.7624361292
 40
0.8858267911
 40
1.0
 40
1.0
 40
1.0
 40
1.0
 10
43.3269773524
 20
61.4550338474
 30
0.0
 10
43.3269773524
 20
61.410350038
 30
0.0
 10
43.3352105621
 20
61.3172870431
 30
0.0
 10
43.3795939182
 20
61.1262217719
 30
0.0
 10
43.4830083051
 20
60.8919194091
 30
0.0
 10
43.6342137035
 20
60.6852096206
 30
0.0
 10
43.7774896406
 20
60.5512413538
 30
0.0
 10
43.8539678983
 20
60.4975806635
 30
0.0
 10
43.8926651326
 20
60.4752393103
 30
0.0
  0
SPLINE
  5
275
100
AcDbEntity
  8
0
100
AcDbSpline
 62
7
  6
BYLAYER
 70
0
 71
3
 72
15
 73
11
 74
0
 42
0.0000001
 43
0.0000001
 44
0.0000000001
 40
0.0
 40
0.0
 40
0.0
 40
0.0
 40
0.1127834457
 40
0.2339543961
 40
0.3614516296
 40
0.4927385022
 40
0.6250175934
 40
0.7554257754
 40
0.8812246747
 40
1.0
 40
1.0
 40
1.0
 40
1.0
 10
38.0697126253
 20
38.771011855
 30
0.0
 10
38.3361733245
 20
38.6171741789
 30
0.0
 10
38.9152136257
 20
38.3425226011
 30
0.0
 10
39.8559828222
 20
38.0396171066
 30
0.0
 10
40.8749875867
 20
37.8380946932
 30
0.0
 10
41.939674282
 20
37.744443906
 30
0.0
 10
43.0162387164
 20
37.7615771578
 30
0.0
 10
44.0704324871
 20
37.8889939771
 30
0.0
 10
45.0684962041
 20
38.1225501208
 30
0.0
 10
45.6973245904
 20
38.3521846505
 30
0.0
 10
45.9929819931
 20
38.4847745207
 30
0.0
  0
SPLINE
  5
276
100
AcDbEntity
  8
0
100
AcDbSpline
 62
7
  6
BYLAYER
 70
0
 71
3
 72
15
 73
11
 74
0
 42
0.0000001
 43
0.0000001
 44
0.0000000001
 40
0.0
 40
0.0
 40
0.0
 40
0.0
 40
0.1158273246
 40
0.2413214041
 40
0.3732381416
 40
0.5079392223
 40
0.6415504751
 40
0.770273956
 40
0.8906998413
 40
1.0
 40
1.0
 40
1.0
 40
1.0
 10
45.9929819791
 20
38.4847745144
 30
0.0
 10
45.9929819791
 20
38.6251506008
 30
0.0
 10
45.9706143205
 20
38.917802878
 30
0.0
 10
45.8823227793
 20
39.3623110908
 30
0.0
 10
45.7408318671
 20
39.8168558999
 30
0.0
 10
45.5515162544
 20
40.2642690588
 30
0.0
 10
45.3214054767
 20
40.6877510728
 30
0.0
 10
45.0591807214
 20
41.071507496
 30
0.0
 10
44.7747093537
 20
41.401076066
 30
0.0
 10
44.5656945112
 20
41.5868859507
 30
0.0
 10
44.4593794767
 20
41.6659064
 30
0.0
  0
SPLINE
  5
277
100
AcDbEntity
  8
0
100
AcDbSpline
 62
7
  6
BYLAYER
 70
0
 71
3
 72
13
 73
9
 74
0
 42
0.0000001
 43
0.0000001
 44
0.0000000001
 40
0.0
 40
0.0
 40
0.0
 40
0.0
 40
0.2818497253
 40
0.5383172962
 40
0.6586508226
 40
0.7748696854
 40
0.888186191
 40
1.0
 40
1.0
 40
1.0
 40
1.0
 10
60.2736510937
 20
46.7296734542
 30
0.0
 10
60.466762399
 20
46.8732091444
 30
0.0
 10
60.8154799178
 20
47.1765461759
 30
0.0
 10
61.162622109
 20
47.625006709
 30
0.0
 10
61.356596563
 20
47.9996536214
 30
0.0
 10
61.4593029525
 20
48.2810704071
 30
0.0
 10
61.521325941
 20
48.5667180151
 30
0.0
 10
61.5351597724
 20
48.7591879641
 30
0.0
 10
61.5351647853
 20
48.8546424559
 30
0.0
  0
SPLINE
  5
278
100
AcDbEntity
  8
0
100
AcDbSpline
 62
7
  6
BYLAYER
 70
0
 71
3
 72
15
 73
11
 74
0
 42
0.0000001
 43
0.0000001
 44
0.0000000001
 40
0.0
 40
0.0
 40
0.0
 40
0.0
 40
0.1126742095
 40
0.2336615128
 40
0.3610630273
 40
0.4924076696
 40
0.6248223188
 40
0.7553383466
 40
0.8811988426
 40
1.0
 40
1.0
 40
1.0
 40
1.0
 10
60.2736510937
 20
46.7296734542
 30
0.0
 10
60.2736510937
 20
46.8686520199
 30
0.0
 10
60.2452926726
 20
47.1572348435
 30
0.0
 10
60.1310974098
 20
47.5892862398
 30
0.0
 10
59.948033165
 20
48.0220116118
 30
0.0
 10
59.7031265265
 20
48.4392232788
 30
0.0
 10
59.4054545085
 20
48.8254106544
 30
0.0
 10
59.0661530151
 20
49.1662340048
 30
0.0
 10
58.6979202979
 20
49.4487739541
 30
0.0
 10
58.4329937685
 20
49.5963724555
 30
0.0
 10
58.2992871102
 20
49.6563332236
 30
0.0
  0
SPLINE
  5
279
100
AcDbEntity
  8
0
100
AcDbSpline
 62
7
  6
BYLAYER
 70
0
 71
3
 72
9
 73
5
 74
0
 42
0.0000001
 43
0.0000001
 44
0.0000000001
 40
0.0
 40
0.0
 40
0.0
 40
0.0
 40
0.2562273358
 40
1.0
 40
1.0
 40
1.0
 40
1.0
 10
53.580144027
 20
42.3492538577
 30
0.0
 10
54.1720174301
 20
42.6909700866
 30
0.0
 10
56.4638903456
 20
44.0555211434
 30
0.0
 10
58.6814370406
 20
45.5462132595
 30
0.0
 10
60.2736510937
 20
46.7296734542
 30
0.0
  0
SPLINE
  5
27A
100
AcDbEntity
  8
0
100
AcDbSpline
 62
7
  6
BYLAYER
 70
0
 71
3
 72
9
 73
5
 74
0
 42
0.0000001
 43
0.0000001
 44
0.0000000001
 40
0.0
 40
0.0
 40
0.0
 40
0.0
 40
0.5072940996
 40
1.0
 40
1.0
 40
1.0
 40
1.0
 10
45.9929819931
 20
38.4847745207
 30
0.0
 10
47.3071595456
 20
39.0741277055
 30
0.0
 10
49.8705968794
 20
40.2975391271
 30
0.0
 10
52.3686941096
 20
41.6498270968
 30
0.0
 10
53.580144027
 20
42.3492538577
 30
0.0
  0
ENDSEC
  0
SECTION
  2
OBJECTS
  0
DICTIONARY
  5
C
100
AcDbDictionary
280
0
281
1
  3
ACAD_GROUP
350
D
  3
ACAD_MLINESTYLE
350
17
  3
ACAD_LAYOUT
350
1A
  3
ACAD_PLOTSETTINGS
350
19
  3
ACAD_PLOTSTYLENAME
350
E
  0
DICTIONARY
  5
D
102
{ACAD_REACTORS
330
C
102
}
100
AcDbDictionary
280
0
281
1
  0
ACDBDICTIONARYWDFLT
  5
E
102
{ACAD_REACTORS
330
C
102
}
100
AcDbDictionary
281
1
  3
Normal
350
F
100
AcDbDictionaryWithDefault
340
F
  0
DICTIONARY
  5
17
102
{ACAD_REACTORS
330
C
102
}
100
AcDbDictionary
280
0
281
1
  3
Standard
350
18
  0
DICTIONARY
  5
19
102
{ACAD_REACTORS
330
C
102
}
100
AcDbDictionary
281
1
  0
DICTIONARY
  5
1A
102
{ACAD_REACTORS
330
C
102
}
100
AcDbDictionary
281
1
  3
Model
350
27B
  3
Layout1
350
27C
  0
ACDBPLACEHOLDER
  5
F
102
{ACAD_REACTORS
330
E
102
}
  0
MLINESTYLE
  5
18
102
{ACAD_REACTORS
330
17
102
}
100
AcDbMlineStyle
  2
STANDARD
 70
0
  3

 62
256
 51
90.0
 52
90.0
 71
2
 49
0.5
 62
256
  6
BYLAYER
 49
-0.5
 62
256
  6
BYLAYER
  0
LAYOUT
  5
27B
102
{ACAD_REACTORS
330
1A
102
}
100
AcDbPlotSettings
  1

  2
none_device
  4

  6

 40
0.0
 41
0.0
 42
0.0
 43
0.0
 44
210.0
 45
297.0
 46
0.0
 47
0.0
 48
0.0
 49
0.0
140
0.0
141
0.0
142
1.0
143
1.0
 70
1024
 72
1
 73
0
 74
0
  7

 75
0
147
1.0
148
0.0
149
0.0
100
AcDbLayout
  1
Model
 70
0
 71
0
 10
0.0
 20
0.0
 11
210.0
 21
297.0
 12
0.0
 22
0.0
 32
0.0
 14
0.0
 24
0.0
 34
0.0
 15
0.0
 25
0.0
 35
0.0
146
0.0
 13
0.0
 23
0.0
 33
0.0
 16
1.0
 26
0.0
 36
0.0
 17
0.0
 27
1.0
 37
0.0
 76
0
330
210
345
0
346
0
  0
LAYOUT
  5
27C
102
{ACAD_REACTORS
330
1A
102
}
100
AcDbPlotSettings
  1

  2
none_device
  4

  6

 40
0.0
 41
0.0
 42
0.0
 43
0.0
 44
210.0
 45
297.0
 46
0.0
 47
0.0
 48
0.0
 49
0.0
140
0.0
141
0.0
142
1.0
143
1.0
 70
0
 72
1
 73
0
 74
0
  7

 75
0
147
1.0
148
0.0
149
0.0
100
AcDbLayout
  1
Layout1
 70
0
 71
1
 10
0.0
 20
0.0
 11
210.0
 21
297.0
 12
0.0
 22
0.0
 32
0.0
 14
0.0
 24
0.0
 34
0.0
 15
0.0
 25
0.0
 35
0.0
146
0.0
 13
0.0
 23
0.0
 33
0.0
 16
1.0
 26
0.0
 36
0.0
 17
0.0
 27
1.0
 37
0.0
 76
0
330
211
345
0
346
0
  0
ENDSEC
  0
EOF
