999
DXF file: C:\Users\sesa63760\Dev\_Creo\CAD\MCADPD0005319_3D-CAD\drw0001_6.dxf
999
Pro/ENGINEER 2019471 by Parametric Technology Corporation
  0
SECTION
  2
HEADER
  9
$ACADVER
  1
AC1024
  9
$DWGCODEPAGE
  3
ANSI_1252
  9
$EXTMAX
 10
300.5274445333
 20
425.0316715543
 30
0.0
  9
$EXTMIN
 10
0.0
 20
0.0
 30
0.0
  9
$LIMMIN
 10
0.0
 20
0.0
  9
$LIMMAX
 10
300.5274445333
 20
425.0316715543
  9
$VIEWCTR
 10
150.2637222667
 20
212.5158357771
  9
$VIEWSIZE
 40
425.0316715543
  9
$CLAYER
  8
0
  9
$LTSCALE
 40
27.7057682198
  9
$CELTYPE
  6
BYLAYER
  9
$DIMSCALE
 40
1.0
  9
$DIMASZ
 40
3.577707673
  9
$DIMEXO
 40
1.0
  9
$DIMDLI
 40
19.1421671337
  9
$DIMEXE
 40
1.0
  9
$DIMCEN
 40
4.5336711632
  9
$DIMLFAC
 40
1.0
  9
$DIMBLK
  1
_FILLED
  9
$DIMALT
 70
0
  9
$DIMALTF
 40
0.0393700787
  9
$DIMTXT
 40
5.0087907422
  9
$DIMTOL
 70
1
  9
$DIMLIM
 70
0
  9
$DIMTFAC
 40
1.0
  9
$DIMTP
 40
0.01
  9
$DIMTM
 40
0.01
  9
$DIMGAP
 40
0.625
  9
$DIMDSEP
 70
46
  9
$AUNITS
 70
0
  9
$PDMODE
 70
3
  9
$PDSIZE
 40
0.3125
  9
$HANDSEED
  5
294
  9
$TILEMODE
 70
1
  9
$MEASUREMENT
 70
1
  9
$INSUNITS
 70
4
  0
ENDSEC
  0
SECTION
  2
CLASSES
  0
CLASS
  1
ACDBDICTIONARYWDFLT
  2
AcDbDictionaryWithDefault
  3
AutoCAD 2000
 90
0
 91
1
280
0
281
0
  0
CLASS
  1
ACDBPLACEHOLDER
  2
AcDbPlaceHolder
  3
AutoCAD 2000
 90
0
 91
1
280
0
281
0
  0
CLASS
  1
LAYOUT
  2
AcDbLayout
  3
AutoCAD 2000
 90
0
 91
0
280
0
281
0
  0
ENDSEC
  0
SECTION
  2
TABLES
  0
TABLE
  2
VPORT
  5
8
100
AcDbSymbolTable
 70
2
  0
VPORT
  5
1F4
100
AcDbSymbolTableRecord
100
AcDbViewportTableRecord
  2
*ACTIVE
 70
0
 10
0.0
 20
0.0
 11
1.0
 21
1.0
 12
150.2637222667
 22
212.5158357771
 13
0.0
 23
0.0
 14
1.0
 24
1.0
 15
0.0
 25
0.0
 16
0.0
 26
0.0
 36
1.0
 17
0.0
 27
0.0
 37
0.0
 40
425.0316715543
 41
0.7070707071
 42
50.0
 43
0.0
 44
0.0
 50
0.0
 51
0.0
 71
0
 72
100
 73
1
 74
1
 75
0
 76
0
 77
0
 78
0
  0
ENDTAB
  0
TABLE
  2
LTYPE
  5
5
100
AcDbSymbolTable
 70
6
  0
LTYPE
  5
14
100
AcDbSymbolTableRecord
100
AcDbLinetypeTableRecord
  2
BYBLOCK
 70
0
  3

 72
65
 73
0
 40
0.0
  0
LTYPE
  5
15
100
AcDbSymbolTableRecord
100
AcDbLinetypeTableRecord
  2
BYLAYER
 70
0
  3

 72
65
 73
0
 40
0.0
  0
LTYPE
  5
16
100
AcDbSymbolTableRecord
100
AcDbLinetypeTableRecord
  2
CONTINUOUS
 70
64
  3
Solid line
 72
65
 73
0
 40
0.0
  0
LTYPE
  5
1F5
100
AcDbSymbolTableRecord
100
AcDbLinetypeTableRecord
  2
CENTER
 70
64
  3
____ _ ____ _ ____ _ ____ _ ____ _ ____ _ ____
 72
65
 73
4
 40
0.6
 49
0.375
 74
0
 49
-0.075
 74
0
 49
0.075
 74
0
 49
-0.075
 74
0
  0
LTYPE
  5
1F6
100
AcDbSymbolTableRecord
100
AcDbLinetypeTableRecord
  2
HIDDEN
 70
64
  3
- - - - - - - - - - - - - - - - - - - -
 72
65
 73
2
 40
0.2
 49
0.1
 74
0
 49
-0.1
 74
0
  0
LTYPE
  5
1F7
100
AcDbSymbolTableRecord
100
AcDbLinetypeTableRecord
  2
PHANTOM
 70
64
  3
_____ _ _ _____ _ _ _____ _ _ _____
 72
65
 73
6
 40
0.8
 49
0.45
 74
0
 49
-0.05
 74
0
 49
0.1
 74
0
 49
-0.05
 74
0
 49
0.1
 74
0
 49
-0.05
 74
0
  0
LTYPE
  5
1F8
100
AcDbSymbolTableRecord
100
AcDbLinetypeTableRecord
  2
DOT
 70
64
  3
. . . . . . . . . . . . . . . . . . . .
 72
65
 73
2
 40
0.2
 49
0.1
 74
0
 49
-0.1
 74
0
  0
LTYPE
  5
1F9
100
AcDbSymbolTableRecord
100
AcDbLinetypeTableRecord
  2
DASHED
 70
64
  3
- - - - - - - - - - - - - - - - - - - -
 72
65
 73
2
 40
0.2
 49
0.1
 74
0
 49
-0.1
 74
0
  0
ENDTAB
  0
TABLE
  2
LAYER
  5
2
100
AcDbSymbolTable
 70
36
  0
LAYER
  5
10
100
AcDbSymbolTableRecord
100
AcDbLayerTableRecord
  2
0
 70
0
 62
7
  6
CONTINUOUS
370
-3
390
F
  0
LAYER
  5
1FA
100
AcDbSymbolTableRecord
100
AcDbLayerTableRecord
  2
DEFAULT_1
 70
0
 62
7
  6
CENTER
370
-3
390
F
  0
LAYER
  5
1FB
100
AcDbSymbolTableRecord
100
AcDbLayerTableRecord
  2
DEFAULT_2
 70
0
 62
7
  6
HIDDEN
370
-3
390
F
  0
LAYER
  5
1FC
100
AcDbSymbolTableRecord
100
AcDbLayerTableRecord
  2
DEFAULT_3
 70
0
 62
7
  6
PHANTOM
370
-3
390
F
  0
LAYER
  5
1FD
100
AcDbSymbolTableRecord
100
AcDbLayerTableRecord
  2
00_COMPONENTS
 70
0
 62
7
  6
CONTINUOUS
370
-3
390
F
  0
LAYER
  5
1FE
100
AcDbSymbolTableRecord
100
AcDbLayerTableRecord
  2
01_1_DEFAULT_DATUMS
 70
0
 62
7
  6
CONTINUOUS
370
-3
390
F
  0
LAYER
  5
1FF
100
AcDbSymbolTableRecord
100
AcDbLayerTableRecord
  2
01_PLANES
 70
0
 62
7
  6
CONTINUOUS
370
-3
390
F
  0
LAYER
  5
200
100
AcDbSymbolTableRecord
100
AcDbLayerTableRecord
  2
02_COORD_SYS
 70
0
 62
7
  6
CONTINUOUS
370
-3
390
F
  0
LAYER
  5
201
100
AcDbSymbolTableRecord
100
AcDbLayerTableRecord
  2
03_AXES
 70
0
 62
7
  6
CONTINUOUS
370
-3
390
F
  0
LAYER
  5
202
100
AcDbSymbolTableRecord
100
AcDbLayerTableRecord
  2
04_POINTS
 70
0
 62
7
  6
CONTINUOUS
370
-3
390
F
  0
LAYER
  5
203
100
AcDbSymbolTableRecord
100
AcDbLayerTableRecord
  2
05_CURVES
 70
0
 62
7
  6
CONTINUOUS
370
-3
390
F
  0
LAYER
  5
204
100
AcDbSymbolTableRecord
100
AcDbLayerTableRecord
  2
06_SURFS
 70
0
 62
7
  6
CONTINUOUS
370
-3
390
F
  0
LAYER
  5
205
100
AcDbSymbolTableRecord
100
AcDbLayerTableRecord
  2
07_COSMETICS
 70
0
 62
7
  6
CONTINUOUS
370
-3
390
F
  0
LAYER
  5
206
100
AcDbSymbolTableRecord
100
AcDbLayerTableRecord
  2
10_NOTES
 70
0
 62
7
  6
CONTINUOUS
370
-3
390
F
  0
LAYER
  5
207
100
AcDbSymbolTableRecord
100
AcDbLayerTableRecord
  2
11_NOTES_PUB
 70
0
 62
7
  6
CONTINUOUS
370
-3
390
F
  0
LAYER
  5
208
100
AcDbSymbolTableRecord
100
AcDbLayerTableRecord
  2
13_REF_GTOL
 70
0
 62
7
  6
CONTINUOUS
370
-3
390
F
  0
LAYER
  5
209
100
AcDbSymbolTableRecord
100
AcDbLayerTableRecord
  2
16_MISC
 70
0
 62
7
  6
CONTINUOUS
370
-3
390
F
  0
LAYER
  5
20A
100
AcDbSymbolTableRecord
100
AcDbLayerTableRecord
  2
17_NO_PRINT
 70
0
 62
7
  6
CONTINUOUS
370
-3
390
F
  0
LAYER
  5
20B
100
AcDbSymbolTableRecord
100
AcDbLayerTableRecord
  2
18_DATUM_CAMS_JOINTS
 70
0
 62
7
  6
CONTINUOUS
370
-3
390
F
  0
LAYER
  5
20C
100
AcDbSymbolTableRecord
100
AcDbLayerTableRecord
  2
19_DATUM_FUNCTIONAL
 70
0
 62
7
  6
CONTINUOUS
370
-3
390
F
  0
LAYER
  5
20D
100
AcDbSymbolTableRecord
100
AcDbLayerTableRecord
  2
20_DATUM_KINEMATIC_SCHEME
 70
0
 62
7
  6
CONTINUOUS
370
-3
390
F
  0
ENDTAB
  0
TABLE
  2
STYLE
  5
3
100
AcDbSymbolTable
 70
1
  0
STYLE
  5
11
100
AcDbSymbolTableRecord
100
AcDbTextStyleTableRecord
  2
STANDARD
 70
0
 40
0.0
 41
1.0
 50
0.0
 71
0
 42
0.2
  3
ARIAL.TTF
  4

  0
STYLE
  5
20E
100
AcDbSymbolTableRecord
100
AcDbTextStyleTableRecord
  2
TEXTSTYLE_1
 70
0
 40
0.0
 41
0.8
 50
0.0
 71
0
 42
0.2
  3
gdt
  4

  0
ENDTAB
  0
TABLE
  2
VIEW
  5
6
100
AcDbSymbolTable
 70
0
  0
ENDTAB
  0
TABLE
  2
UCS
  5
7
100
AcDbSymbolTable
 70
0
  0
ENDTAB
  0
TABLE
  2
APPID
  5
9
100
AcDbSymbolTable
 70
1
  0
APPID
  5
20F
100
AcDbSymbolTableRecord
100
AcDbRegAppTableRecord
  2
ACAD
 70
0
  0
ENDTAB
  0
TABLE
  2
BLOCK_RECORD
  5
1
100
AcDbSymbolTable
 70
0
  0
BLOCK_RECORD
  5
210
100
AcDbSymbolTableRecord
100
AcDbBlockTableRecord
  2
*Model_Space
  0
BLOCK_RECORD
  5
211
100
AcDbSymbolTableRecord
100
AcDbBlockTableRecord
  2
*Paper_Space
  0
BLOCK_RECORD
  5
212
100
AcDbSymbolTableRecord
100
AcDbBlockTableRecord
  2
_FILLED
  0
ENDTAB
  0
TABLE
  2
DIMSTYLE
  5
A
100
AcDbSymbolTable
 70
1
100
AcDbDimStyleTable
 71
0
  0
DIMSTYLE
105
213
100
AcDbSymbolTableRecord
100
AcDbDimStyleTableRecord
  2
STANDARD
 70
0
  3

  4

 40
1.0
 41
3.577707673
 42
1.0
 43
0.38
 44
1.0
 45
0.0
 46
0.0
 47
0.01
 48
0.01
140
5.0087907422
141
0.09
142
0.0
143
25.4
144
1.0
145
0.0
146
1.0
147
0.625
 71
1
 72
0
 73
0
 74
0
 75
0
 76
0
 77
1
 78
8
 79
2
170
0
171
1
172
0
173
0
174
0
175
0
176
0
177
0
178
0
270
2
179
2
271
2
272
2
273
2
274
2
275
0
280
0
281
0
282
0
283
1
284
8
285
0
286
0
287
3
288
0
340
11
278
46
341
212
342
212
343
212
344
212
  0
ENDTAB
  0
ENDSEC
  0
SECTION
  2
BLOCKS
  0
BLOCK
  5
20
100
AcDbEntity
  8
0
100
AcDbBlockBegin
  2
*Model_Space
 70
0
 10
0.0
 20
0.0
 30
0.0
  3
*Model_Space
  1

  0
ENDBLK
  5
21
100
AcDbEntity
  8
0
100
AcDbBlockEnd
  0
BLOCK
  5
1C
100
AcDbEntity
  8
0
100
AcDbBlockBegin
  2
*Paper_Space
 70
0
 10
0.0
 20
0.0
 30
0.0
  3
*Paper_Space
  1

  0
ENDBLK
  5
1D
100
AcDbEntity
  8
0
100
AcDbBlockEnd
  0
BLOCK
  5
214
100
AcDbEntity
  8
0
100
AcDbBlockBegin
  2
_FILLED
 70
64
 10
0.0
 20
0.0
  3
_FILLED
  1

  0
SOLID
  5
215
100
AcDbEntity
  8
0
  6
BYBLOCK
 62
0
100
AcDbTrace
 10
0.0
 20
0.0
 11
-1.0
 21
0.25
 12
-1.0
 22
-0.25
 13
-1.0
 23
-0.25
  0
ENDBLK
  5
216
100
AcDbEntity
  8
0
  6
BYBLOCK
 62
0
100
AcDbBlockEnd
  0
ENDSEC
  0
SECTION
  2
ENTITIES
  0
LINE
  5
217
100
AcDbEntity
  8
0
100
AcDbLine
 62
7
  6
BYLAYER
 10
122.8648952872
 20
35.1158357771
 11
182.8648952872
 21
35.1158357771
  0
LINE
  5
218
100
AcDbEntity
  8
0
100
AcDbLine
 62
7
  6
BYLAYER
 10
149.8278790623
 20
39.6158357771
 11
135.9019115121
 21
39.6158357771
  0
LINE
  5
219
100
AcDbEntity
  8
0
100
AcDbLine
 62
7
  6
BYLAYER
 10
132.5702320862
 20
41.6158357771
 11
153.1595584882
 21
41.6158357771
  0
LINE
  5
21A
100
AcDbEntity
  8
0
100
AcDbLine
 62
7
  6
BYLAYER
 10
182.8648952872
 20
46.8158357771
 11
122.8648952872
 21
46.8158357771
  0
LINE
  5
21B
100
AcDbEntity
  8
0
100
AcDbLine
 62
7
  6
BYLAYER
 10
122.8648952872
 20
48.3158357771
 11
182.8648952872
 21
48.3158357771
  0
LINE
  5
21C
100
AcDbEntity
  8
0
100
AcDbLine
 62
7
  6
BYLAYER
 10
126.2648952872
 20
53.3158357771
 11
139.4648952872
 21
53.3158357771
  0
LINE
  5
21D
100
AcDbEntity
  8
0
100
AcDbLine
 62
7
  6
BYLAYER
 10
146.2648952872
 20
53.3158357771
 11
159.4648952872
 21
53.3158357771
  0
LINE
  5
21E
100
AcDbEntity
  8
0
100
AcDbLine
 62
7
  6
BYLAYER
 10
166.2648952872
 20
53.3158357771
 11
179.4648952872
 21
53.3158357771
  0
LINE
  5
21F
100
AcDbEntity
  8
0
100
AcDbLine
 62
7
  6
BYLAYER
 10
126.2648952872
 20
68.8158357771
 11
139.4648952872
 21
68.8158357771
  0
LINE
  5
220
100
AcDbEntity
  8
0
100
AcDbLine
 62
7
  6
BYLAYER
 10
146.2648952872
 20
68.8158357771
 11
159.4648952872
 21
68.8158357771
  0
LINE
  5
221
100
AcDbEntity
  8
0
100
AcDbLine
 62
7
  6
BYLAYER
 10
166.2648952872
 20
68.8158357771
 11
179.4648952872
 21
68.8158357771
  0
LINE
  5
222
100
AcDbEntity
  8
0
100
AcDbLine
 62
7
  6
BYLAYER
 10
182.8648952872
 20
84.8158357771
 11
122.8648952872
 21
84.8158357771
  0
LINE
  5
223
100
AcDbEntity
  8
0
100
AcDbLine
 62
7
  6
BYLAYER
 10
122.8648952872
 20
86.3158357771
 11
182.8648952872
 21
86.3158357771
  0
LINE
  5
224
100
AcDbEntity
  8
0
100
AcDbLine
 62
7
  6
BYLAYER
 10
122.9148952872
 20
91.4158357771
 11
134.8311315599
 21
91.4158357771
  0
LINE
  5
225
100
AcDbEntity
  8
0
100
AcDbLine
 62
7
  6
BYLAYER
 10
170.9148952872
 20
91.4158357771
 11
182.8148952872
 21
91.4158357771
  0
LINE
  5
226
100
AcDbEntity
  8
0
100
AcDbLine
 62
7
  6
BYLAYER
 10
182.8148952872
 20
100.2158357771
 11
122.9148952872
 21
100.2158357771
  0
LINE
  5
227
100
AcDbEntity
  8
0
100
AcDbLine
 62
7
  6
BYLAYER
 10
172.3648952872
 20
103.4158357771
 11
133.3648952872
 21
103.4158357771
  0
LINE
  5
228
100
AcDbEntity
  8
0
100
AcDbLine
 62
7
  6
BYLAYER
 10
159.8648952872
 20
104.3158357771
 11
145.8648952872
 21
104.3158357771
  0
LINE
  5
229
100
AcDbEntity
  8
0
100
AcDbLine
 62
7
  6
BYLAYER
 10
112.8648952872
 20
340.3158357771
 11
112.8648952872
 21
343.3158357771
  0
LINE
  5
22A
100
AcDbEntity
  8
0
100
AcDbLine
 62
7
  6
BYLAYER
 10
113.8648952872
 20
328.3158357771
 11
113.8648952872
 21
340.3158357771
  0
LINE
  5
22B
100
AcDbEntity
  8
0
100
AcDbLine
 62
7
  6
BYLAYER
 10
147.1148952872
 20
166.5158357771
 11
158.6148952872
 21
166.5158357771
  0
LINE
  5
22C
100
AcDbEntity
  8
0
100
AcDbLine
 62
7
  6
BYLAYER
 10
146.6148952872
 20
167.0158357771
 11
159.1148952872
 21
167.0158357771
  0
LINE
  5
22D
100
AcDbEntity
  8
0
100
AcDbLine
 62
7
  6
BYLAYER
 10
159.1148952872
 20
167.8158357771
 11
146.6148952872
 21
167.8158357771
  0
LINE
  5
22E
100
AcDbEntity
  8
0
100
AcDbLine
 62
7
  6
BYLAYER
 10
133.8649532839
 20
168.3158357771
 11
171.8648372904
 21
168.3158357771
  0
LINE
  5
22F
100
AcDbEntity
  8
0
100
AcDbLine
 62
7
  6
BYLAYER
 10
171.8648372904
 20
169.3158357771
 11
133.8649532839
 21
169.3158357771
  0
LINE
  5
230
100
AcDbEntity
  8
0
100
AcDbLine
 62
7
  6
BYLAYER
 10
118.8648952872
 20
343.3158357771
 11
118.8648952872
 21
340.3158357771
  0
LINE
  5
231
100
AcDbEntity
  8
0
100
AcDbLine
 62
7
  6
BYLAYER
 10
121.3648952872
 20
343.3158357771
 11
121.3648952872
 21
344.6158357771
  0
LINE
  5
232
100
AcDbEntity
  8
0
100
AcDbLine
 62
7
  6
BYLAYER
 10
122.8648952872
 20
349.1158357771
 11
122.8648952872
 21
344.6158357771
  0
LINE
  5
233
100
AcDbEntity
  8
0
100
AcDbLine
 62
7
  6
BYLAYER
 10
122.8648952872
 20
100.2158357771
 11
122.8648952872
 21
35.1158357771
  0
LINE
  5
234
100
AcDbEntity
  8
0
100
AcDbLine
 62
7
  6
BYLAYER
 10
122.9148952872
 20
91.4158357771
 11
122.9148952872
 21
100.2158357771
  0
LINE
  5
235
100
AcDbEntity
  8
0
100
AcDbLine
 62
7
  6
BYLAYER
 10
123.7638747727
 20
340.3158357771
 11
123.7638752954
 21
328.3158357771
  0
LINE
  5
236
100
AcDbEntity
  8
0
100
AcDbLine
 62
7
  6
BYLAYER
 10
125.8648952872
 20
350.1158357771
 11
125.8648952872
 21
344.6158357771
  0
LINE
  5
237
100
AcDbEntity
  8
0
100
AcDbLine
 62
7
  6
BYLAYER
 10
126.2648952872
 20
53.3158357771
 11
126.2648952872
 21
68.8158357771
  0
LINE
  5
238
100
AcDbEntity
  8
0
100
AcDbLine
 62
7
  6
BYLAYER
 10
128.4311303348
 20
91.4158357771
 11
128.4311303348
 21
100.2158357771
  0
LINE
  5
239
100
AcDbEntity
  8
0
100
AcDbLine
 62
7
  6
BYLAYER
 10
128.9648952872
 20
344.6158357771
 11
128.9648952872
 21
343.3158357771
  0
LINE
  5
23A
100
AcDbEntity
  8
0
100
AcDbLine
 62
7
  6
BYLAYER
 10
129.2247815066
 20
100.2158357771
 11
129.2247815066
 21
91.4158357771
  0
LINE
  5
23B
100
AcDbEntity
  8
0
100
AcDbLine
 62
7
  6
BYLAYER
 10
130.3648952872
 20
350.1158357771
 11
130.3648952872
 21
387.9158357771
  0
LINE
  5
23C
100
AcDbEntity
  8
0
100
AcDbLine
 62
7
  6
BYLAYER
 10
130.7121055404
 20
387.9158357771
 11
130.7121055404
 21
372.1158353666
  0
LINE
  5
23D
100
AcDbEntity
  8
0
100
AcDbLine
 62
7
  6
BYLAYER
 10
132.5702320862
 20
35.1158357771
 11
132.5702320862
 21
41.6158357771
  0
LINE
  5
23E
100
AcDbEntity
  8
0
100
AcDbLine
 62
7
  6
BYLAYER
 10
133.1735266197
 20
389.9158357771
 11
133.1735266197
 21
372.1158357826
  0
LINE
  5
23F
100
AcDbEntity
  8
0
100
AcDbLine
 62
7
  6
BYLAYER
 10
133.3648952872
 20
100.2158357771
 11
133.3648952872
 21
103.4158357771
  0
LINE
  5
240
100
AcDbEntity
  8
0
100
AcDbLine
 62
7
  6
BYLAYER
 10
133.8648952872
 20
168.3158357771
 11
133.8648952872
 21
169.3158357771
  0
LINE
  5
241
100
AcDbEntity
  8
0
100
AcDbLine
 62
7
  6
BYLAYER
 10
134.527918967
 20
91.4158357771
 11
134.527918967
 21
100.2158357771
  0
LINE
  5
242
100
AcDbEntity
  8
0
100
AcDbLine
 62
7
  6
BYLAYER
 10
134.7988225683
 20
100.2158357771
 11
134.7988225683
 21
91.4158357771
  0
LINE
  5
243
100
AcDbEntity
  8
0
100
AcDbLine
 62
7
  6
BYLAYER
 10
134.8311315599
 20
91.4158357771
 11
134.8311315599
 21
100.2158357771
  0
LINE
  5
244
100
AcDbEntity
  8
0
100
AcDbLine
 62
7
  6
BYLAYER
 10
136.8648952872
 20
35.1158357771
 11
136.8648952872
 21
39.6158357771
  0
LINE
  5
245
100
AcDbEntity
  8
0
100
AcDbLine
 62
7
  6
BYLAYER
 10
137.330996982
 20
103.4158357771
 11
137.330996982
 21
100.2158357771
  0
LINE
  5
246
100
AcDbEntity
  8
0
100
AcDbLine
 62
7
  6
BYLAYER
 10
139.3648952872
 20
100.2158357771
 11
139.3648952872
 21
103.4158357771
  0
LINE
  5
247
100
AcDbEntity
  8
0
100
AcDbLine
 62
7
  6
BYLAYER
 10
139.4648952872
 20
68.8158357771
 11
139.4648952872
 21
53.3158357771
  0
LINE
  5
248
100
AcDbEntity
  8
0
100
AcDbLine
 62
7
  6
BYLAYER
 10
140.3648952872
 20
103.4158357771
 11
140.3648952872
 21
100.2158357771
  0
LINE
  5
249
100
AcDbEntity
  8
0
100
AcDbLine
 62
7
  6
BYLAYER
 10
144.8648952872
 20
279.3158357771
 11
144.8648952872
 21
328.3158357771
  0
LINE
  5
24A
100
AcDbEntity
  8
0
100
AcDbLine
 62
7
  6
BYLAYER
 10
145.8648952872
 20
104.3158357771
 11
145.8648952872
 21
103.4158357771
  0
LINE
  5
24B
100
AcDbEntity
  8
0
100
AcDbLine
 62
7
  6
BYLAYER
 10
146.2648952872
 20
53.3158357771
 11
146.2648952872
 21
68.8158357771
  0
LINE
  5
24C
100
AcDbEntity
  8
0
100
AcDbLine
 62
7
  6
BYLAYER
 10
146.6148952872
 20
167.0158357771
 11
146.6148952872
 21
167.8158357771
  0
LINE
  5
24D
100
AcDbEntity
  8
0
100
AcDbLine
 62
7
  6
BYLAYER
 10
148.6148952872
 20
166.5158357771
 11
148.6148952872
 21
168.3158357771
  0
LINE
  5
24E
100
AcDbEntity
  8
0
100
AcDbLine
 62
7
  6
BYLAYER
 10
148.8648952872
 20
279.3158357771
 11
148.8648952872
 21
169.3158357771
  0
LINE
  5
24F
100
AcDbEntity
  8
0
100
AcDbLine
 62
7
  6
BYLAYER
 10
148.8648952872
 20
166.5158357771
 11
148.8648952872
 21
104.3158357771
  0
LINE
  5
250
100
AcDbEntity
  8
0
100
AcDbLine
 62
7
  6
BYLAYER
 10
148.8648952872
 20
39.6158357771
 11
148.8648952872
 21
35.1158357771
  0
LINE
  5
251
100
AcDbEntity
  8
0
100
AcDbLine
 62
7
  6
BYLAYER
 10
153.1595584882
 20
41.6158357771
 11
153.1595584882
 21
35.1158357771
  0
LINE
  5
252
100
AcDbEntity
  8
0
100
AcDbLine
 62
7
  6
BYLAYER
 10
156.8648952872
 20
279.3158357771
 11
156.8648952872
 21
169.3158357771
  0
LINE
  5
253
100
AcDbEntity
  8
0
100
AcDbLine
 62
7
  6
BYLAYER
 10
156.8648952872
 20
166.5158357771
 11
156.8648952872
 21
104.3158357771
  0
LINE
  5
254
100
AcDbEntity
  8
0
100
AcDbLine
 62
7
  6
BYLAYER
 10
157.1148952872
 20
166.5158357771
 11
157.1148952872
 21
168.3158357771
  0
LINE
  5
255
100
AcDbEntity
  8
0
100
AcDbLine
 62
7
  6
BYLAYER
 10
159.1148952872
 20
167.0158357771
 11
159.1148952872
 21
167.8158357771
  0
LINE
  5
256
100
AcDbEntity
  8
0
100
AcDbLine
 62
7
  6
BYLAYER
 10
159.4648952872
 20
68.8158357771
 11
159.4648952872
 21
53.3158357771
  0
LINE
  5
257
100
AcDbEntity
  8
0
100
AcDbLine
 62
7
  6
BYLAYER
 10
159.8648952872
 20
104.3158357771
 11
159.8648952872
 21
103.4158357771
  0
LINE
  5
258
100
AcDbEntity
  8
0
100
AcDbLine
 62
7
  6
BYLAYER
 10
160.8648952872
 20
328.3158357771
 11
160.8648952872
 21
279.3158357771
  0
LINE
  5
259
100
AcDbEntity
  8
0
100
AcDbLine
 62
7
  6
BYLAYER
 10
165.3648952872
 20
100.2158357771
 11
165.3648952872
 21
103.4158357771
  0
LINE
  5
25A
100
AcDbEntity
  8
0
100
AcDbLine
 62
7
  6
BYLAYER
 10
166.2648952872
 20
53.3158357771
 11
166.2648952872
 21
68.8158357771
  0
LINE
  5
25B
100
AcDbEntity
  8
0
100
AcDbLine
 62
7
  6
BYLAYER
 10
166.3648952872
 20
103.4158357771
 11
166.3648952872
 21
100.2158357771
  0
LINE
  5
25C
100
AcDbEntity
  8
0
100
AcDbLine
 62
7
  6
BYLAYER
 10
166.3648952872
 20
387.9158357771
 11
166.3648952872
 21
389.9158357771
  0
LINE
  5
25D
100
AcDbEntity
  8
0
100
AcDbLine
 62
7
  6
BYLAYER
 10
166.7648952872
 20
389.9158357771
 11
166.7648952872
 21
387.9158357771
  0
LINE
  5
25E
100
AcDbEntity
  8
0
100
AcDbLine
 62
7
  6
BYLAYER
 10
168.3987935923
 20
103.4158357771
 11
168.3987935923
 21
100.2158357771
  0
LINE
  5
25F
100
AcDbEntity
  8
0
100
AcDbLine
 62
7
  6
BYLAYER
 10
170.9148952872
 20
91.4158357771
 11
170.9148952872
 21
100.2158357771
  0
LINE
  5
260
100
AcDbEntity
  8
0
100
AcDbLine
 62
7
  6
BYLAYER
 10
171.2137553354
 20
100.2158357771
 11
171.2137553354
 21
91.4158357771
  0
LINE
  5
261
100
AcDbEntity
  8
0
100
AcDbLine
 62
7
  6
BYLAYER
 10
171.8648952872
 20
168.3158357771
 11
171.8648952872
 21
169.3158357771
  0
LINE
  5
262
100
AcDbEntity
  8
0
100
AcDbLine
 62
7
  6
BYLAYER
 10
172.3648952872
 20
100.2158357771
 11
172.3648952872
 21
103.4158357771
  0
LINE
  5
263
100
AcDbEntity
  8
0
100
AcDbLine
 62
7
  6
BYLAYER
 10
172.556263954
 20
372.1158357863
 11
172.5562639547
 21
389.9158357771
  0
LINE
  5
264
100
AcDbEntity
  8
0
100
AcDbLine
 62
7
  6
BYLAYER
 10
175.017685034
 20
372.1158355713
 11
175.017685034
 21
387.9158357771
  0
LINE
  5
265
100
AcDbEntity
  8
0
100
AcDbLine
 62
7
  6
BYLAYER
 10
175.3648952872
 20
350.1158357771
 11
175.3648952872
 21
387.9158357771
  0
LINE
  5
266
100
AcDbEntity
  8
0
100
AcDbLine
 62
7
  6
BYLAYER
 10
176.6069832281
 20
91.4158357771
 11
176.6069832281
 21
100.2158357771
  0
LINE
  5
267
100
AcDbEntity
  8
0
100
AcDbLine
 62
7
  6
BYLAYER
 10
176.7648952872
 20
343.3158357771
 11
176.7648952872
 21
344.6158357771
  0
LINE
  5
268
100
AcDbEntity
  8
0
100
AcDbLine
 62
7
  6
BYLAYER
 10
177.3883737703
 20
91.4158357771
 11
177.3883737703
 21
100.2158357771
  0
LINE
  5
269
100
AcDbEntity
  8
0
100
AcDbLine
 62
7
  6
BYLAYER
 10
179.4648952872
 20
68.8158357771
 11
179.4648952872
 21
53.3158357771
  0
LINE
  5
26A
100
AcDbEntity
  8
0
100
AcDbLine
 62
7
  6
BYLAYER
 10
179.8648952872
 20
344.6158357771
 11
179.8648952872
 21
350.1158357771
  0
LINE
  5
26B
100
AcDbEntity
  8
0
100
AcDbLine
 62
7
  6
BYLAYER
 10
181.9659158016
 20
340.3158357771
 11
181.9659156712
 21
328.3158357771
  0
LINE
  5
26C
100
AcDbEntity
  8
0
100
AcDbLine
 62
7
  6
BYLAYER
 10
182.8148952872
 20
100.2158357771
 11
182.8148952872
 21
91.4158357771
  0
LINE
  5
26D
100
AcDbEntity
  8
0
100
AcDbLine
 62
7
  6
BYLAYER
 10
182.8648952872
 20
349.1158357771
 11
182.8648952872
 21
344.6158357771
  0
LINE
  5
26E
100
AcDbEntity
  8
0
100
AcDbLine
 62
7
  6
BYLAYER
 10
182.8648952872
 20
35.1158357771
 11
182.8648952872
 21
100.2158357771
  0
LINE
  5
26F
100
AcDbEntity
  8
0
100
AcDbLine
 62
7
  6
BYLAYER
 10
184.3648952872
 20
344.6158357771
 11
184.3648952872
 21
343.3158357771
  0
LINE
  5
270
100
AcDbEntity
  8
0
100
AcDbLine
 62
7
  6
BYLAYER
 10
186.8648952872
 20
340.3158357771
 11
186.8648952872
 21
343.3158357771
  0
LINE
  5
271
100
AcDbEntity
  8
0
100
AcDbLine
 62
7
  6
BYLAYER
 10
191.8648952872
 20
328.3158357771
 11
191.8648952872
 21
340.3158357771
  0
LINE
  5
272
100
AcDbEntity
  8
0
100
AcDbLine
 62
7
  6
BYLAYER
 10
192.8648952872
 20
343.3158357771
 11
192.8648952872
 21
340.3158357771
  0
LINE
  5
273
100
AcDbEntity
  8
0
100
AcDbLine
 62
7
  6
BYLAYER
 10
144.8648952872
 20
279.3158357771
 11
160.8648952872
 21
279.3158357771
  0
LINE
  5
274
100
AcDbEntity
  8
0
100
AcDbLine
 62
7
  6
BYLAYER
 10
113.8655859068
 20
328.3158357771
 11
191.8642046612
 21
328.3158357771
  0
LINE
  5
275
100
AcDbEntity
  8
0
100
AcDbLine
 62
7
  6
BYLAYER
 10
112.8648952872
 20
340.3158357771
 11
192.8648952872
 21
340.3158357771
  0
LINE
  5
276
100
AcDbEntity
  8
0
100
AcDbLine
 62
7
  6
BYLAYER
 10
192.8648952872
 20
343.3158357771
 11
112.8648952872
 21
343.3158357771
  0
LINE
  5
277
100
AcDbEntity
  8
0
100
AcDbLine
 62
7
  6
BYLAYER
 10
184.3648952872
 20
344.6158357771
 11
121.3648952872
 21
344.6158357771
  0
LINE
  5
278
100
AcDbEntity
  8
0
100
AcDbLine
 62
7
  6
BYLAYER
 10
182.8648952872
 20
349.1158357771
 11
122.8648952872
 21
349.1158357771
  0
LINE
  5
279
100
AcDbEntity
  8
0
100
AcDbLine
 62
7
  6
BYLAYER
 10
123.8648952872
 20
350.1158357771
 11
181.8648952872
 21
350.1158357771
  0
LINE
  5
27A
100
AcDbEntity
  8
0
100
AcDbLine
 62
7
  6
BYLAYER
 10
162.672417915
 20
357.6158357771
 11
143.0573726617
 21
357.6158357771
  0
LINE
  5
27B
100
AcDbEntity
  8
0
100
AcDbLine
 62
7
  6
BYLAYER
 10
161.5826931786
 20
360.1158357771
 11
144.1470973861
 21
360.1158357771
  0
LINE
  5
27C
100
AcDbEntity
  8
0
100
AcDbLine
 62
7
  6
BYLAYER
 10
130.7121055362
 20
372.1158358021
 11
175.0176850381
 21
372.1158354114
  0
LINE
  5
27D
100
AcDbEntity
  8
0
100
AcDbLine
 62
7
  6
BYLAYER
 10
130.3648952872
 20
387.9158357771
 11
175.3648952872
 21
387.9158357771
  0
LINE
  5
27E
100
AcDbEntity
  8
0
100
AcDbLine
 62
7
  6
BYLAYER
 10
132.36491792
 20
389.9158357771
 11
173.3648938238
 21
389.9158357771
  0
ARC
  5
27F
100
AcDbEntity
  8
0
100
AcDbCircle
 62
7
  6
BYLAYER
 10
132.3648952872
 20
387.9158357771
 40
2.0
100
AcDbArc
 50
90.0
 51
180.0
  0
ARC
  5
280
100
AcDbEntity
  8
0
100
AcDbCircle
 62
7
  6
BYLAYER
 10
173.3648952872
 20
387.9158357771
 40
2.0
100
AcDbArc
 50
0.0
 51
90.0
  0
ARC
  5
281
100
AcDbEntity
  8
0
100
AcDbCircle
 62
7
  6
BYLAYER
 10
173.0475145185
 20
387.9832278205
 40
1.932608233
100
AcDbArc
 50
81.5336102919
 51
89.9693554287
  0
ARC
  5
282
100
AcDbEntity
  8
0
100
AcDbCircle
 62
7
  6
BYLAYER
 10
123.8648952872
 20
349.1158357771
 40
1.0
100
AcDbArc
 50
90.0
 51
180.0
  0
ARC
  5
283
100
AcDbEntity
  8
0
100
AcDbCircle
 62
7
  6
BYLAYER
 10
181.8648952872
 20
349.1158357771
 40
1.0
100
AcDbArc
 50
0.0
 51
90.0
  0
ARC
  5
284
100
AcDbEntity
  8
0
100
AcDbCircle
 62
7
  6
BYLAYER
 10
146.1148952872
 20
167.8158357771
 40
0.5
100
AcDbArc
 50
0.0
 51
90.0
  0
ARC
  5
285
100
AcDbEntity
  8
0
100
AcDbCircle
 62
7
  6
BYLAYER
 10
159.6148952872
 20
167.8158357771
 40
0.5
100
AcDbArc
 50
90.0
 51
180.0
  0
ARC
  5
286
100
AcDbEntity
  8
0
100
AcDbCircle
 62
7
  6
BYLAYER
 10
147.1148952872
 20
167.0158357771
 40
0.5
100
AcDbArc
 50
180.0
 51
270.0
  0
ARC
  5
287
100
AcDbEntity
  8
0
100
AcDbCircle
 62
7
  6
BYLAYER
 10
158.6148952872
 20
167.0158357771
 40
0.5
100
AcDbArc
 50
270.0
 51
360.0
  0
SPLINE
  5
288
100
AcDbEntity
  8
0
100
AcDbSpline
 62
7
  6
BYLAYER
 70
0
 71
3
 72
15
 73
11
 74
0
 42
0.0000001
 43
0.0000001
 44
0.0000000001
 40
0.0
 40
0.0
 40
0.0
 40
0.0
 40
0.0716806185
 40
0.1431353182
 40
0.2845821349
 40
0.4227968824
 40
0.5563199793
 40
0.8011789358
 40
0.9076280401
 40
1.0
 40
1.0
 40
1.0
 40
1.0
 10
132.5702320862
 20
41.6158357771
 30
0.0
 10
132.5702320862
 20
41.5203379035
 30
0.0
 10
132.6732571022
 20
41.3389945905
 30
0.0
 10
132.9497967523
 20
41.0857266539
 30
0.0
 10
133.3277083753
 20
40.8049182781
 30
0.0
 10
133.7880077925
 20
40.5039791047
 30
0.0
 10
134.3789666813
 20
40.1511759444
 30
0.0
 10
134.9549933292
 20
39.8529698597
 30
0.0
 10
135.5144434626
 20
39.6597493124
 30
0.0
 10
135.7788472035
 20
39.6158357771
 30
0.0
 10
135.9019115121
 20
39.6158357771
 30
0.0
  0
SPLINE
  5
289
100
AcDbEntity
  8
0
100
AcDbSpline
 62
7
  6
BYLAYER
 70
0
 71
3
 72
11
 73
7
 74
0
 42
0.0000001
 43
0.0000001
 44
0.0000000001
 40
0.0
 40
0.0
 40
0.0
 40
0.0
 40
0.3218054093
 40
0.4817653373
 40
0.629556236
 40
1.0
 40
1.0
 40
1.0
 40
1.0
 10
162.6724178757
 20
357.6158357771
 30
0.0
 10
162.6724178758
 20
357.9236392096
 30
0.0
 10
162.6381145843
 20
358.3839884349
 30
0.0
 10
162.5034223699
 20
358.9780363419
 30
0.0
 10
162.3063238633
 20
359.5706442725
 30
0.0
 10
161.9370186433
 20
360.1158357771
 30
0.0
 10
161.5826931446
 20
360.1158357771
 30
0.0
  0
SPLINE
  5
28A
100
AcDbEntity
  8
0
100
AcDbSpline
 62
7
  6
BYLAYER
 70
0
 71
3
 72
17
 73
13
 74
0
 42
0.0000001
 43
0.0000001
 44
0.0000000001
 40
0.0
 40
0.0
 40
0.0
 40
0.0
 40
0.1561273737
 40
0.3007082323
 40
0.3661025254
 40
0.4263181879
 40
0.5334502208
 40
0.5836176715
 40
0.6340600912
 40
0.741826665
 40
0.8638677677
 40
1.0
 40
1.0
 40
1.0
 40
1.0
 10
175.017685034
 20
372.1158355713
 30
0.0
 10
175.01725384
 20
370.9257697102
 30
0.0
 10
174.9655615908
 20
368.6336399657
 30
0.0
 10
174.7180424488
 20
365.8488000197
 30
0.0
 10
174.3161415611
 20
363.8253249354
 30
0.0
 10
173.7984106361
 20
362.1282225365
 30
0.0
 10
172.9957011725
 20
360.6340499738
 30
0.0
 10
171.8525962158
 20
359.5231223413
 30
0.0
 10
170.5142163836
 20
358.6514451109
 30
0.0
 10
168.4568672915
 20
357.9709988174
 30
0.0
 10
165.6792426629
 20
357.6537781951
 30
0.0
 10
163.7100596555
 20
357.6106117297
 30
0.0
 10
162.672417915
 20
357.6158357771
 30
0.0
  0
SPLINE
  5
28B
100
AcDbEntity
  8
0
100
AcDbSpline
 62
7
  6
BYLAYER
 70
0
 71
3
 72
17
 73
13
 74
0
 42
0.0000001
 43
0.0000001
 44
0.0000000001
 40
0.0
 40
0.0
 40
0.0
 40
0.0
 40
0.14696401
 40
0.2848854462
 40
0.348266205
 40
0.4073923356
 40
0.5145085338
 40
0.5657670105
 40
0.61790874
 40
0.7304663261
 40
0.8582188795
 40
1.0
 40
1.0
 40
1.0
 40
1.0
 10
172.5562877611
 20
372.115835784
 30
0.0
 10
172.5562701068
 20
371.1578297681
 30
0.0
 10
172.5116081729
 20
369.300775057
 30
0.0
 10
172.3031437357
 20
367.03557323
 30
0.0
 10
171.9618042213
 20
365.3696419277
 30
0.0
 10
171.5144566598
 20
363.9406670372
 30
0.0
 10
170.8044316014
 20
362.6740479133
 30
0.0
 10
169.794183736
 20
361.7320277113
 30
0.0
 10
168.5927271989
 20
360.9830157335
 30
0.0
 10
166.7453765062
 20
360.4156104729
 30
0.0
 10
164.2652970572
 20
360.1437007796
 30
0.0
 10
162.5069226255
 20
360.1158497531
 30
0.0
 10
161.5827020194
 20
360.115835777
 30
0.0
  0
SPLINE
  5
28C
100
AcDbEntity
  8
0
100
AcDbSpline
 62
7
  6
BYLAYER
 70
0
 71
3
 72
17
 73
13
 74
0
 42
0.0000001
 43
0.0000001
 44
0.0000000001
 40
0.0
 40
0.0
 40
0.0
 40
0.0
 40
0.1419044874
 40
0.2697820613
 40
0.3823828022
 40
0.4345316306
 40
0.4857970368
 40
0.592926164
 40
0.652039658
 40
0.715396251
 40
0.8532153531
 40
1.0
 40
1.0
 40
1.0
 40
1.0
 10
144.1470909988
 20
360.115835777
 30
0.0
 10
143.2220560694
 20
360.1158639316
 30
0.0
 10
141.4620477038
 20
360.1438245908
 30
0.0
 10
138.9800424616
 20
360.4161471026
 30
0.0
 10
137.1318045778
 20
360.985019117
 30
0.0
 10
135.9307384905
 20
361.7354268284
 30
0.0
 10
134.9214278522
 20
362.678752441
 30
0.0
 10
134.212839051
 20
363.9461809489
 30
0.0
 10
133.7664696487
 20
365.3752966477
 30
0.0
 10
133.4261139951
 20
367.0405128848
 30
0.0
 10
133.2181349503
 20
369.3037456704
 30
0.0
 10
133.1735099755
 20
371.1589884849
 30
0.0
 10
133.173509394
 20
372.1158357844
 30
0.0
  0
SPLINE
  5
28D
100
AcDbEntity
  8
0
100
AcDbSpline
 62
7
  6
BYLAYER
 70
0
 71
3
 72
11
 73
7
 74
0
 42
0.0000001
 43
0.0000001
 44
0.0000000001
 40
0.0
 40
0.0
 40
0.0
 40
0.0
 40
0.2517546894
 40
0.502408868
 40
0.7517161997
 40
1.0
 40
1.0
 40
1.0
 40
1.0
 10
130.712104767
 20
387.91583595
 30
0.0
 10
130.7121047891
 20
388.1757650838
 30
0.0
 10
130.8139788487
 20
388.7000454124
 30
0.0
 10
131.2508967552
 20
389.364701675
 30
0.0
 10
131.9054186261
 20
389.8110974067
 30
0.0
 10
132.4249044717
 20
389.9158368042
 30
0.0
 10
132.681250017
 20
389.9158357771
 30
0.0
  0
SPLINE
  5
28E
100
AcDbEntity
  8
0
100
AcDbSpline
 62
7
  6
BYLAYER
 70
0
 71
3
 72
17
 73
13
 74
0
 42
0.0000001
 43
0.0000001
 44
0.0000000001
 40
0.0
 40
0.0
 40
0.0
 40
0.0
 40
0.1560799129
 40
0.3006467507
 40
0.3660272946
 40
0.4262656134
 40
0.5333481776
 40
0.5835465599
 40
0.6340043077
 40
0.7417508169
 40
0.8638258876
 40
1.0
 40
1.0
 40
1.0
 40
1.0
 10
130.7121055404
 20
372.1158353666
 30
0.0
 10
130.7121053248
 20
370.9261222507
 30
0.0
 10
130.7646719255
 20
368.6344822186
 30
0.0
 10
131.0113509832
 20
365.8500698966
 30
0.0
 10
131.4135719537
 20
363.8267662676
 30
0.0
 10
131.9299098156
 20
362.1293743974
 30
0.0
 10
132.7349384331
 20
360.6367467172
 30
0.0
 10
133.8755448331
 20
359.5236821958
 30
0.0
 10
135.2126110345
 20
358.6489995389
 30
0.0
 10
137.2721429996
 20
357.9737255782
 30
0.0
 10
140.0494762832
 20
357.652278995
 30
0.0
 10
142.0193907429
 20
357.6158578615
 30
0.0
 10
143.0573726617
 20
357.6158357771
 30
0.0
  0
SPLINE
  5
28F
100
AcDbEntity
  8
0
100
AcDbSpline
 62
7
  6
BYLAYER
 70
0
 71
3
 72
11
 73
7
 74
0
 42
0.0000001
 43
0.0000001
 44
0.0000000001
 40
0.0
 40
0.0
 40
0.0
 40
0.0
 40
0.3704438098
 40
0.5182347149
 40
0.6781946373
 40
1.0
 40
1.0
 40
1.0
 40
1.0
 10
144.1470988297
 20
360.1158357771
 30
0.0
 10
143.792773304
 20
360.1158357762
 30
0.0
 10
143.4234681604
 20
359.5706441094
 30
0.0
 10
143.2263697263
 20
358.9780361532
 30
0.0
 10
143.0916775864
 20
358.3839883022
 30
0.0
 10
143.057374321
 20
357.9236391505
 30
0.0
 10
143.0573743269
 20
357.6158357771
 30
0.0
  0
SPLINE
  5
290
100
AcDbEntity
  8
0
100
AcDbSpline
 62
7
  6
BYLAYER
 70
0
 71
3
 72
15
 73
11
 74
0
 42
0.0000001
 43
0.0000001
 44
0.0000000001
 40
0.0
 40
0.0
 40
0.0
 40
0.0
 40
0.0923741926
 40
0.1988280988
 40
0.4436874825
 40
0.5772104051
 40
0.7154244505
 40
0.8568698819
 40
0.928324182
 40
1.0
 40
1.0
 40
1.0
 40
1.0
 10
149.8278790623
 20
39.6158357771
 30
0.0
 10
149.9509463447
 20
39.6158357771
 30
0.0
 10
150.2153588108
 20
39.6597545035
 30
0.0
 10
150.7748197662
 20
39.8529735634
 30
0.0
 10
151.3508485219
 20
40.1511911308
 30
0.0
 10
151.9418077069
 20
40.5039931926
 30
0.0
 10
152.4020996451
 20
40.804935892
 30
0.0
 10
152.7800259912
 20
41.0857236047
 30
0.0
 10
153.0565320039
 20
41.3390127976
 30
0.0
 10
153.1595584882
 20
41.5203442997
 30
0.0
 10
153.1595584882
 20
41.6158357771
 30
0.0
  0
SPLINE
  5
291
100
AcDbEntity
  8
0
100
AcDbSpline
 62
7
  6
BYLAYER
 70
0
 71
3
 72
11
 73
7
 74
0
 42
0.0000001
 43
0.0000001
 44
0.0000000001
 40
0.0
 40
0.0
 40
0.0
 40
0.0
 40
0.2484519611
 40
0.4976062485
 40
0.7484176591
 40
1.0
 40
1.0
 40
1.0
 40
1.0
 10
173.3320509191
 20
389.8947752615
 30
0.0
 10
173.5628838502
 20
389.860494466
 30
0.0
 10
174.0170232949
 20
389.7068021025
 30
0.0
 10
174.5708980625
 20
389.2503993604
 30
0.0
 10
174.9336389032
 20
388.6281771913
 30
0.0
 10
175.0176850381
 20
388.1521406165
 30
0.0
 10
175.0176850381
 20
387.9158357771
 30
0.0
  0
ENDSEC
  0
SECTION
  2
OBJECTS
  0
DICTIONARY
  5
C
100
AcDbDictionary
280
0
281
1
  3
ACAD_GROUP
350
D
  3
ACAD_MLINESTYLE
350
17
  3
ACAD_LAYOUT
350
1A
  3
ACAD_PLOTSETTINGS
350
19
  3
ACAD_PLOTSTYLENAME
350
E
  0
DICTIONARY
  5
D
102
{ACAD_REACTORS
330
C
102
}
100
AcDbDictionary
280
0
281
1
  0
ACDBDICTIONARYWDFLT
  5
E
102
{ACAD_REACTORS
330
C
102
}
100
AcDbDictionary
281
1
  3
Normal
350
F
100
AcDbDictionaryWithDefault
340
F
  0
DICTIONARY
  5
17
102
{ACAD_REACTORS
330
C
102
}
100
AcDbDictionary
280
0
281
1
  3
Standard
350
18
  0
DICTIONARY
  5
19
102
{ACAD_REACTORS
330
C
102
}
100
AcDbDictionary
281
1
  0
DICTIONARY
  5
1A
102
{ACAD_REACTORS
330
C
102
}
100
AcDbDictionary
281
1
  3
Model
350
292
  3
Layout1
350
293
  0
ACDBPLACEHOLDER
  5
F
102
{ACAD_REACTORS
330
E
102
}
  0
MLINESTYLE
  5
18
102
{ACAD_REACTORS
330
17
102
}
100
AcDbMlineStyle
  2
STANDARD
 70
0
  3

 62
256
 51
90.0
 52
90.0
 71
2
 49
0.5
 62
256
  6
BYLAYER
 49
-0.5
 62
256
  6
BYLAYER
  0
LAYOUT
  5
292
102
{ACAD_REACTORS
330
1A
102
}
100
AcDbPlotSettings
  1

  2
none_device
  4

  6

 40
0.0
 41
0.0
 42
0.0
 43
0.0
 44
210.0
 45
297.0
 46
0.0
 47
0.0
 48
0.0
 49
0.0
140
0.0
141
0.0
142
1.0
143
1.0
 70
1024
 72
1
 73
0
 74
0
  7

 75
0
147
1.0
148
0.0
149
0.0
100
AcDbLayout
  1
Model
 70
0
 71
0
 10
0.0
 20
0.0
 11
210.0
 21
297.0
 12
0.0
 22
0.0
 32
0.0
 14
0.0
 24
0.0
 34
0.0
 15
0.0
 25
0.0
 35
0.0
146
0.0
 13
0.0
 23
0.0
 33
0.0
 16
1.0
 26
0.0
 36
0.0
 17
0.0
 27
1.0
 37
0.0
 76
0
330
210
345
0
346
0
  0
LAYOUT
  5
293
102
{ACAD_REACTORS
330
1A
102
}
100
AcDbPlotSettings
  1

  2
none_device
  4

  6

 40
0.0
 41
0.0
 42
0.0
 43
0.0
 44
210.0
 45
297.0
 46
0.0
 47
0.0
 48
0.0
 49
0.0
140
0.0
141
0.0
142
1.0
143
1.0
 70
0
 72
1
 73
0
 74
0
  7

 75
0
147
1.0
148
0.0
149
0.0
100
AcDbLayout
  1
Layout1
 70
0
 71
1
 10
0.0
 20
0.0
 11
210.0
 21
297.0
 12
0.0
 22
0.0
 32
0.0
 14
0.0
 24
0.0
 34
0.0
 15
0.0
 25
0.0
 35
0.0
146
0.0
 13
0.0
 23
0.0
 33
0.0
 16
1.0
 26
0.0
 36
0.0
 17
0.0
 27
1.0
 37
0.0
 76
0
330
211
345
0
346
0
  0
ENDSEC
  0
EOF
