999
DXF file: C:\Users\sesa63760\Dev\_Creo\CAD\MCADPE0010444_3D-CAD\drw0001_1.dxf
999
Pro/ENGINEER 2019471 by Parametric Technology Corporation
  0
SECTION
  2
HEADER
  9
$ACADVER
  1
AC1024
  9
$DWGCODEPAGE
  3
ANSI_1252
  9
$EXTMAX
 10
70.1062324713
 20
99.1502430665
 30
0.0
  9
$EXTMIN
 10
0.0
 20
0.0
 30
0.0
  9
$LIMMIN
 10
0.0
 20
0.0
  9
$LIMMAX
 10
70.1062324713
 20
99.1502430665
  9
$VIEWCTR
 10
35.0531162356
 20
49.5751215333
  9
$VIEWSIZE
 40
99.1502430665
  9
$CLAYER
  8
0
  9
$LTSCALE
 40
6.4631269554
  9
$CELTYPE
  6
BYLAYER
  9
$DIMSCALE
 40
1.0
  9
$DIMASZ
 40
0.8345980056
  9
$DIMEXO
 40
1.0
  9
$DIMDLI
 40
4.4654331692
  9
$DIMEXE
 40
1.0
  9
$DIMCEN
 40
1.0576025927
  9
$DIMLFAC
 40
1.0
  9
$DIMBLK
  1
_FILLED
  9
$DIMALT
 70
0
  9
$DIMALTF
 40
0.0393700787
  9
$DIMTXT
 40
1.1684372079
  9
$DIMTOL
 70
1
  9
$DIMLIM
 70
0
  9
$DIMTFAC
 40
1.0
  9
$DIMTP
 40
0.01
  9
$DIMTM
 40
0.01
  9
$DIMGAP
 40
0.625
  9
$DIMDSEP
 70
46
  9
$AUNITS
 70
0
  9
$PDMODE
 70
3
  9
$PDSIZE
 40
0.3125
  9
$HANDSEED
  5
269
  9
$TILEMODE
 70
1
  9
$MEASUREMENT
 70
1
  9
$INSUNITS
 70
4
  0
ENDSEC
  0
SECTION
  2
CLASSES
  0
CLASS
  1
ACDBDICTIONARYWDFLT
  2
AcDbDictionaryWithDefault
  3
AutoCAD 2000
 90
0
 91
1
280
0
281
0
  0
CLASS
  1
ACDBPLACEHOLDER
  2
AcDbPlaceHolder
  3
AutoCAD 2000
 90
0
 91
1
280
0
281
0
  0
CLASS
  1
LAYOUT
  2
AcDbLayout
  3
AutoCAD 2000
 90
0
 91
0
280
0
281
0
  0
ENDSEC
  0
SECTION
  2
TABLES
  0
TABLE
  2
VPORT
  5
8
100
AcDbSymbolTable
 70
2
  0
VPORT
  5
1F4
100
AcDbSymbolTableRecord
100
AcDbViewportTableRecord
  2
*ACTIVE
 70
0
 10
0.0
 20
0.0
 11
1.0
 21
1.0
 12
35.0531162356
 22
49.5751215333
 13
0.0
 23
0.0
 14
1.0
 24
1.0
 15
0.0
 25
0.0
 16
0.0
 26
0.0
 36
1.0
 17
0.0
 27
0.0
 37
0.0
 40
99.1502430665
 41
0.7070707071
 42
50.0
 43
0.0
 44
0.0
 50
0.0
 51
0.0
 71
0
 72
100
 73
1
 74
1
 75
0
 76
0
 77
0
 78
0
  0
ENDTAB
  0
TABLE
  2
LTYPE
  5
5
100
AcDbSymbolTable
 70
6
  0
LTYPE
  5
14
100
AcDbSymbolTableRecord
100
AcDbLinetypeTableRecord
  2
BYBLOCK
 70
0
  3

 72
65
 73
0
 40
0.0
  0
LTYPE
  5
15
100
AcDbSymbolTableRecord
100
AcDbLinetypeTableRecord
  2
BYLAYER
 70
0
  3

 72
65
 73
0
 40
0.0
  0
LTYPE
  5
16
100
AcDbSymbolTableRecord
100
AcDbLinetypeTableRecord
  2
CONTINUOUS
 70
64
  3
Solid line
 72
65
 73
0
 40
0.0
  0
LTYPE
  5
1F5
100
AcDbSymbolTableRecord
100
AcDbLinetypeTableRecord
  2
CENTER
 70
64
  3
____ _ ____ _ ____ _ ____ _ ____ _ ____ _ ____
 72
65
 73
4
 40
0.6
 49
0.375
 74
0
 49
-0.075
 74
0
 49
0.075
 74
0
 49
-0.075
 74
0
  0
LTYPE
  5
1F6
100
AcDbSymbolTableRecord
100
AcDbLinetypeTableRecord
  2
HIDDEN
 70
64
  3
- - - - - - - - - - - - - - - - - - - -
 72
65
 73
2
 40
0.2
 49
0.1
 74
0
 49
-0.1
 74
0
  0
LTYPE
  5
1F7
100
AcDbSymbolTableRecord
100
AcDbLinetypeTableRecord
  2
PHANTOM
 70
64
  3
_____ _ _ _____ _ _ _____ _ _ _____
 72
65
 73
6
 40
0.8
 49
0.45
 74
0
 49
-0.05
 74
0
 49
0.1
 74
0
 49
-0.05
 74
0
 49
0.1
 74
0
 49
-0.05
 74
0
  0
LTYPE
  5
1F8
100
AcDbSymbolTableRecord
100
AcDbLinetypeTableRecord
  2
DOT
 70
64
  3
. . . . . . . . . . . . . . . . . . . .
 72
65
 73
2
 40
0.2
 49
0.1
 74
0
 49
-0.1
 74
0
  0
LTYPE
  5
1F9
100
AcDbSymbolTableRecord
100
AcDbLinetypeTableRecord
  2
DASHED
 70
64
  3
- - - - - - - - - - - - - - - - - - - -
 72
65
 73
2
 40
0.2
 49
0.1
 74
0
 49
-0.1
 74
0
  0
ENDTAB
  0
TABLE
  2
LAYER
  5
2
100
AcDbSymbolTable
 70
36
  0
LAYER
  5
10
100
AcDbSymbolTableRecord
100
AcDbLayerTableRecord
  2
0
 70
0
 62
7
  6
CONTINUOUS
370
-3
390
F
  0
LAYER
  5
1FA
100
AcDbSymbolTableRecord
100
AcDbLayerTableRecord
  2
DEFAULT_1
 70
0
 62
7
  6
CENTER
370
-3
390
F
  0
LAYER
  5
1FB
100
AcDbSymbolTableRecord
100
AcDbLayerTableRecord
  2
DEFAULT_2
 70
0
 62
7
  6
HIDDEN
370
-3
390
F
  0
LAYER
  5
1FC
100
AcDbSymbolTableRecord
100
AcDbLayerTableRecord
  2
DEFAULT_3
 70
0
 62
7
  6
PHANTOM
370
-3
390
F
  0
LAYER
  5
1FD
100
AcDbSymbolTableRecord
100
AcDbLayerTableRecord
  2
00_COMPONENTS
 70
0
 62
7
  6
CONTINUOUS
370
-3
390
F
  0
LAYER
  5
1FE
100
AcDbSymbolTableRecord
100
AcDbLayerTableRecord
  2
01_1_DEFAULT_DATUMS
 70
0
 62
7
  6
CONTINUOUS
370
-3
390
F
  0
LAYER
  5
1FF
100
AcDbSymbolTableRecord
100
AcDbLayerTableRecord
  2
01_PLANES
 70
0
 62
7
  6
CONTINUOUS
370
-3
390
F
  0
LAYER
  5
200
100
AcDbSymbolTableRecord
100
AcDbLayerTableRecord
  2
02_COORD_SYS
 70
0
 62
7
  6
CONTINUOUS
370
-3
390
F
  0
LAYER
  5
201
100
AcDbSymbolTableRecord
100
AcDbLayerTableRecord
  2
03_AXES
 70
0
 62
7
  6
CONTINUOUS
370
-3
390
F
  0
LAYER
  5
202
100
AcDbSymbolTableRecord
100
AcDbLayerTableRecord
  2
04_POINTS
 70
0
 62
7
  6
CONTINUOUS
370
-3
390
F
  0
LAYER
  5
203
100
AcDbSymbolTableRecord
100
AcDbLayerTableRecord
  2
05_CURVES
 70
0
 62
7
  6
CONTINUOUS
370
-3
390
F
  0
LAYER
  5
204
100
AcDbSymbolTableRecord
100
AcDbLayerTableRecord
  2
06_SURFS
 70
0
 62
7
  6
CONTINUOUS
370
-3
390
F
  0
LAYER
  5
205
100
AcDbSymbolTableRecord
100
AcDbLayerTableRecord
  2
07_COSMETICS
 70
0
 62
7
  6
CONTINUOUS
370
-3
390
F
  0
LAYER
  5
206
100
AcDbSymbolTableRecord
100
AcDbLayerTableRecord
  2
10_NOTES
 70
0
 62
7
  6
CONTINUOUS
370
-3
390
F
  0
LAYER
  5
207
100
AcDbSymbolTableRecord
100
AcDbLayerTableRecord
  2
11_NOTES_PUB
 70
0
 62
7
  6
CONTINUOUS
370
-3
390
F
  0
LAYER
  5
208
100
AcDbSymbolTableRecord
100
AcDbLayerTableRecord
  2
13_REF_GTOL
 70
0
 62
7
  6
CONTINUOUS
370
-3
390
F
  0
LAYER
  5
209
100
AcDbSymbolTableRecord
100
AcDbLayerTableRecord
  2
16_MISC
 70
0
 62
7
  6
CONTINUOUS
370
-3
390
F
  0
LAYER
  5
20A
100
AcDbSymbolTableRecord
100
AcDbLayerTableRecord
  2
17_NO_PRINT
 70
0
 62
7
  6
CONTINUOUS
370
-3
390
F
  0
LAYER
  5
20B
100
AcDbSymbolTableRecord
100
AcDbLayerTableRecord
  2
18_DATUM_CAMS_JOINTS
 70
0
 62
7
  6
CONTINUOUS
370
-3
390
F
  0
LAYER
  5
20C
100
AcDbSymbolTableRecord
100
AcDbLayerTableRecord
  2
19_DATUM_FUNCTIONAL
 70
0
 62
7
  6
CONTINUOUS
370
-3
390
F
  0
LAYER
  5
20D
100
AcDbSymbolTableRecord
100
AcDbLayerTableRecord
  2
20_DATUM_KINEMATIC_SCHEME
 70
0
 62
7
  6
CONTINUOUS
370
-3
390
F
  0
ENDTAB
  0
TABLE
  2
STYLE
  5
3
100
AcDbSymbolTable
 70
1
  0
STYLE
  5
11
100
AcDbSymbolTableRecord
100
AcDbTextStyleTableRecord
  2
STANDARD
 70
0
 40
0.0
 41
1.0
 50
0.0
 71
0
 42
0.2
  3
ARIAL.TTF
  4

  0
STYLE
  5
20E
100
AcDbSymbolTableRecord
100
AcDbTextStyleTableRecord
  2
TEXTSTYLE_1
 70
0
 40
0.0
 41
0.8
 50
0.0
 71
0
 42
0.2
  3
gdt
  4

  0
ENDTAB
  0
TABLE
  2
VIEW
  5
6
100
AcDbSymbolTable
 70
0
  0
ENDTAB
  0
TABLE
  2
UCS
  5
7
100
AcDbSymbolTable
 70
0
  0
ENDTAB
  0
TABLE
  2
APPID
  5
9
100
AcDbSymbolTable
 70
1
  0
APPID
  5
20F
100
AcDbSymbolTableRecord
100
AcDbRegAppTableRecord
  2
ACAD
 70
0
  0
ENDTAB
  0
TABLE
  2
BLOCK_RECORD
  5
1
100
AcDbSymbolTable
 70
0
  0
BLOCK_RECORD
  5
210
100
AcDbSymbolTableRecord
100
AcDbBlockTableRecord
  2
*Model_Space
  0
BLOCK_RECORD
  5
211
100
AcDbSymbolTableRecord
100
AcDbBlockTableRecord
  2
*Paper_Space
  0
BLOCK_RECORD
  5
212
100
AcDbSymbolTableRecord
100
AcDbBlockTableRecord
  2
_FILLED
  0
ENDTAB
  0
TABLE
  2
DIMSTYLE
  5
A
100
AcDbSymbolTable
 70
1
100
AcDbDimStyleTable
 71
0
  0
DIMSTYLE
105
213
100
AcDbSymbolTableRecord
100
AcDbDimStyleTableRecord
  2
STANDARD
 70
0
  3

  4

 40
1.0
 41
0.8345980056
 42
1.0
 43
0.38
 44
1.0
 45
0.0
 46
0.0
 47
0.01
 48
0.01
140
1.1684372079
141
0.09
142
0.0
143
25.4
144
1.0
145
0.0
146
1.0
147
0.625
 71
1
 72
0
 73
0
 74
0
 75
0
 76
0
 77
1
 78
8
 79
2
170
0
171
1
172
0
173
0
174
0
175
0
176
0
177
0
178
0
270
2
179
2
271
2
272
2
273
2
274
2
275
0
280
0
281
0
282
0
283
1
284
8
285
0
286
0
287
3
288
0
340
11
278
46
341
212
342
212
343
212
344
212
  0
ENDTAB
  0
ENDSEC
  0
SECTION
  2
BLOCKS
  0
BLOCK
  5
20
100
AcDbEntity
  8
0
100
AcDbBlockBegin
  2
*Model_Space
 70
0
 10
0.0
 20
0.0
 30
0.0
  3
*Model_Space
  1

  0
ENDBLK
  5
21
100
AcDbEntity
  8
0
100
AcDbBlockEnd
  0
BLOCK
  5
1C
100
AcDbEntity
  8
0
100
AcDbBlockBegin
  2
*Paper_Space
 70
0
 10
0.0
 20
0.0
 30
0.0
  3
*Paper_Space
  1

  0
ENDBLK
  5
1D
100
AcDbEntity
  8
0
100
AcDbBlockEnd
  0
BLOCK
  5
214
100
AcDbEntity
  8
0
100
AcDbBlockBegin
  2
_FILLED
 70
64
 10
0.0
 20
0.0
  3
_FILLED
  1

  0
SOLID
  5
215
100
AcDbEntity
  8
0
  6
BYBLOCK
 62
0
100
AcDbTrace
 10
0.0
 20
0.0
 11
-1.0
 21
0.25
 12
-1.0
 22
-0.25
 13
-1.0
 23
-0.25
  0
ENDBLK
  5
216
100
AcDbEntity
  8
0
  6
BYBLOCK
 62
0
100
AcDbBlockEnd
  0
ENDSEC
  0
SECTION
  2
ENTITIES
  0
LINE
  5
217
100
AcDbEntity
  8
0
100
AcDbLine
 62
7
  6
BYLAYER
 10
22.7233427132
 20
7.6921342466
 11
23.0402422012
 21
7.6636836153
  0
LINE
  5
218
100
AcDbEntity
  8
0
100
AcDbLine
 62
7
  6
BYLAYER
 10
21.3090431743
 20
8.5084769567
 11
22.7232626246
 21
7.6919954476
  0
LINE
  5
219
100
AcDbEntity
  8
0
100
AcDbLine
 62
7
  6
BYLAYER
 10
22.5161503039
 20
8.1497815954
 11
21.1019308536
 21
8.9662631045
  0
LINE
  5
21A
100
AcDbEntity
  8
0
100
AcDbLine
 62
7
  6
BYLAYER
 10
23.0402422012
 20
7.6636836153
 11
29.9472305733
 21
9.5143575956
  0
LINE
  5
21B
100
AcDbEntity
  8
0
100
AcDbLine
 62
7
  6
BYLAYER
 10
40.699273682
 20
91.5472402115
 11
28.4521283182
 21
84.4763897462
  0
LINE
  5
21C
100
AcDbEntity
  8
0
100
AcDbLine
 62
7
  6
BYLAYER
 10
42.1134931323
 20
90.7307587024
 11
29.8663477685
 21
83.6599082372
  0
LINE
  5
21D
100
AcDbEntity
  8
0
100
AcDbLine
 62
7
  6
BYLAYER
 10
21.6260227509
 20
78.4521341685
 11
28.2691163783
 21
84.342906739
  0
LINE
  5
21E
100
AcDbEntity
  8
0
100
AcDbLine
 62
7
  6
BYLAYER
 10
29.6833358286
 20
83.5264252299
 11
23.0402422012
 21
77.6356526595
  0
LINE
  5
21F
100
AcDbEntity
  8
0
100
AcDbLine
 62
7
  6
BYLAYER
 10
21.1019308536
 20
77.3608706048
 11
21.1019308536
 21
8.9662631045
  0
LINE
  5
220
100
AcDbEntity
  8
0
100
AcDbLine
 62
7
  6
BYLAYER
 10
22.5161503039
 20
76.5443890958
 11
22.5161503039
 21
8.1497815954
  0
LINE
  5
221
100
AcDbEntity
  8
0
100
AcDbLine
 62
7
  6
BYLAYER
 10
45.8505769319
 20
70.0671096023
 11
46.6283911529
 21
70.5161781715
  0
LINE
  5
222
100
AcDbEntity
  8
0
100
AcDbLine
 62
7
  6
BYLAYER
 10
47.1459893545
 20
69.7535587065
 11
47.1940742226
 21
69.7813203524
  0
LINE
  5
223
100
AcDbEntity
  8
0
100
AcDbLine
 62
7
  6
BYLAYER
 10
45.8505769319
 20
41.7344757279
 11
41.3201235893
 21
40.520575882
  0
LINE
  5
224
100
AcDbEntity
  8
0
100
AcDbLine
 62
7
  6
BYLAYER
 10
41.2770555455
 20
41.7044467791
 11
44.4363574816
 21
42.5509572369
  0
LINE
  5
225
100
AcDbEntity
  8
0
100
AcDbLine
 62
7
  6
BYLAYER
 10
41.5346641383
 20
41.8844642261
 11
45.4055190434
 21
42.9216297849
  0
LINE
  5
226
100
AcDbEntity
  8
0
100
AcDbLine
 62
7
  6
BYLAYER
 10
41.3201235893
 20
40.520575882
 11
41.0666090155
 21
40.5433452253
  0
LINE
  5
227
100
AcDbEntity
  8
0
100
AcDbLine
 62
7
  6
BYLAYER
 10
41.6079539086
 20
36.0190011361
 11
40.9354551292
 21
36.4072597039
  0
LINE
  5
228
100
AcDbEntity
  8
0
100
AcDbLine
 62
7
  6
BYLAYER
 10
41.3201235893
 20
40.520575882
 11
40.9364019419
 21
40.7421126666
  0
LINE
  5
229
100
AcDbEntity
  8
0
100
AcDbLine
 62
7
  6
BYLAYER
 10
45.7091443886
 20
40.0197870454
 11
47.1233638389
 21
39.2033055363
  0
LINE
  5
22A
100
AcDbEntity
  8
0
100
AcDbLine
 62
7
  6
BYLAYER
 10
46.2091359051
 20
40.0693149299
 11
47.6233553554
 21
39.2528334209
  0
LINE
  5
22B
100
AcDbEntity
  8
0
100
AcDbLine
 62
7
  6
BYLAYER
 10
49.8860083738
 20
43.9128724915
 11
49.7617239672
 21
43.9556159097
  0
LINE
  5
22C
100
AcDbEntity
  8
0
100
AcDbLine
 62
7
  6
BYLAYER
 10
48.3475045169
 20
44.7720974188
 11
48.4717889235
 21
44.7293540005
  0
LINE
  5
22D
100
AcDbEntity
  8
0
100
AcDbLine
 62
7
  6
BYLAYER
 10
44.4363574816
 20
42.5509572369
 11
45.8505769319
 21
41.7344757279
  0
LINE
  5
22E
100
AcDbEntity
  8
0
100
AcDbLine
 62
7
  6
BYLAYER
 10
45.3675719266
 20
42.9114621491
 11
46.6283911529
 21
42.1835442971
  0
LINE
  5
22F
100
AcDbEntity
  8
0
100
AcDbLine
 62
7
  6
BYLAYER
 10
45.8505769319
 20
43.9784667594
 11
46.8746994257
 21
43.3872027382
  0
LINE
  5
230
100
AcDbEntity
  8
0
100
AcDbLine
 62
7
  6
BYLAYER
 10
45.8505769319
 20
44.3472437374
 11
47.1940742226
 21
43.5715927625
  0
LINE
  5
231
100
AcDbEntity
  8
0
100
AcDbLine
 62
7
  6
BYLAYER
 10
48.3475045169
 20
44.7720974188
 11
49.7617239672
 21
43.9556159097
  0
LINE
  5
232
100
AcDbEntity
  8
0
100
AcDbLine
 62
7
  6
BYLAYER
 10
48.4718681842
 20
44.729491741
 11
49.774365238
 21
43.9775117284
  0
LINE
  5
233
100
AcDbEntity
  8
0
100
AcDbLine
 62
7
  6
BYLAYER
 10
40.9284488796
 20
41.1303196953
 11
40.9201252546
 21
41.0896438326
  0
LINE
  5
234
100
AcDbEntity
  8
0
100
AcDbLine
 62
7
  6
BYLAYER
 10
45.8505769319
 20
43.5729229288
 11
45.8505769319
 21
70.0671096023
  0
LINE
  5
235
100
AcDbEntity
  8
0
100
AcDbLine
 62
7
  6
BYLAYER
 10
47.8304676761
 20
21.4443709091
 11
47.8304676761
 21
38.7950472731
  0
LINE
  5
236
100
AcDbEntity
  8
0
100
AcDbLine
 62
7
  6
BYLAYER
 10
44.7950891566
 20
42.7580698297
 11
44.4363574816
 21
42.5509572369
  0
LINE
  5
237
100
AcDbEntity
  8
0
100
AcDbLine
 62
7
  6
BYLAYER
 10
47.1940742226
 20
43.5715927625
 11
46.8746994257
 21
43.3872027382
  0
LINE
  5
238
100
AcDbEntity
  8
0
100
AcDbLine
 62
7
  6
BYLAYER
 10
46.6283911529
 20
42.1835442971
 11
45.8505769319
 21
41.7344757279
  0
LINE
  5
239
100
AcDbEntity
  8
0
100
AcDbLine
 62
7
  6
BYLAYER
 10
50.0931999552
 20
43.367438234
 11
50.0931999552
 21
43.4552240842
  0
LINE
  5
23A
100
AcDbEntity
  8
0
100
AcDbLine
 62
7
  6
BYLAYER
 10
50.0931999552
 20
73.7158996054
 11
50.0931999552
 21
73.9862788763
  0
LINE
  5
23B
100
AcDbEntity
  8
0
100
AcDbLine
 62
7
  6
BYLAYER
 10
46.8746994257
 20
43.3872027382
 11
46.6283911529
 21
42.1835442971
  0
LINE
  5
23C
100
AcDbEntity
  8
0
100
AcDbLine
 62
7
  6
BYLAYER
 10
41.6079539086
 20
37.6520059704
 11
49.386096118
 21
42.142691663
  0
LINE
  5
23D
100
AcDbEntity
  8
0
100
AcDbLine
 62
7
  6
BYLAYER
 10
47.1233638389
 20
39.2033055363
 11
41.6079539086
 21
36.0190011361
  0
LINE
  5
23E
100
AcDbEntity
  8
0
100
AcDbLine
 62
7
  6
BYLAYER
 10
21.1019308536
 20
77.3608706048
 11
22.5161503039
 21
76.5443890958
  0
LINE
  5
23F
100
AcDbEntity
  8
0
100
AcDbLine
 62
7
  6
BYLAYER
 10
23.0402422012
 20
77.6356526595
 11
21.6260227509
 21
78.4521341685
  0
LINE
  5
240
100
AcDbEntity
  8
0
100
AcDbLine
 62
7
  6
BYLAYER
 10
46.6283911529
 20
70.5161781715
 11
46.8044844253
 21
69.8589799413
  0
LINE
  5
241
100
AcDbEntity
  8
0
100
AcDbLine
 62
7
  6
BYLAYER
 10
46.8044844253
 20
69.8589799413
 11
46.8960336717
 21
69.7288641394
  0
LINE
  5
242
100
AcDbEntity
  8
0
100
AcDbLine
 62
7
  6
BYLAYER
 10
46.0802874788
 20
70.1997322567
 11
46.8959935962
 21
69.7287947642
  0
LINE
  5
243
100
AcDbEntity
  8
0
100
AcDbLine
 62
7
  6
BYLAYER
 10
46.8044844253
 20
69.8589799413
 11
46.1472785566
 21
70.2384093426
  0
LINE
  5
244
100
AcDbEntity
  8
0
100
AcDbLine
 62
7
  6
BYLAYER
 10
49.9917273512
 20
74.5351106422
 11
43.4335038858
 21
90.4458735637
  0
LINE
  5
245
100
AcDbEntity
  8
0
100
AcDbLine
 62
7
  6
BYLAYER
 10
28.2691163783
 20
84.3429067389
 11
29.6833358286
 21
83.5264252299
  0
LINE
  5
246
100
AcDbEntity
  8
0
100
AcDbLine
 62
7
  6
BYLAYER
 10
29.8663477685
 20
83.6599082372
 11
28.4521283182
 21
84.4763897462
  0
LINE
  5
247
100
AcDbEntity
  8
0
100
AcDbLine
 62
7
  6
BYLAYER
 10
30.1302425132
 20
9.5921973125
 11
46.4162600017
 21
18.9948777671
  0
LINE
  5
248
100
AcDbEntity
  8
0
100
AcDbLine
 62
7
  6
BYLAYER
 10
43.4335038858
 20
90.4458735637
 11
43.1134287211
 21
90.8297323826
  0
LINE
  5
249
100
AcDbEntity
  8
0
100
AcDbLine
 62
7
  6
BYLAYER
 10
40.699273682
 20
91.5472402115
 11
42.1134931323
 21
90.7307587024
  0
LINE
  5
24A
100
AcDbEntity
  8
0
100
AcDbLine
 62
7
  6
BYLAYER
 10
41.6992567149
 20
91.6462959806
 11
43.1134761652
 21
90.8298144715
  0
SPLINE
  5
24B
100
AcDbEntity
  8
0
100
AcDbSpline
 62
7
  6
BYLAYER
 70
0
 71
3
 72
11
 73
7
 74
0
 42
0.0000001
 43
0.0000001
 44
0.0000000001
 40
0.0
 40
0.0
 40
0.0
 40
0.0
 40
0.2176746342
 40
0.4508340055
 40
0.7104853484
 40
1.0
 40
1.0
 40
1.0
 40
1.0
 10
46.8959993582
 20
69.7288047054
 30
0.0
 10
46.9124834831
 20
69.719287796
 30
0.0
 10
46.9503643219
 20
69.7055270059
 30
0.0
 10
47.0133265294
 20
69.7039193536
 30
0.0
 10
47.0804045845
 20
69.7201655521
 30
0.0
 10
47.124064994
 20
69.7409007467
 30
0.0
 10
47.1459893545
 20
69.7535587065
 30
0.0
  0
SPLINE
  5
24C
100
AcDbEntity
  8
0
100
AcDbSpline
 62
7
  6
BYLAYER
 70
0
 71
3
 72
11
 73
7
 74
0
 42
0.0000001
 43
0.0000001
 44
0.0000000001
 40
0.0
 40
0.0
 40
0.0
 40
0.0
 40
0.2895396729
 40
0.5491163863
 40
0.7822545095
 40
1.0
 40
1.0
 40
1.0
 40
1.0
 10
45.7091443886
 20
40.0197870454
 30
0.0
 10
45.7529970238
 20
40.045105225
 30
0.0
 10
45.8403068314
 20
40.0865855126
 30
0.0
 10
45.9744492395
 20
40.1190553405
 30
0.0
 10
46.1003791237
 20
40.1158929977
 30
0.0
 10
46.176128852
 20
40.088306539
 30
0.0
 10
46.2091079287
 20
40.0692664732
 30
0.0
  0
SPLINE
  5
24D
100
AcDbEntity
  8
0
100
AcDbSpline
 62
7
  6
BYLAYER
 70
0
 71
3
 72
12
 73
8
 74
0
 42
0.0000001
 43
0.0000001
 44
0.0000000001
 40
0.0
 40
0.0
 40
0.0
 40
0.0
 40
0.1009699176
 40
0.2053080961
 40
0.4334615048
 40
0.6984216396
 40
1.0
 40
1.0
 40
1.0
 40
1.0
 10
41.0665418188
 20
40.5432288311
 30
0.0
 10
41.0490307194
 20
40.5533377381
 30
0.0
 10
41.0156832126
 20
40.5780944999
 30
0.0
 10
40.9587246192
 20
40.6443966977
 30
0.0
 10
40.9108954465
 20
40.757117475
 30
0.0
 10
40.8946703377
 20
40.9169509806
 30
0.0
 10
40.9080179686
 20
41.0304779878
 30
0.0
 10
40.9201252546
 20
41.0896438326
 30
0.0
  0
SPLINE
  5
24E
100
AcDbEntity
  8
0
100
AcDbSpline
 62
7
  6
BYLAYER
 70
0
 71
3
 72
11
 73
7
 74
0
 42
0.0000001
 43
0.0000001
 44
0.0000000001
 40
0.0
 40
0.0
 40
0.0
 40
0.0
 40
0.2712933551
 40
0.5274248209
 40
0.7696424163
 40
1.0
 40
1.0
 40
1.0
 40
1.0
 10
45.8513052322
 20
44.4164392031
 30
0.0
 10
46.0659221964
 20
44.5002682849
 30
0.0
 10
46.4917052902
 20
44.6426309117
 30
0.0
 10
47.1328464006
 20
44.7778484255
 30
0.0
 10
47.7516141402
 20
44.8267071149
 30
0.0
 10
48.1539340466
 20
44.8004874143
 30
0.0
 10
48.3475045169
 20
44.7720974188
 30
0.0
  0
SPLINE
  5
24F
100
AcDbEntity
  8
0
100
AcDbSpline
 62
7
  6
BYLAYER
 70
0
 71
3
 72
17
 73
13
 74
0
 42
0.0000001
 43
0.0000001
 44
0.0000000001
 40
0.0
 40
0.0
 40
0.0
 40
0.0
 40
0.0428567916
 40
0.0874847188
 40
0.1353117925
 40
0.187277638
 40
0.3045377072
 40
0.4382000305
 40
0.5825388704
 40
0.729686241
 40
0.8713150959
 40
1.0
 40
1.0
 40
1.0
 40
1.0
 10
41.1079829739
 20
35.9695088518
 30
0.0
 10
41.0833308217
 20
35.9837408599
 30
0.0
 10
41.0365630943
 20
36.0194663314
 30
0.0
 10
40.9803753283
 20
36.0906155982
 30
0.0
 10
40.9382965892
 20
36.1775573483
 30
0.0
 10
40.9006127668
 20
36.3174127337
 30
0.0
 10
40.8958347207
 20
36.5212796482
 30
0.0
 10
40.9486100798
 20
36.7800310194
 30
0.0
 10
41.0549416363
 20
37.0431935255
 30
0.0
 10
41.2063005281
 20
37.2894381696
 30
0.0
 10
41.3902364069
 20
37.4986723892
 30
0.0
 10
41.5339326563
 20
37.6092700355
 30
0.0
 10
41.6079539086
 20
37.6520059704
 30
0.0
  0
SPLINE
  5
250
100
AcDbEntity
  8
0
100
AcDbSpline
 62
7
  6
BYLAYER
 70
0
 71
3
 72
11
 73
7
 74
0
 42
0.0000001
 43
0.0000001
 44
0.0000000001
 40
0.0
 40
0.0
 40
0.0
 40
0.0
 40
0.2176732262
 40
0.4508319884
 40
0.7104838574
 40
1.0
 40
1.0
 40
1.0
 40
1.0
 10
21.3090546306
 20
8.5084968782
 30
0.0
 10
21.2760852721
 20
8.5275313001
 30
0.0
 10
21.2143670816
 20
8.5793830956
 30
0.0
 10
21.1486173906
 20
8.6868330163
 30
0.0
 10
21.1096769728
 20
8.8192673307
 30
0.0
 10
21.1019308536
 20
8.9156287718
 30
0.0
 10
21.1019308536
 20
8.9662631045
 30
0.0
  0
SPLINE
  5
251
100
AcDbEntity
  8
0
100
AcDbSpline
 62
7
  6
BYLAYER
 70
0
 71
3
 72
11
 73
7
 74
0
 42
0.0000001
 43
0.0000001
 44
0.0000000001
 40
0.0
 40
0.0
 40
0.0
 40
0.0
 40
0.2897518059
 40
0.5490826835
 40
0.7822322758
 40
1.0
 40
1.0
 40
1.0
 40
1.0
 10
40.699273682
 20
91.5472402115
 30
0.0
 10
40.7870451407
 20
91.5979147843
 30
0.0
 10
40.961611494
 20
91.68098268
 30
0.0
 10
41.2299530349
 20
91.7457628701
 30
0.0
 10
41.4816999104
 20
91.7393627933
 30
0.0
 10
41.6332898232
 20
91.6843799688
 30
0.0
 10
41.6992554541
 20
91.6462938839
 30
0.0
  0
SPLINE
  5
252
100
AcDbEntity
  8
0
100
AcDbSpline
 62
7
  6
BYLAYER
 70
0
 71
3
 72
9
 73
5
 74
0
 42
0.0000001
 43
0.0000001
 44
0.0000000001
 40
0.0
 40
0.0
 40
0.0
 40
0.0
 40
0.26040366
 40
1.0
 40
1.0
 40
1.0
 40
1.0
 10
28.2691163783
 20
84.342906739
 30
0.0
 10
28.2838412264
 20
84.3559640186
 30
0.0
 10
28.3414950728
 20
84.4048235281
 30
0.0
 10
28.4037210716
 20
84.4484419762
 30
0.0
 10
28.4521283182
 20
84.4763897462
 30
0.0
  0
SPLINE
  5
253
100
AcDbEntity
  8
0
100
AcDbSpline
 62
7
  6
BYLAYER
 70
0
 71
3
 72
11
 73
7
 74
0
 42
0.0000001
 43
0.0000001
 44
0.0000000001
 40
0.0
 40
0.0
 40
0.0
 40
0.0
 40
0.2309837786
 40
0.486057365
 40
0.7485170102
 40
1.0
 40
1.0
 40
1.0
 40
1.0
 10
21.1019308536
 20
77.3608706048
 30
0.0
 10
21.1019308536
 20
77.4564050131
 30
0.0
 10
21.1317288485
 20
77.6576463564
 30
0.0
 10
21.2404378822
 20
77.9493667493
 30
0.0
 10
21.4052947001
 20
78.2233729779
 30
0.0
 10
21.5482000421
 20
78.3831247726
 30
0.0
 10
21.6260227509
 20
78.4521341685
 30
0.0
  0
SPLINE
  5
254
100
AcDbEntity
  8
0
100
AcDbSpline
 62
7
  6
BYLAYER
 70
0
 71
3
 72
15
 73
11
 74
0
 42
0.0000001
 43
0.0000001
 44
0.0000000001
 40
0.0
 40
0.0
 40
0.0
 40
0.0
 40
0.1141229605
 40
0.2373462928
 40
0.366971064
 40
0.4999983279
 40
0.633025824
 40
0.762651271
 40
0.8858756957
 40
1.0
 40
1.0
 40
1.0
 40
1.0
 10
46.4162600017
 20
18.9948777671
 30
0.0
 10
46.5130468844
 20
19.0507573663
 30
0.0
 10
46.7042611742
 20
19.1848499604
 30
0.0
 10
46.9674163908
 20
19.4309643492
 30
0.0
 10
47.2098738963
 20
19.7220036283
 30
0.0
 10
47.4225976775
 20
20.046856815
 30
0.0
 10
47.5975655364
 20
20.3935090315
 30
0.0
 10
47.7283834322
 20
20.7490053844
 30
0.0
 10
47.8099469315
 20
21.0999648361
 30
0.0
 10
47.8304676761
 20
21.3326098943
 30
0.0
 10
47.8304676761
 20
21.4443709091
 30
0.0
  0
SPLINE
  5
255
100
AcDbEntity
  8
0
100
AcDbSpline
 62
7
  6
BYLAYER
 70
0
 71
3
 72
11
 73
7
 74
0
 42
0.0000001
 43
0.0000001
 44
0.0000000001
 40
0.0
 40
0.0
 40
0.0
 40
0.0
 40
0.2895411595
 40
0.5491183966
 40
0.7822559144
 40
1.0
 40
1.0
 40
1.0
 40
1.0
 10
47.8304676761
 20
38.7950472731
 30
0.0
 10
47.8304676761
 20
38.845686125
 30
0.0
 10
47.8227356347
 20
38.9420429773
 30
0.0
 10
47.7837825265
 20
39.0744541405
 30
0.0
 10
47.718075962
 20
39.1819352775
 30
0.0
 10
47.6563075603
 20
39.2337442841
 30
0.0
 10
47.6233273797
 20
39.2527849638
 30
0.0
  0
SPLINE
  5
256
100
AcDbEntity
  8
0
100
AcDbSpline
 62
7
  6
BYLAYER
 70
0
 71
3
 72
13
 73
9
 74
0
 42
0.0000001
 43
0.0000001
 44
0.0000000001
 40
0.0
 40
0.0
 40
0.0
 40
0.0
 40
0.114175582
 40
0.23756922
 40
0.49999856
 40
0.7624286893
 40
0.8858231943
 40
1.0
 40
1.0
 40
1.0
 40
1.0
 10
49.386096118
 20
42.142691663
 30
0.0
 10
49.4344683409
 20
42.1706192122
 30
0.0
 10
49.5300658637
 20
42.2376996535
 30
0.0
 10
49.7091582631
 20
42.4051613909
 30
0.0
 10
49.8981562673
 20
42.6635485576
 30
0.0
 10
50.027425628
 20
42.9564202543
 30
0.0
 10
50.0829052889
 20
43.1952511824
 30
0.0
 10
50.0931999552
 20
43.3115822869
 30
0.0
 10
50.0931999552
 20
43.367438234
 30
0.0
  0
SPLINE
  5
257
100
AcDbEntity
  8
0
100
AcDbSpline
 62
7
  6
BYLAYER
 70
0
 71
3
 72
11
 73
7
 74
0
 42
0.0000001
 43
0.0000001
 44
0.0000000001
 40
0.0
 40
0.0
 40
0.0
 40
0.0
 40
0.2893902723
 40
0.5489903962
 40
0.7820867014
 40
1.0
 40
1.0
 40
1.0
 40
1.0
 10
50.0931999552
 20
43.4552240842
 30
0.0
 10
50.0931999552
 20
43.5058370048
 30
0.0
 10
50.0854291602
 20
43.6021654338
 30
0.0
 10
50.0465659424
 20
43.734568542
 30
0.0
 10
49.9808762675
 20
43.8420983345
 30
0.0
 10
49.9190694925
 20
43.893912187
 30
0.0
 10
49.8860490959
 20
43.9129430665
 30
0.0
  0
SPLINE
  5
258
100
AcDbEntity
  8
0
100
AcDbSpline
 62
7
  6
BYLAYER
 70
0
 71
3
 72
9
 73
5
 74
0
 42
0.0000001
 43
0.0000001
 44
0.0000000001
 40
0.0
 40
0.0
 40
0.0
 40
0.0
 40
0.2366979575
 40
1.0
 40
1.0
 40
1.0
 40
1.0
 10
29.9472305733
 20
9.5143575956
 30
0.0
 10
29.9624123214
 20
9.5184254273
 30
0.0
 10
30.0258866538
 20
9.5380818597
 30
0.0
 10
30.0863479791
 20
9.5668549427
 30
0.0
 10
30.1302425132
 20
9.5921973125
 30
0.0
  0
SPLINE
  5
259
100
AcDbEntity
  8
0
100
AcDbSpline
 62
7
  6
BYLAYER
 70
0
 71
3
 72
9
 73
5
 74
0
 42
0.0000001
 43
0.0000001
 44
0.0000000001
 40
0.0
 40
0.0
 40
0.0
 40
0.0
 40
0.2709456948
 40
1.0
 40
1.0
 40
1.0
 40
1.0
 10
50.0931999552
 20
73.9862788763
 30
0.0
 10
50.0931999552
 20
74.0368720055
 30
0.0
 10
50.0857456782
 20
74.2232750214
 30
0.0
 10
50.0459228616
 20
74.4102285734
 30
0.0
 10
49.9917273512
 20
74.5351106422
 30
0.0
  0
SPLINE
  5
25A
100
AcDbEntity
  8
0
100
AcDbSpline
 62
7
  6
BYLAYER
 70
0
 71
3
 72
11
 73
7
 74
0
 42
0.0000001
 43
0.0000001
 44
0.0000000001
 40
0.0
 40
0.0
 40
0.0
 40
0.0
 40
0.26018479
 40
0.5216213237
 40
0.7718067506
 40
1.0
 40
1.0
 40
1.0
 40
1.0
 10
49.3418543823
 20
71.8395997788
 30
0.0
 10
49.4566075704
 20
71.9761621225
 30
0.0
 10
49.6641122519
 20
72.2695706
 30
0.0
 10
49.9009589944
 20
72.7450305107
 30
0.0
 10
50.0530928879
 20
73.2311266562
 30
0.0
 10
50.0931999552
 20
73.5594572386
 30
0.0
 10
50.0931999552
 20
73.7158996054
 30
0.0
  0
SPLINE
  5
25B
100
AcDbEntity
  8
0
100
AcDbSpline
 62
7
  6
BYLAYER
 70
0
 71
3
 72
9
 73
5
 74
0
 42
0.0000001
 43
0.0000001
 44
0.0000000001
 40
0.0
 40
0.0
 40
0.0
 40
0.0
 40
0.4869145385
 40
1.0
 40
1.0
 40
1.0
 40
1.0
 10
47.1940742226
 20
69.7813203524
 30
0.0
 10
47.5807068218
 20
70.0718072055
 30
0.0
 10
48.3361782149
 20
70.7207439853
 30
0.0
 10
49.0140210857
 20
71.449460872
 30
0.0
 10
49.3418543823
 20
71.8395997788
 30
0.0
  0
SPLINE
  5
25C
100
AcDbEntity
  8
0
100
AcDbSpline
 62
7
  6
BYLAYER
 70
0
 71
3
 72
11
 73
7
 74
0
 42
0.0000001
 43
0.0000001
 44
0.0000000001
 40
0.0
 40
0.0
 40
0.0
 40
0.0
 40
0.2372423294
 40
0.4999983821
 40
0.7627553152
 40
1.0
 40
1.0
 40
1.0
 40
1.0
 10
45.4970250133
 20
42.9605496433
 30
0.0
 10
45.5472199504
 20
42.9895295307
 30
0.0
 10
45.6422026712
 20
43.0694772516
 30
0.0
 10
45.7530629104
 20
43.2209734464
 30
0.0
 10
45.8288316804
 20
43.3927302521
 30
0.0
 10
45.8505769319
 20
43.514962319
 30
0.0
 10
45.8505769319
 20
43.5729229288
 30
0.0
  0
SPLINE
  5
25D
100
AcDbEntity
  8
0
100
AcDbSpline
 62
7
  6
BYLAYER
 70
0
 71
3
 72
9
 73
5
 74
0
 42
0.0000001
 43
0.0000001
 44
0.0000000001
 40
0.0
 40
0.0
 40
0.0
 40
0.0
 40
0.2366979575
 40
1.0
 40
1.0
 40
1.0
 40
1.0
 10
45.4055190434
 20
42.9216297849
 30
0.0
 10
45.4131099175
 20
42.9236637007
 30
0.0
 10
45.4448470836
 20
42.9334919169
 30
0.0
 10
45.4750777463
 20
42.9478784584
 30
0.0
 10
45.4970250133
 20
42.9605496433
 30
0.0
  0
SPLINE
  5
25E
100
AcDbEntity
  8
0
100
AcDbSpline
 62
7
  6
BYLAYER
 70
0
 71
3
 72
9
 73
5
 74
0
 42
0.0000001
 43
0.0000001
 44
0.0000000001
 40
0.0
 40
0.0
 40
0.0
 40
0.0
 40
0.2638121518
 40
1.0
 40
1.0
 40
1.0
 40
1.0
 10
41.4065557804
 20
41.8299764243
 30
0.0
 10
41.4171741205
 20
41.8361068892
 30
0.0
 10
41.4580478023
 20
41.8582117323
 30
0.0
 10
41.5016147265
 20
41.8756088925
 30
0.0
 10
41.5346641383
 20
41.8844642261
 30
0.0
  0
SPLINE
  5
25F
100
AcDbEntity
  8
0
100
AcDbSpline
 62
7
  6
BYLAYER
 70
0
 71
3
 72
11
 73
7
 74
0
 42
0.0000001
 43
0.0000001
 44
0.0000000001
 40
0.0
 40
0.0
 40
0.0
 40
0.0
 40
0.2514850368
 40
0.5139453547
 40
0.7690181709
 40
1.0
 40
1.0
 40
1.0
 40
1.0
 10
40.9284488796
 20
41.1303196953
 30
0.0
 10
40.9430456121
 20
41.2016509584
 30
0.0
 10
40.9898726766
 20
41.3441964764
 30
0.0
 10
41.0982792595
 20
41.540038474
 30
0.0
 10
41.2370757744
 20
41.7080418067
 30
0.0
 10
41.3486416417
 20
41.7965398803
 30
0.0
 10
41.4065557804
 20
41.8299764243
 30
0.0
  0
SPLINE
  5
260
100
AcDbEntity
  8
0
100
AcDbSpline
 62
7
  6
BYLAYER
 70
0
 71
3
 72
11
 73
7
 74
0
 42
0.0000001
 43
0.0000001
 44
0.0000000001
 40
0.0
 40
0.0
 40
0.0
 40
0.0
 40
0.2297868383
 40
0.4717766994
 40
0.7281096918
 40
1.0
 40
1.0
 40
1.0
 40
1.0
 10
49.7617239672
 20
43.9556159097
 30
0.0
 10
49.5628171656
 20
43.9847885578
 30
0.0
 10
49.1489230302
 20
44.0108408444
 30
0.0
 10
48.5122546803
 20
43.9569065404
 30
0.0
 10
47.8524419708
 20
43.8119717666
 30
0.0
 10
47.4146738061
 20
43.6605756518
 30
0.0
 10
47.1940742226
 20
43.5715927625
 30
0.0
  0
SPLINE
  5
261
100
AcDbEntity
  8
0
100
AcDbSpline
 62
7
  6
BYLAYER
 70
0
 71
3
 72
11
 73
7
 74
0
 42
0.0000001
 43
0.0000001
 44
0.0000000001
 40
0.0
 40
0.0
 40
0.0
 40
0.0
 40
0.2177677615
 40
0.4509173887
 40
0.7102482148
 40
1.0
 40
1.0
 40
1.0
 40
1.0
 10
43.1134749028
 20
90.8298123722
 30
0.0
 10
43.0475092607
 20
90.8678984639
 30
0.0
 10
42.8959193203
 20
90.9228812935
 30
0.0
 10
42.6441724378
 20
90.9292813533
 30
0.0
 10
42.3758309064
 20
90.864501178
 30
0.0
 10
42.2012645849
 20
90.7814332718
 30
0.0
 10
42.1134931323
 20
90.7307587024
 30
0.0
  0
SPLINE
  5
262
100
AcDbEntity
  8
0
100
AcDbSpline
 62
7
  6
BYLAYER
 70
0
 71
3
 72
11
 73
7
 74
0
 42
0.0000001
 43
0.0000001
 44
0.0000000001
 40
0.0
 40
0.0
 40
0.0
 40
0.0
 40
0.2895161426
 40
0.5491680116
 40
0.7823267738
 40
1.0
 40
1.0
 40
1.0
 40
1.0
 10
22.5161503039
 20
8.1497815954
 30
0.0
 10
22.5161503039
 20
8.0991472628
 30
0.0
 10
22.5238964231
 20
8.0027858216
 30
0.0
 10
22.5628368409
 20
7.8703515073
 30
0.0
 10
22.6285865318
 20
7.7629015866
 30
0.0
 10
22.6903047224
 20
7.7110497911
 30
0.0
 10
22.7232740809
 20
7.6920153692
 30
0.0
  0
SPLINE
  5
263
100
AcDbEntity
  8
0
100
AcDbSpline
 62
7
  6
BYLAYER
 70
0
 71
3
 72
11
 73
7
 74
0
 42
0.0000001
 43
0.0000001
 44
0.0000000001
 40
0.0
 40
0.0
 40
0.0
 40
0.0
 40
0.2514829898
 40
0.513942635
 40
0.7690162214
 40
1.0
 40
1.0
 40
1.0
 40
1.0
 10
23.0402422012
 20
77.6356526595
 30
0.0
 10
22.9624194924
 20
77.5666432636
 30
0.0
 10
22.8195141504
 20
77.4068914688
 30
0.0
 10
22.6546573325
 20
77.1328852403
 30
0.0
 10
22.5459482988
 20
76.8411648473
 30
0.0
 10
22.5161503039
 20
76.6399235041
 30
0.0
 10
22.5161503039
 20
76.5443890958
 30
0.0
  0
SPLINE
  5
264
100
AcDbEntity
  8
0
100
AcDbSpline
 62
7
  6
BYLAYER
 70
0
 71
3
 72
9
 73
5
 74
0
 42
0.0000001
 43
0.0000001
 44
0.0000000001
 40
0.0
 40
0.0
 40
0.0
 40
0.0
 40
0.2394577107
 40
1.0
 40
1.0
 40
1.0
 40
1.0
 10
29.8663477685
 20
83.6599082372
 30
0.0
 10
29.8506742134
 20
83.6508591599
 30
0.0
 10
29.7863128912
 20
83.6111853224
 30
0.0
 10
29.7263439199
 20
83.5645627151
 30
0.0
 10
29.6833358286
 20
83.5264252299
 30
0.0
  0
SPLINE
  5
265
100
AcDbEntity
  8
0
100
AcDbSpline
 62
7
  6
BYLAYER
 70
0
 71
3
 72
11
 73
7
 74
0
 42
0.0000001
 43
0.0000001
 44
0.0000000001
 40
0.0
 40
0.0
 40
0.0
 40
0.0
 40
0.2895448512
 40
0.5491358493
 40
0.7822770651
 40
1.0
 40
1.0
 40
1.0
 40
1.0
 10
41.6079539086
 20
36.0190011361
 30
0.0
 10
41.5641002318
 20
35.9936823551
 30
0.0
 10
41.4767872151
 20
35.9522006169
 30
0.0
 10
41.3426386577
 20
35.9197285196
 30
0.0
 10
41.216711685
 20
35.9229025492
 30
0.0
 10
41.1409591812
 20
35.9504712585
 30
0.0
 10
41.1079829739
 20
35.9695088518
 30
0.0
  0
SPLINE
  5
266
100
AcDbEntity
  8
0
100
AcDbSpline
 62
7
  6
BYLAYER
 70
0
 71
3
 72
11
 73
7
 74
0
 42
0.0000001
 43
0.0000001
 44
0.0000000001
 40
0.0
 40
0.0
 40
0.0
 40
0.0
 40
0.2177456295
 40
0.4508837762
 40
0.7104602913
 40
1.0
 40
1.0
 40
1.0
 40
1.0
 10
47.6233273797
 20
39.2527849638
 30
0.0
 10
47.5903482712
 20
39.2718250244
 30
0.0
 10
47.5145985256
 20
39.2994115223
 30
0.0
 10
47.3886686423
 20
39.3025738024
 30
0.0
 10
47.2545262431
 20
39.270104051
 30
0.0
 10
47.1672164802
 20
39.2286237195
 30
0.0
 10
47.1233638389
 20
39.2033055363
 30
0.0
  0
ENDSEC
  0
SECTION
  2
OBJECTS
  0
DICTIONARY
  5
C
100
AcDbDictionary
280
0
281
1
  3
ACAD_GROUP
350
D
  3
ACAD_MLINESTYLE
350
17
  3
ACAD_LAYOUT
350
1A
  3
ACAD_PLOTSETTINGS
350
19
  3
ACAD_PLOTSTYLENAME
350
E
  0
DICTIONARY
  5
D
102
{ACAD_REACTORS
330
C
102
}
100
AcDbDictionary
280
0
281
1
  0
ACDBDICTIONARYWDFLT
  5
E
102
{ACAD_REACTORS
330
C
102
}
100
AcDbDictionary
281
1
  3
Normal
350
F
100
AcDbDictionaryWithDefault
340
F
  0
DICTIONARY
  5
17
102
{ACAD_REACTORS
330
C
102
}
100
AcDbDictionary
280
0
281
1
  3
Standard
350
18
  0
DICTIONARY
  5
19
102
{ACAD_REACTORS
330
C
102
}
100
AcDbDictionary
281
1
  0
DICTIONARY
  5
1A
102
{ACAD_REACTORS
330
C
102
}
100
AcDbDictionary
281
1
  3
Model
350
267
  3
Layout1
350
268
  0
ACDBPLACEHOLDER
  5
F
102
{ACAD_REACTORS
330
E
102
}
  0
MLINESTYLE
  5
18
102
{ACAD_REACTORS
330
17
102
}
100
AcDbMlineStyle
  2
STANDARD
 70
0
  3

 62
256
 51
90.0
 52
90.0
 71
2
 49
0.5
 62
256
  6
BYLAYER
 49
-0.5
 62
256
  6
BYLAYER
  0
LAYOUT
  5
267
102
{ACAD_REACTORS
330
1A
102
}
100
AcDbPlotSettings
  1

  2
none_device
  4

  6

 40
0.0
 41
0.0
 42
0.0
 43
0.0
 44
210.0
 45
297.0
 46
0.0
 47
0.0
 48
0.0
 49
0.0
140
0.0
141
0.0
142
1.0
143
1.0
 70
1024
 72
1
 73
0
 74
0
  7

 75
0
147
1.0
148
0.0
149
0.0
100
AcDbLayout
  1
Model
 70
0
 71
0
 10
0.0
 20
0.0
 11
210.0
 21
297.0
 12
0.0
 22
0.0
 32
0.0
 14
0.0
 24
0.0
 34
0.0
 15
0.0
 25
0.0
 35
0.0
146
0.0
 13
0.0
 23
0.0
 33
0.0
 16
1.0
 26
0.0
 36
0.0
 17
0.0
 27
1.0
 37
0.0
 76
0
330
210
345
0
346
0
  0
LAYOUT
  5
268
102
{ACAD_REACTORS
330
1A
102
}
100
AcDbPlotSettings
  1

  2
none_device
  4

  6

 40
0.0
 41
0.0
 42
0.0
 43
0.0
 44
210.0
 45
297.0
 46
0.0
 47
0.0
 48
0.0
 49
0.0
140
0.0
141
0.0
142
1.0
143
1.0
 70
0
 72
1
 73
0
 74
0
  7

 75
0
147
1.0
148
0.0
149
0.0
100
AcDbLayout
  1
Layout1
 70
0
 71
1
 10
0.0
 20
0.0
 11
210.0
 21
297.0
 12
0.0
 22
0.0
 32
0.0
 14
0.0
 24
0.0
 34
0.0
 15
0.0
 25
0.0
 35
0.0
146
0.0
 13
0.0
 23
0.0
 33
0.0
 16
1.0
 26
0.0
 36
0.0
 17
0.0
 27
1.0
 37
0.0
 76
0
330
211
345
0
346
0
  0
ENDSEC
  0
EOF
