999
DXF file: C:\Users\sesa63760\Dev\_Creo\CAD\MCADID0004252_3D-CAD\drw0001_2.dxf
999
Pro/ENGINEER 2019471 by Parametric Technology Corporation
  0
SECTION
  2
HEADER
  9
$ACADVER
  1
AC1024
  9
$DWGCODEPAGE
  3
ANSI_1252
  9
$EXTMAX
 10
1674.9348675534
 20
2368.8364555398
 30
0.0
  9
$EXTMIN
 10
0.0
 20
0.0
 30
0.0
  9
$LIMMIN
 10
0.0
 20
0.0
  9
$LIMMAX
 10
1674.9348675534
 20
2368.8364555398
  9
$VIEWCTR
 10
837.4674337767
 20
1184.4182277699
  9
$VIEWSIZE
 40
2368.8364555398
  9
$CLAYER
  8
0
  9
$LTSCALE
 40
154.4130430278
  9
$CELTYPE
  6
BYLAYER
  9
$DIMSCALE
 40
1.0
  9
$DIMASZ
 40
19.9397008042
  9
$DIMEXO
 40
1.0
  9
$DIMDLI
 40
106.6853751828
  9
$DIMEXE
 40
1.0
  9
$DIMCEN
 40
25.2675888591
  9
$DIMLFAC
 40
1.0
  9
$DIMBLK
  1
_FILLED
  9
$DIMALT
 70
0
  9
$DIMALTF
 40
0.0393700787
  9
$DIMTXT
 40
27.9155811259
  9
$DIMTOL
 70
1
  9
$DIMLIM
 70
0
  9
$DIMTFAC
 40
1.0
  9
$DIMTP
 40
0.01
  9
$DIMTM
 40
0.01
  9
$DIMGAP
 40
0.625
  9
$DIMDSEP
 70
46
  9
$AUNITS
 70
0
  9
$PDMODE
 70
3
  9
$PDSIZE
 40
0.3125
  9
$HANDSEED
  5
492
  9
$TILEMODE
 70
1
  9
$MEASUREMENT
 70
1
  9
$INSUNITS
 70
4
  0
ENDSEC
  0
SECTION
  2
CLASSES
  0
CLASS
  1
ACDBDICTIONARYWDFLT
  2
AcDbDictionaryWithDefault
  3
AutoCAD 2000
 90
0
 91
1
280
0
281
0
  0
CLASS
  1
ACDBPLACEHOLDER
  2
AcDbPlaceHolder
  3
AutoCAD 2000
 90
0
 91
1
280
0
281
0
  0
CLASS
  1
LAYOUT
  2
AcDbLayout
  3
AutoCAD 2000
 90
0
 91
0
280
0
281
0
  0
ENDSEC
  0
SECTION
  2
TABLES
  0
TABLE
  2
VPORT
  5
8
100
AcDbSymbolTable
 70
2
  0
VPORT
  5
1F4
100
AcDbSymbolTableRecord
100
AcDbViewportTableRecord
  2
*ACTIVE
 70
0
 10
0.0
 20
0.0
 11
1.0
 21
1.0
 12
837.4674337767
 22
1184.4182277699
 13
0.0
 23
0.0
 14
1.0
 24
1.0
 15
0.0
 25
0.0
 16
0.0
 26
0.0
 36
1.0
 17
0.0
 27
0.0
 37
0.0
 40
2368.8364555398
 41
0.7070707071
 42
50.0
 43
0.0
 44
0.0
 50
0.0
 51
0.0
 71
0
 72
100
 73
1
 74
1
 75
0
 76
0
 77
0
 78
0
  0
ENDTAB
  0
TABLE
  2
LTYPE
  5
5
100
AcDbSymbolTable
 70
6
  0
LTYPE
  5
14
100
AcDbSymbolTableRecord
100
AcDbLinetypeTableRecord
  2
BYBLOCK
 70
0
  3

 72
65
 73
0
 40
0.0
  0
LTYPE
  5
15
100
AcDbSymbolTableRecord
100
AcDbLinetypeTableRecord
  2
BYLAYER
 70
0
  3

 72
65
 73
0
 40
0.0
  0
LTYPE
  5
16
100
AcDbSymbolTableRecord
100
AcDbLinetypeTableRecord
  2
CONTINUOUS
 70
64
  3
Solid line
 72
65
 73
0
 40
0.0
  0
LTYPE
  5
1F5
100
AcDbSymbolTableRecord
100
AcDbLinetypeTableRecord
  2
CENTER
 70
64
  3
____ _ ____ _ ____ _ ____ _ ____ _ ____ _ ____
 72
65
 73
4
 40
0.6
 49
0.375
 74
0
 49
-0.075
 74
0
 49
0.075
 74
0
 49
-0.075
 74
0
  0
LTYPE
  5
1F6
100
AcDbSymbolTableRecord
100
AcDbLinetypeTableRecord
  2
HIDDEN
 70
64
  3
- - - - - - - - - - - - - - - - - - - -
 72
65
 73
2
 40
0.2
 49
0.1
 74
0
 49
-0.1
 74
0
  0
LTYPE
  5
1F7
100
AcDbSymbolTableRecord
100
AcDbLinetypeTableRecord
  2
PHANTOM
 70
64
  3
_____ _ _ _____ _ _ _____ _ _ _____
 72
65
 73
6
 40
0.8
 49
0.45
 74
0
 49
-0.05
 74
0
 49
0.1
 74
0
 49
-0.05
 74
0
 49
0.1
 74
0
 49
-0.05
 74
0
  0
LTYPE
  5
1F8
100
AcDbSymbolTableRecord
100
AcDbLinetypeTableRecord
  2
DOT
 70
64
  3
. . . . . . . . . . . . . . . . . . . .
 72
65
 73
2
 40
0.2
 49
0.1
 74
0
 49
-0.1
 74
0
  0
LTYPE
  5
1F9
100
AcDbSymbolTableRecord
100
AcDbLinetypeTableRecord
  2
DASHED
 70
64
  3
- - - - - - - - - - - - - - - - - - - -
 72
65
 73
2
 40
0.2
 49
0.1
 74
0
 49
-0.1
 74
0
  0
ENDTAB
  0
TABLE
  2
LAYER
  5
2
100
AcDbSymbolTable
 70
36
  0
LAYER
  5
10
100
AcDbSymbolTableRecord
100
AcDbLayerTableRecord
  2
0
 70
0
 62
7
  6
CONTINUOUS
370
-3
390
F
  0
LAYER
  5
1FA
100
AcDbSymbolTableRecord
100
AcDbLayerTableRecord
  2
DEFAULT_1
 70
0
 62
7
  6
CENTER
370
-3
390
F
  0
LAYER
  5
1FB
100
AcDbSymbolTableRecord
100
AcDbLayerTableRecord
  2
DEFAULT_2
 70
0
 62
7
  6
HIDDEN
370
-3
390
F
  0
LAYER
  5
1FC
100
AcDbSymbolTableRecord
100
AcDbLayerTableRecord
  2
DEFAULT_3
 70
0
 62
7
  6
PHANTOM
370
-3
390
F
  0
LAYER
  5
1FD
100
AcDbSymbolTableRecord
100
AcDbLayerTableRecord
  2
00_COMPONENTS
 70
0
 62
7
  6
CONTINUOUS
370
-3
390
F
  0
LAYER
  5
1FE
100
AcDbSymbolTableRecord
100
AcDbLayerTableRecord
  2
01_1_DEFAULT_DATUMS
 70
0
 62
7
  6
CONTINUOUS
370
-3
390
F
  0
LAYER
  5
1FF
100
AcDbSymbolTableRecord
100
AcDbLayerTableRecord
  2
01_PLANES
 70
0
 62
7
  6
CONTINUOUS
370
-3
390
F
  0
LAYER
  5
200
100
AcDbSymbolTableRecord
100
AcDbLayerTableRecord
  2
02_COORD_SYS
 70
0
 62
7
  6
CONTINUOUS
370
-3
390
F
  0
LAYER
  5
201
100
AcDbSymbolTableRecord
100
AcDbLayerTableRecord
  2
03_AXES
 70
0
 62
7
  6
CONTINUOUS
370
-3
390
F
  0
LAYER
  5
202
100
AcDbSymbolTableRecord
100
AcDbLayerTableRecord
  2
04_POINTS
 70
0
 62
7
  6
CONTINUOUS
370
-3
390
F
  0
LAYER
  5
203
100
AcDbSymbolTableRecord
100
AcDbLayerTableRecord
  2
05_CURVES
 70
0
 62
7
  6
CONTINUOUS
370
-3
390
F
  0
LAYER
  5
204
100
AcDbSymbolTableRecord
100
AcDbLayerTableRecord
  2
06_SURFS
 70
0
 62
7
  6
CONTINUOUS
370
-3
390
F
  0
LAYER
  5
205
100
AcDbSymbolTableRecord
100
AcDbLayerTableRecord
  2
07_COSMETICS
 70
0
 62
7
  6
CONTINUOUS
370
-3
390
F
  0
LAYER
  5
206
100
AcDbSymbolTableRecord
100
AcDbLayerTableRecord
  2
10_NOTES
 70
0
 62
7
  6
CONTINUOUS
370
-3
390
F
  0
LAYER
  5
207
100
AcDbSymbolTableRecord
100
AcDbLayerTableRecord
  2
11_NOTES_PUB
 70
0
 62
7
  6
CONTINUOUS
370
-3
390
F
  0
LAYER
  5
208
100
AcDbSymbolTableRecord
100
AcDbLayerTableRecord
  2
13_REF_GTOL
 70
0
 62
7
  6
CONTINUOUS
370
-3
390
F
  0
LAYER
  5
209
100
AcDbSymbolTableRecord
100
AcDbLayerTableRecord
  2
16_MISC
 70
0
 62
7
  6
CONTINUOUS
370
-3
390
F
  0
LAYER
  5
20A
100
AcDbSymbolTableRecord
100
AcDbLayerTableRecord
  2
17_NO_PRINT
 70
0
 62
7
  6
CONTINUOUS
370
-3
390
F
  0
LAYER
  5
20B
100
AcDbSymbolTableRecord
100
AcDbLayerTableRecord
  2
18_DATUM_CAMS_JOINTS
 70
0
 62
7
  6
CONTINUOUS
370
-3
390
F
  0
LAYER
  5
20C
100
AcDbSymbolTableRecord
100
AcDbLayerTableRecord
  2
19_DATUM_FUNCTIONAL
 70
0
 62
7
  6
CONTINUOUS
370
-3
390
F
  0
LAYER
  5
20D
100
AcDbSymbolTableRecord
100
AcDbLayerTableRecord
  2
20_DATUM_KINEMATIC_SCHEME
 70
0
 62
7
  6
CONTINUOUS
370
-3
390
F
  0
LAYER
  5
20E
100
AcDbSymbolTableRecord
100
AcDbLayerTableRecord
  2
3
 70
0
 62
7
  6
CONTINUOUS
370
-3
390
F
  0
LAYER
  5
20F
100
AcDbSymbolTableRecord
100
AcDbLayerTableRecord
  2
4
 70
0
 62
7
  6
CONTINUOUS
370
-3
390
F
  0
ENDTAB
  0
TABLE
  2
STYLE
  5
3
100
AcDbSymbolTable
 70
1
  0
STYLE
  5
11
100
AcDbSymbolTableRecord
100
AcDbTextStyleTableRecord
  2
STANDARD
 70
0
 40
0.0
 41
1.0
 50
0.0
 71
0
 42
0.2
  3
ARIAL.TTF
  4

  0
STYLE
  5
210
100
AcDbSymbolTableRecord
100
AcDbTextStyleTableRecord
  2
TEXTSTYLE_1
 70
0
 40
0.0
 41
0.8
 50
0.0
 71
0
 42
0.2
  3
gdt
  4

  0
ENDTAB
  0
TABLE
  2
VIEW
  5
6
100
AcDbSymbolTable
 70
0
  0
ENDTAB
  0
TABLE
  2
UCS
  5
7
100
AcDbSymbolTable
 70
0
  0
ENDTAB
  0
TABLE
  2
APPID
  5
9
100
AcDbSymbolTable
 70
1
  0
APPID
  5
211
100
AcDbSymbolTableRecord
100
AcDbRegAppTableRecord
  2
ACAD
 70
0
  0
ENDTAB
  0
TABLE
  2
BLOCK_RECORD
  5
1
100
AcDbSymbolTable
 70
0
  0
BLOCK_RECORD
  5
212
100
AcDbSymbolTableRecord
100
AcDbBlockTableRecord
  2
*Model_Space
  0
BLOCK_RECORD
  5
213
100
AcDbSymbolTableRecord
100
AcDbBlockTableRecord
  2
*Paper_Space
  0
BLOCK_RECORD
  5
214
100
AcDbSymbolTableRecord
100
AcDbBlockTableRecord
  2
_FILLED
  0
ENDTAB
  0
TABLE
  2
DIMSTYLE
  5
A
100
AcDbSymbolTable
 70
1
100
AcDbDimStyleTable
 71
0
  0
DIMSTYLE
105
215
100
AcDbSymbolTableRecord
100
AcDbDimStyleTableRecord
  2
STANDARD
 70
0
  3

  4

 40
1.0
 41
19.9397008042
 42
1.0
 43
0.38
 44
1.0
 45
0.0
 46
0.0
 47
0.01
 48
0.01
140
27.9155811259
141
0.09
142
0.0
143
25.4
144
1.0
145
0.0
146
1.0
147
0.625
 71
1
 72
0
 73
0
 74
0
 75
0
 76
0
 77
1
 78
8
 79
2
170
0
171
1
172
0
173
0
174
0
175
0
176
0
177
0
178
0
270
2
179
2
271
2
272
2
273
2
274
2
275
0
280
0
281
0
282
0
283
1
284
8
285
0
286
0
287
3
288
0
340
11
278
46
341
214
342
214
343
214
344
214
  0
ENDTAB
  0
ENDSEC
  0
SECTION
  2
BLOCKS
  0
BLOCK
  5
20
100
AcDbEntity
  8
0
100
AcDbBlockBegin
  2
*Model_Space
 70
0
 10
0.0
 20
0.0
 30
0.0
  3
*Model_Space
  1

  0
ENDBLK
  5
21
100
AcDbEntity
  8
0
100
AcDbBlockEnd
  0
BLOCK
  5
1C
100
AcDbEntity
  8
0
100
AcDbBlockBegin
  2
*Paper_Space
 70
0
 10
0.0
 20
0.0
 30
0.0
  3
*Paper_Space
  1

  0
ENDBLK
  5
1D
100
AcDbEntity
  8
0
100
AcDbBlockEnd
  0
BLOCK
  5
216
100
AcDbEntity
  8
0
100
AcDbBlockBegin
  2
_FILLED
 70
64
 10
0.0
 20
0.0
  3
_FILLED
  1

  0
SOLID
  5
217
100
AcDbEntity
  8
0
  6
BYBLOCK
 62
0
100
AcDbTrace
 10
0.0
 20
0.0
 11
-1.0
 21
0.25
 12
-1.0
 22
-0.25
 13
-1.0
 23
-0.25
  0
ENDBLK
  5
218
100
AcDbEntity
  8
0
  6
BYBLOCK
 62
0
100
AcDbBlockEnd
  0
ENDSEC
  0
SECTION
  2
ENTITIES
  0
LINE
  5
219
100
AcDbEntity
  8
0
100
AcDbLine
 62
7
  6
BYLAYER
 10
951.7838647791
 20
158.0190781235
 11
946.1844414919
 21
158.0190781235
  0
LINE
  5
21A
100
AcDbEntity
  8
0
100
AcDbLine
 62
7
  6
BYLAYER
 10
909.7843398221
 20
158.0190781235
 11
904.1839664548
 21
158.0190781235
  0
LINE
  5
21B
100
AcDbEntity
  8
0
100
AcDbLine
 62
7
  6
BYLAYER
 10
804.1347338906
 20
158.0190781235
 11
798.5353106034
 21
158.0190781235
  0
LINE
  5
21C
100
AcDbEntity
  8
0
100
AcDbLine
 62
7
  6
BYLAYER
 10
762.1352089336
 20
158.0190781235
 11
756.5348355663
 21
158.0190781235
  0
LINE
  5
21D
100
AcDbEntity
  8
0
100
AcDbLine
 62
7
  6
BYLAYER
 10
756.3352091803
 20
158.118967985
 11
757.1624150193
 21
158.118967985
  0
LINE
  5
21E
100
AcDbEntity
  8
0
100
AcDbLine
 62
7
  6
BYLAYER
 10
762.5080033412
 20
158.118967985
 11
798.1624150164
 21
158.118967985
  0
LINE
  5
21F
100
AcDbEntity
  8
0
100
AcDbLine
 62
7
  6
BYLAYER
 10
803.5080033383
 20
158.118967985
 11
804.3352091803
 21
158.118967985
  0
LINE
  5
220
100
AcDbEntity
  8
0
100
AcDbLine
 62
7
  6
BYLAYER
 10
903.9843400688
 20
158.118967985
 11
904.8115459078
 21
158.118967985
  0
LINE
  5
221
100
AcDbEntity
  8
0
100
AcDbLine
 62
7
  6
BYLAYER
 10
910.1571342297
 20
158.118967985
 11
945.8115459049
 21
158.118967985
  0
LINE
  5
222
100
AcDbEntity
  8
0
100
AcDbLine
 62
7
  6
BYLAYER
 10
951.1571342268
 20
158.118967985
 11
951.9843400688
 21
158.118967985
  0
LINE
  5
223
100
AcDbEntity
  8
0
100
AcDbLine
 62
7
  6
BYLAYER
 10
932.125788249
 20
158.618967985
 11
923.8438564146
 21
158.618967985
  0
LINE
  5
224
100
AcDbEntity
  8
0
100
AcDbLine
 62
7
  6
BYLAYER
 10
784.4766573605
 20
158.618967985
 11
776.194725526
 21
158.618967985
  0
LINE
  5
225
100
AcDbEntity
  8
0
100
AcDbLine
 62
7
  6
BYLAYER
 10
951.7843400659
 20
159.0190781235
 11
945.1843400659
 21
159.0190781235
  0
LINE
  5
226
100
AcDbEntity
  8
0
100
AcDbLine
 62
7
  6
BYLAYER
 10
910.7843400688
 20
159.0190781235
 11
904.1843400688
 21
159.0190781235
  0
LINE
  5
227
100
AcDbEntity
  8
0
100
AcDbLine
 62
7
  6
BYLAYER
 10
804.1352091774
 20
159.0190781235
 11
797.5352091774
 21
159.0190781235
  0
LINE
  5
228
100
AcDbEntity
  8
0
100
AcDbLine
 62
7
  6
BYLAYER
 10
763.1352091803
 20
159.0190781235
 11
756.5352091803
 21
159.0190781235
  0
LINE
  5
229
100
AcDbEntity
  8
0
100
AcDbLine
 62
7
  6
BYLAYER
 10
952.9843400688
 20
159.118967985
 11
951.7843400659
 21
159.118967985
  0
LINE
  5
22A
100
AcDbEntity
  8
0
100
AcDbLine
 62
7
  6
BYLAYER
 10
945.1843400659
 20
159.118967985
 11
931.9843400688
 21
159.1189679917
  0
LINE
  5
22B
100
AcDbEntity
  8
0
100
AcDbLine
 62
7
  6
BYLAYER
 10
923.9843400688
 20
159.1189679851
 11
910.7843400688
 21
159.118967985
  0
LINE
  5
22C
100
AcDbEntity
  8
0
100
AcDbLine
 62
7
  6
BYLAYER
 10
904.1843400688
 20
159.118967985
 11
902.9843400688
 21
159.118967985
  0
LINE
  5
22D
100
AcDbEntity
  8
0
100
AcDbLine
 62
7
  6
BYLAYER
 10
805.3352091803
 20
159.118967985
 11
804.1352091774
 21
159.118967985
  0
LINE
  5
22E
100
AcDbEntity
  8
0
100
AcDbLine
 62
7
  6
BYLAYER
 10
797.5352091774
 20
159.118967985
 11
784.3352091803
 21
159.1189679917
  0
LINE
  5
22F
100
AcDbEntity
  8
0
100
AcDbLine
 62
7
  6
BYLAYER
 10
776.3352091803
 20
159.1189679851
 11
763.1352091803
 21
159.118967985
  0
LINE
  5
230
100
AcDbEntity
  8
0
100
AcDbLine
 62
7
  6
BYLAYER
 10
756.5352091803
 20
159.118967985
 11
755.3352091803
 21
159.118967985
  0
LINE
  5
231
100
AcDbEntity
  8
0
100
AcDbLine
 62
7
  6
BYLAYER
 10
755.3352091803
 20
160.1189679161
 11
756.5352091803
 21
160.118967985
  0
LINE
  5
232
100
AcDbEntity
  8
0
100
AcDbLine
 62
7
  6
BYLAYER
 10
763.1352091803
 20
160.118967985
 11
764.3352091803
 21
160.1189679161
  0
LINE
  5
233
100
AcDbEntity
  8
0
100
AcDbLine
 62
7
  6
BYLAYER
 10
796.3352091803
 20
160.1189679161
 11
797.5352091774
 21
160.118967985
  0
LINE
  5
234
100
AcDbEntity
  8
0
100
AcDbLine
 62
7
  6
BYLAYER
 10
804.1352091774
 20
160.118967985
 11
805.3352091803
 21
160.1189679161
  0
LINE
  5
235
100
AcDbEntity
  8
0
100
AcDbLine
 62
7
  6
BYLAYER
 10
902.9843400688
 20
160.1189679161
 11
904.1843400688
 21
160.118967985
  0
LINE
  5
236
100
AcDbEntity
  8
0
100
AcDbLine
 62
7
  6
BYLAYER
 10
910.7843400688
 20
160.118967985
 11
911.9843400688
 21
160.1189679161
  0
LINE
  5
237
100
AcDbEntity
  8
0
100
AcDbLine
 62
7
  6
BYLAYER
 10
943.9843400688
 20
160.1189679161
 11
945.1843400659
 21
160.118967985
  0
LINE
  5
238
100
AcDbEntity
  8
0
100
AcDbLine
 62
7
  6
BYLAYER
 10
951.7843400659
 20
160.118967985
 11
952.9843400688
 21
160.1189679161
  0
LINE
  5
239
100
AcDbEntity
  8
0
100
AcDbLine
 62
7
  6
BYLAYER
 10
755.8352091803
 20
160.618967985
 11
762.8352091803
 21
160.618967985
  0
LINE
  5
23A
100
AcDbEntity
  8
0
100
AcDbLine
 62
7
  6
BYLAYER
 10
797.8352091803
 20
160.618967985
 11
804.8352091803
 21
160.618967985
  0
LINE
  5
23B
100
AcDbEntity
  8
0
100
AcDbLine
 62
7
  6
BYLAYER
 10
903.4843400688
 20
160.618967985
 11
910.4843400688
 21
160.618967985
  0
LINE
  5
23C
100
AcDbEntity
  8
0
100
AcDbLine
 62
7
  6
BYLAYER
 10
945.4843400688
 20
160.618967985
 11
952.4843400688
 21
160.618967985
  0
LINE
  5
23D
100
AcDbEntity
  8
0
100
AcDbLine
 62
7
  6
BYLAYER
 10
952.9843400688
 20
161.118967985
 11
945.4843400688
 21
161.118967985
  0
LINE
  5
23E
100
AcDbEntity
  8
0
100
AcDbLine
 62
7
  6
BYLAYER
 10
910.4843400688
 20
161.118967985
 11
902.9843400688
 21
161.118967985
  0
LINE
  5
23F
100
AcDbEntity
  8
0
100
AcDbLine
 62
7
  6
BYLAYER
 10
805.3352091803
 20
161.118967985
 11
797.8352091803
 21
161.118967985
  0
LINE
  5
240
100
AcDbEntity
  8
0
100
AcDbLine
 62
7
  6
BYLAYER
 10
762.8352091803
 20
161.118967985
 11
755.3352091803
 21
161.118967985
  0
LINE
  5
241
100
AcDbEntity
  8
0
100
AcDbLine
 62
7
  6
BYLAYER
 10
755.3352091803
 20
175.618967985
 11
805.3352091803
 21
175.618967985
  0
LINE
  5
242
100
AcDbEntity
  8
0
100
AcDbLine
 62
7
  6
BYLAYER
 10
902.9843400688
 20
175.618967985
 11
952.9843400688
 21
175.618967985
  0
LINE
  5
243
100
AcDbEntity
  8
3
100
AcDbLine
 62
7
  6
BYLAYER
 10
755.3347341372
 20
175.619090932
 11
805.3347341372
 21
175.619090932
  0
LINE
  5
244
100
AcDbEntity
  8
3
100
AcDbLine
 62
7
  6
BYLAYER
 10
902.9838650257
 20
175.619090932
 11
952.9838650257
 21
175.619090932
  0
LINE
  5
245
100
AcDbEntity
  8
4
100
AcDbLine
 62
7
  6
BYLAYER
 10
745.1459884538
 20
202.9672532468
 11
790.1459884538
 21
202.9672532468
  0
LINE
  5
246
100
AcDbEntity
  8
3
100
AcDbLine
 62
7
  6
BYLAYER
 10
892.7951193423
 20
202.9672532468
 11
937.7951193423
 21
202.9672532468
  0
LINE
  5
247
100
AcDbEntity
  8
3
100
AcDbLine
 62
7
  6
BYLAYER
 10
895.7951193423
 20
207.9672532468
 11
892.7951193423
 21
207.9672532468
  0
LINE
  5
248
100
AcDbEntity
  8
4
100
AcDbLine
 62
7
  6
BYLAYER
 10
748.1459884538
 20
207.9672532468
 11
745.1459884538
 21
207.9672532468
  0
LINE
  5
249
100
AcDbEntity
  8
3
100
AcDbLine
 62
7
  6
BYLAYER
 10
930.6843400673
 20
208.2907160663
 11
925.2843400673
 21
208.2907160663
  0
LINE
  5
24A
100
AcDbEntity
  8
4
100
AcDbLine
 62
7
  6
BYLAYER
 10
783.0352091788
 20
208.2907160663
 11
777.6352091788
 21
208.2907160663
  0
LINE
  5
24B
100
AcDbEntity
  8
4
100
AcDbLine
 62
7
  6
BYLAYER
 10
773.4459884538
 20
209.7172532468
 11
774.93089971
 21
209.7172532468
  0
LINE
  5
24C
100
AcDbEntity
  8
4
100
AcDbLine
 62
7
  6
BYLAYER
 10
785.739181108
 20
209.7172532468
 11
786.9459884538
 21
209.7172532468
  0
LINE
  5
24D
100
AcDbEntity
  8
3
100
AcDbLine
 62
7
  6
BYLAYER
 10
921.0951193423
 20
209.7172532468
 11
922.5800305985
 21
209.7172532468
  0
LINE
  5
24E
100
AcDbEntity
  8
3
100
AcDbLine
 62
7
  6
BYLAYER
 10
933.3883119965
 20
209.7172532468
 11
934.5951193423
 21
209.7172532468
  0
LINE
  5
24F
100
AcDbEntity
  8
3
100
AcDbLine
 62
7
  6
BYLAYER
 10
934.5951193423
 20
216.2172532468
 11
933.3886495361
 21
216.2172532468
  0
LINE
  5
250
100
AcDbEntity
  8
3
100
AcDbLine
 62
7
  6
BYLAYER
 10
922.5803681381
 20
216.2172532468
 11
921.0951193423
 21
216.2172532468
  0
LINE
  5
251
100
AcDbEntity
  8
4
100
AcDbLine
 62
7
  6
BYLAYER
 10
786.9459884538
 20
216.2172532468
 11
785.7395186476
 21
216.2172532468
  0
LINE
  5
252
100
AcDbEntity
  8
4
100
AcDbLine
 62
7
  6
BYLAYER
 10
774.9312372496
 20
216.2172532468
 11
773.4459884538
 21
216.2172532468
  0
LINE
  5
253
100
AcDbEntity
  8
4
100
AcDbLine
 62
7
  6
BYLAYER
 10
777.6352091788
 20
217.6437904272
 11
783.0352091788
 21
217.6437904272
  0
LINE
  5
254
100
AcDbEntity
  8
3
100
AcDbLine
 62
7
  6
BYLAYER
 10
925.2843400673
 20
217.6437904272
 11
930.6843400673
 21
217.6437904272
  0
LINE
  5
255
100
AcDbEntity
  8
3
100
AcDbLine
 62
7
  6
BYLAYER
 10
930.6843400673
 20
238.2907160663
 11
925.2843400673
 21
238.2907160663
  0
LINE
  5
256
100
AcDbEntity
  8
4
100
AcDbLine
 62
7
  6
BYLAYER
 10
783.0352091788
 20
238.2907160663
 11
777.6352091788
 21
238.2907160663
  0
LINE
  5
257
100
AcDbEntity
  8
4
100
AcDbLine
 62
7
  6
BYLAYER
 10
773.4459884538
 20
239.7172532468
 11
774.93089971
 21
239.7172532468
  0
LINE
  5
258
100
AcDbEntity
  8
4
100
AcDbLine
 62
7
  6
BYLAYER
 10
785.739181108
 20
239.7172532468
 11
786.9459884538
 21
239.7172532468
  0
LINE
  5
259
100
AcDbEntity
  8
3
100
AcDbLine
 62
7
  6
BYLAYER
 10
921.0951193423
 20
239.7172532468
 11
922.5800305985
 21
239.7172532468
  0
LINE
  5
25A
100
AcDbEntity
  8
3
100
AcDbLine
 62
7
  6
BYLAYER
 10
933.3883119965
 20
239.7172532468
 11
934.5951193423
 21
239.7172532468
  0
LINE
  5
25B
100
AcDbEntity
  8
3
100
AcDbLine
 62
7
  6
BYLAYER
 10
934.5951193423
 20
246.2172532468
 11
933.3886495361
 21
246.2172532468
  0
LINE
  5
25C
100
AcDbEntity
  8
3
100
AcDbLine
 62
7
  6
BYLAYER
 10
922.5803681381
 20
246.2172532468
 11
921.0951193423
 21
246.2172532468
  0
LINE
  5
25D
100
AcDbEntity
  8
4
100
AcDbLine
 62
7
  6
BYLAYER
 10
786.9459884538
 20
246.2172532468
 11
785.7395186476
 21
246.2172532468
  0
LINE
  5
25E
100
AcDbEntity
  8
4
100
AcDbLine
 62
7
  6
BYLAYER
 10
774.9312372496
 20
246.2172532468
 11
773.4459884538
 21
246.2172532468
  0
LINE
  5
25F
100
AcDbEntity
  8
4
100
AcDbLine
 62
7
  6
BYLAYER
 10
777.6352091788
 20
247.6437904272
 11
783.0352091788
 21
247.6437904272
  0
LINE
  5
260
100
AcDbEntity
  8
3
100
AcDbLine
 62
7
  6
BYLAYER
 10
925.2843400673
 20
247.6437904272
 11
930.6843400673
 21
247.6437904272
  0
LINE
  5
261
100
AcDbEntity
  8
4
100
AcDbLine
 62
7
  6
BYLAYER
 10
745.1459884538
 20
247.9672532468
 11
748.1459884538
 21
247.9672532468
  0
LINE
  5
262
100
AcDbEntity
  8
3
100
AcDbLine
 62
7
  6
BYLAYER
 10
892.7951193423
 20
247.9672532468
 11
895.7951193423
 21
247.9672532468
  0
LINE
  5
263
100
AcDbEntity
  8
4
100
AcDbLine
 62
7
  6
BYLAYER
 10
745.1459884538
 20
252.9672532468
 11
790.1459884538
 21
252.9672532468
  0
LINE
  5
264
100
AcDbEntity
  8
3
100
AcDbLine
 62
7
  6
BYLAYER
 10
892.7951193423
 20
252.9672532468
 11
937.7951193423
 21
252.9672532468
  0
LINE
  5
265
100
AcDbEntity
  8
0
100
AcDbLine
 62
7
  6
BYLAYER
 10
765.8344793906
 20
2202.1190781235
 11
765.3344813692
 21
2201.619080282
  0
LINE
  5
266
100
AcDbEntity
  8
0
100
AcDbLine
 62
7
  6
BYLAYER
 10
764.0844813692
 20
2198.1190781235
 11
763.5844813692
 21
2197.6190781235
  0
LINE
  5
267
100
AcDbEntity
  8
0
100
AcDbLine
 62
7
  6
BYLAYER
 10
782.0844813692
 20
2198.1190781235
 11
781.5844813692
 21
2197.6190781235
  0
LINE
  5
268
100
AcDbEntity
  8
0
100
AcDbLine
 62
7
  6
BYLAYER
 10
913.4836102791
 20
2202.1190781235
 11
912.9836122577
 21
2201.619080282
  0
LINE
  5
269
100
AcDbEntity
  8
0
100
AcDbLine
 62
7
  6
BYLAYER
 10
911.7336122577
 20
2198.1190781235
 11
911.2336122577
 21
2197.6190781235
  0
LINE
  5
26A
100
AcDbEntity
  8
0
100
AcDbLine
 62
7
  6
BYLAYER
 10
929.7336122577
 20
2198.1190781235
 11
929.2336122577
 21
2197.6190781235
  0
LINE
  5
26B
100
AcDbEntity
  8
4
100
AcDbLine
 62
7
  6
BYLAYER
 10
777.6352091788
 20
2143.978692888
 11
774.9352091788
 21
2139.3021557076
  0
LINE
  5
26C
100
AcDbEntity
  8
4
100
AcDbLine
 62
7
  6
BYLAYER
 10
774.9352091788
 20
212.9672532468
 11
777.6352091788
 21
208.2907160663
  0
LINE
  5
26D
100
AcDbEntity
  8
4
100
AcDbLine
 62
7
  6
BYLAYER
 10
783.0352091788
 20
2134.6256185272
 11
785.7352091788
 21
2139.3021557076
  0
LINE
  5
26E
100
AcDbEntity
  8
4
100
AcDbLine
 62
7
  6
BYLAYER
 10
777.6352091788
 20
2113.978692888
 11
774.9352091788
 21
2109.3021557076
  0
LINE
  5
26F
100
AcDbEntity
  8
4
100
AcDbLine
 62
7
  6
BYLAYER
 10
783.0352091788
 20
2104.6256185272
 11
785.7352091788
 21
2109.3021557076
  0
LINE
  5
270
100
AcDbEntity
  8
4
100
AcDbLine
 62
7
  6
BYLAYER
 10
785.7352091788
 20
212.9672532468
 11
783.0352091788
 21
217.6437904272
  0
LINE
  5
271
100
AcDbEntity
  8
4
100
AcDbLine
 62
7
  6
BYLAYER
 10
774.9352091788
 20
242.9672532468
 11
777.6352091788
 21
238.2907160663
  0
LINE
  5
272
100
AcDbEntity
  8
4
100
AcDbLine
 62
7
  6
BYLAYER
 10
785.7352091788
 20
242.9672532468
 11
783.0352091788
 21
247.6437904272
  0
LINE
  5
273
100
AcDbEntity
  8
3
100
AcDbLine
 62
7
  6
BYLAYER
 10
925.2843400673
 20
2143.978692888
 11
922.5843400673
 21
2139.3021557076
  0
LINE
  5
274
100
AcDbEntity
  8
3
100
AcDbLine
 62
7
  6
BYLAYER
 10
930.6843400673
 20
2134.6256185272
 11
933.3843400673
 21
2139.3021557076
  0
LINE
  5
275
100
AcDbEntity
  8
3
100
AcDbLine
 62
7
  6
BYLAYER
 10
922.5843400673
 20
212.9672532468
 11
925.2843400673
 21
208.2907160663
  0
LINE
  5
276
100
AcDbEntity
  8
3
100
AcDbLine
 62
7
  6
BYLAYER
 10
933.3843400673
 20
212.9672532468
 11
930.6843400673
 21
217.6437904272
  0
LINE
  5
277
100
AcDbEntity
  8
3
100
AcDbLine
 62
7
  6
BYLAYER
 10
922.5843400673
 20
242.9672532468
 11
925.2843400673
 21
238.2907160663
  0
LINE
  5
278
100
AcDbEntity
  8
3
100
AcDbLine
 62
7
  6
BYLAYER
 10
925.2843400673
 20
2113.978692888
 11
922.5843400673
 21
2109.3021557076
  0
LINE
  5
279
100
AcDbEntity
  8
3
100
AcDbLine
 62
7
  6
BYLAYER
 10
930.6843400673
 20
2104.6256185272
 11
933.3843400673
 21
2109.3021557076
  0
LINE
  5
27A
100
AcDbEntity
  8
3
100
AcDbLine
 62
7
  6
BYLAYER
 10
933.3843400673
 20
242.9672532468
 11
930.6843400673
 21
247.6437904272
  0
LINE
  5
27B
100
AcDbEntity
  8
4
100
AcDbLine
 62
7
  6
BYLAYER
 10
745.1459884538
 20
202.9672532468
 11
745.1459884538
 21
252.9672532468
  0
LINE
  5
27C
100
AcDbEntity
  8
4
100
AcDbLine
 62
7
  6
BYLAYER
 10
745.1459884538
 20
1150.2513940865
 11
745.1459884538
 21
1200.2513940865
  0
LINE
  5
27D
100
AcDbEntity
  8
4
100
AcDbLine
 62
7
  6
BYLAYER
 10
745.1459884538
 20
2099.3021557076
 11
745.1459884538
 21
2149.3021557076
  0
LINE
  5
27E
100
AcDbEntity
  8
4
100
AcDbLine
 62
7
  6
BYLAYER
 10
748.1459884538
 20
2149.3021557076
 11
748.1459884538
 21
2099.3021557076
  0
LINE
  5
27F
100
AcDbEntity
  8
4
100
AcDbLine
 62
7
  6
BYLAYER
 10
748.1459884538
 20
1200.2513940865
 11
748.1459884538
 21
1150.2513940865
  0
LINE
  5
280
100
AcDbEntity
  8
4
100
AcDbLine
 62
7
  6
BYLAYER
 10
748.1459884538
 20
252.9672532468
 11
748.1459884538
 21
202.9672532468
  0
LINE
  5
281
100
AcDbEntity
  8
4
100
AcDbLine
 62
7
  6
BYLAYER
 10
752.1459884538
 20
202.9672532468
 11
752.1459884538
 21
252.9672532468
  0
LINE
  5
282
100
AcDbEntity
  8
4
100
AcDbLine
 62
7
  6
BYLAYER
 10
752.1459884538
 20
1150.2513940865
 11
752.1459884538
 21
1200.2513940865
  0
LINE
  5
283
100
AcDbEntity
  8
4
100
AcDbLine
 62
7
  6
BYLAYER
 10
752.1459884538
 20
2099.3021557076
 11
752.1459884538
 21
2149.3021557076
  0
LINE
  5
284
100
AcDbEntity
  8
0
100
AcDbLine
 62
7
  6
BYLAYER
 10
755.3344830935
 20
2189.6191197232
 11
755.3344813681
 21
2188.8203351754
  0
LINE
  5
285
100
AcDbEntity
  8
0
100
AcDbLine
 62
7
  6
BYLAYER
 10
755.3344813692
 20
2190.6190781235
 11
755.3344813692
 21
2188.6310118293
  0
LINE
  5
286
100
AcDbEntity
  8
0
100
AcDbLine
 62
7
  6
BYLAYER
 10
755.3344813692
 20
2188.6190781235
 11
755.3344813692
 21
2174.1190781235
  0
LINE
  5
287
100
AcDbEntity
  8
3
100
AcDbLine
 62
7
  6
BYLAYER
 10
755.3347341372
 20
2174.119090932
 11
755.3347341372
 21
2149.3021557076
  0
LINE
  5
288
100
AcDbEntity
  8
3
100
AcDbLine
 62
7
  6
BYLAYER
 10
755.3347341372
 20
2099.3021557076
 11
755.3347341372
 21
1200.2513940865
  0
LINE
  5
289
100
AcDbEntity
  8
3
100
AcDbLine
 62
7
  6
BYLAYER
 10
755.3347341372
 20
1150.2513940865
 11
755.3347341372
 21
252.9672532468
  0
LINE
  5
28A
100
AcDbEntity
  8
3
100
AcDbLine
 62
7
  6
BYLAYER
 10
755.3347341372
 20
202.9672532468
 11
755.3347341372
 21
175.619090932
  0
LINE
  5
28B
100
AcDbEntity
  8
0
100
AcDbLine
 62
7
  6
BYLAYER
 10
755.3352091803
 20
159.118967985
 11
755.3352091803
 21
175.618967985
  0
LINE
  5
28C
100
AcDbEntity
  8
0
100
AcDbLine
 62
7
  6
BYLAYER
 10
756.3344813675
 20
2189.6190781235
 11
756.3344813692
 21
2191.6190781235
  0
LINE
  5
28D
100
AcDbEntity
  8
0
100
AcDbLine
 62
7
  6
BYLAYER
 10
756.3352091803
 20
158.118967985
 11
756.3352091786
 21
160.118967985
  0
LINE
  5
28E
100
AcDbEntity
  8
0
100
AcDbLine
 62
7
  6
BYLAYER
 10
756.5344813692
 20
2189.1190781235
 11
756.5344813692
 21
2190.7190781235
  0
LINE
  5
28F
100
AcDbEntity
  8
0
100
AcDbLine
 62
7
  6
BYLAYER
 10
756.5352091803
 20
159.0190781235
 11
756.5352091803
 21
160.6190781235
  0
LINE
  5
290
100
AcDbEntity
  8
0
100
AcDbLine
 62
7
  6
BYLAYER
 10
759.3344813692
 20
2174.1190781235
 11
759.3344813692
 21
2189.1190781235
  0
LINE
  5
291
100
AcDbEntity
  8
3
100
AcDbLine
 62
7
  6
BYLAYER
 10
759.3347341372
 20
175.619090932
 11
759.3347341372
 21
202.9672532468
  0
LINE
  5
292
100
AcDbEntity
  8
3
100
AcDbLine
 62
7
  6
BYLAYER
 10
759.3347341372
 20
252.9672532468
 11
759.3347341372
 21
1150.2513940865
  0
LINE
  5
293
100
AcDbEntity
  8
3
100
AcDbLine
 62
7
  6
BYLAYER
 10
759.3347341372
 20
1200.2513940865
 11
759.3347341372
 21
2099.3021557076
  0
LINE
  5
294
100
AcDbEntity
  8
3
100
AcDbLine
 62
7
  6
BYLAYER
 10
759.3347341372
 20
2149.3021557076
 11
759.3347341372
 21
2174.119090932
  0
LINE
  5
295
100
AcDbEntity
  8
0
100
AcDbLine
 62
7
  6
BYLAYER
 10
759.3352091803
 20
160.618967985
 11
759.3352091803
 21
175.618967985
  0
LINE
  5
296
100
AcDbEntity
  8
0
100
AcDbLine
 62
7
  6
BYLAYER
 10
762.8344812964
 20
2189.1190781235
 11
762.8344812964
 21
2188.6190781235
  0
LINE
  5
297
100
AcDbEntity
  8
0
100
AcDbLine
 62
7
  6
BYLAYER
 10
762.8352091077
 20
161.118967985
 11
762.8352091077
 21
160.618967985
  0
LINE
  5
298
100
AcDbEntity
  8
0
100
AcDbLine
 62
7
  6
BYLAYER
 10
763.1344813692
 20
2190.7190781235
 11
763.1344813692
 21
2189.2232605583
  0
LINE
  5
299
100
AcDbEntity
  8
0
100
AcDbLine
 62
7
  6
BYLAYER
 10
763.1352091803
 20
160.5149009908
 11
763.1352091803
 21
159.0190781235
  0
LINE
  5
29A
100
AcDbEntity
  8
0
100
AcDbLine
 62
7
  6
BYLAYER
 10
763.3344813692
 20
2190.6190781235
 11
763.3344813692
 21
2189.6190781235
  0
LINE
  5
29B
100
AcDbEntity
  8
0
100
AcDbLine
 62
7
  6
BYLAYER
 10
763.3352091803
 20
160.118967985
 11
763.3352091803
 21
159.118967985
  0
LINE
  5
29C
100
AcDbEntity
  8
0
100
AcDbLine
 62
7
  6
BYLAYER
 10
763.5844813692
 20
2191.6190781235
 11
763.5844813692
 21
2197.6190781235
  0
LINE
  5
29D
100
AcDbEntity
  8
0
100
AcDbLine
 62
7
  6
BYLAYER
 10
764.3344813692
 20
2189.6190781235
 11
764.3344813692
 21
2191.6190781235
  0
LINE
  5
29E
100
AcDbEntity
  8
0
100
AcDbLine
 62
7
  6
BYLAYER
 10
764.3352091803
 20
158.118967985
 11
764.3352091803
 21
160.118967985
  0
LINE
  5
29F
100
AcDbEntity
  8
0
100
AcDbLine
 62
7
  6
BYLAYER
 10
765.3344813692
 20
2198.1190781235
 11
765.3344813692
 21
2201.6190771861
  0
LINE
  5
2A0
100
AcDbEntity
  8
0
100
AcDbLine
 62
7
  6
BYLAYER
 10
767.2102613692
 20
2199.3190781235
 11
767.2102613692
 21
2198.1190781235
  0
LINE
  5
2A1
100
AcDbEntity
  8
0
100
AcDbLine
 62
7
  6
BYLAYER
 10
775.4602613692
 20
2199.3190781235
 11
775.4602613692
 21
2198.1190781235
  0
LINE
  5
2A2
100
AcDbEntity
  8
0
100
AcDbLine
 62
7
  6
BYLAYER
 10
775.8344813692
 20
2190.6190781235
 11
775.8344813692
 21
2174.1190781235
  0
LINE
  5
2A3
100
AcDbEntity
  8
3
100
AcDbLine
 62
7
  6
BYLAYER
 10
775.8347341372
 20
2174.119090932
 11
775.8347341372
 21
2149.3021557076
  0
LINE
  5
2A4
100
AcDbEntity
  8
3
100
AcDbLine
 62
7
  6
BYLAYER
 10
775.8347341372
 20
2099.3021557076
 11
775.8347341372
 21
1200.2513940865
  0
LINE
  5
2A5
100
AcDbEntity
  8
3
100
AcDbLine
 62
7
  6
BYLAYER
 10
775.8347341372
 20
1150.2513940865
 11
775.8347341372
 21
252.9672532468
  0
LINE
  5
2A6
100
AcDbEntity
  8
3
100
AcDbLine
 62
7
  6
BYLAYER
 10
775.8347341372
 20
202.9672532468
 11
775.8347341372
 21
175.619090932
  0
LINE
  5
2A7
100
AcDbEntity
  8
0
100
AcDbLine
 62
7
  6
BYLAYER
 10
775.8352091803
 20
175.618967985
 11
775.8352091803
 21
159.118967985
  0
LINE
  5
2A8
100
AcDbEntity
  8
0
100
AcDbLine
 62
7
  6
BYLAYER
 10
776.3344813692
 20
2174.1190781235
 11
776.3344813692
 21
2190.6190781235
  0
LINE
  5
2A9
100
AcDbEntity
  8
3
100
AcDbLine
 62
7
  6
BYLAYER
 10
776.3347341372
 20
175.619090932
 11
776.3347341372
 21
202.9672532468
  0
LINE
  5
2AA
100
AcDbEntity
  8
3
100
AcDbLine
 62
7
  6
BYLAYER
 10
776.3347341372
 20
252.9672532468
 11
776.3347341372
 21
1150.2513940865
  0
LINE
  5
2AB
100
AcDbEntity
  8
3
100
AcDbLine
 62
7
  6
BYLAYER
 10
776.3347341372
 20
1200.2513940865
 11
776.3347341372
 21
2099.3021557076
  0
LINE
  5
2AC
100
AcDbEntity
  8
3
100
AcDbLine
 62
7
  6
BYLAYER
 10
776.3347341372
 20
2149.3021557076
 11
776.3347341372
 21
2174.119090932
  0
LINE
  5
2AD
100
AcDbEntity
  8
0
100
AcDbLine
 62
7
  6
BYLAYER
 10
776.3352091803
 20
159.1189679851
 11
776.3352091803
 21
175.618967985
  0
LINE
  5
2AE
100
AcDbEntity
  8
0
100
AcDbLine
 62
7
  6
BYLAYER
 10
777.3344813692
 20
2201.6190771861
 11
777.3344813692
 21
2198.1190781235
  0
LINE
  5
2AF
100
AcDbEntity
  8
0
100
AcDbLine
 62
7
  6
BYLAYER
 10
779.0844813692
 20
2191.6190781235
 11
779.0844813692
 21
2197.6190781235
  0
LINE
  5
2B0
100
AcDbEntity
  8
0
100
AcDbLine
 62
7
  6
BYLAYER
 10
781.5844813692
 20
2191.6190781235
 11
781.5844813692
 21
2197.6190781235
  0
LINE
  5
2B1
100
AcDbEntity
  8
0
100
AcDbLine
 62
7
  6
BYLAYER
 10
784.3344813692
 20
2190.6190781235
 11
784.3344813692
 21
2174.1190781235
  0
LINE
  5
2B2
100
AcDbEntity
  8
3
100
AcDbLine
 62
7
  6
BYLAYER
 10
784.3347341372
 20
2174.119090932
 11
784.3347341372
 21
2149.3021557076
  0
LINE
  5
2B3
100
AcDbEntity
  8
3
100
AcDbLine
 62
7
  6
BYLAYER
 10
784.3347341372
 20
2099.3021557076
 11
784.3347341372
 21
1200.2513940865
  0
LINE
  5
2B4
100
AcDbEntity
  8
3
100
AcDbLine
 62
7
  6
BYLAYER
 10
784.3347341372
 20
1150.2513940865
 11
784.3347341372
 21
252.9672532468
  0
LINE
  5
2B5
100
AcDbEntity
  8
3
100
AcDbLine
 62
7
  6
BYLAYER
 10
784.3347341372
 20
202.9672532468
 11
784.3347341372
 21
175.619090932
  0
LINE
  5
2B6
100
AcDbEntity
  8
0
100
AcDbLine
 62
7
  6
BYLAYER
 10
784.3352091803
 20
175.618967985
 11
784.3352091803
 21
159.1189679851
  0
LINE
  5
2B7
100
AcDbEntity
  8
0
100
AcDbLine
 62
7
  6
BYLAYER
 10
784.8344813692
 20
2174.1190781235
 11
784.8344813692
 21
2190.6190781235
  0
LINE
  5
2B8
100
AcDbEntity
  8
3
100
AcDbLine
 62
7
  6
BYLAYER
 10
784.8347341372
 20
175.619090932
 11
784.8347341372
 21
202.9672532468
  0
LINE
  5
2B9
100
AcDbEntity
  8
3
100
AcDbLine
 62
7
  6
BYLAYER
 10
784.8347341372
 20
252.9672532468
 11
784.8347341372
 21
1150.2513940865
  0
LINE
  5
2BA
100
AcDbEntity
  8
3
100
AcDbLine
 62
7
  6
BYLAYER
 10
784.8347341372
 20
1200.2513940865
 11
784.8347341372
 21
2099.3021557076
  0
LINE
  5
2BB
100
AcDbEntity
  8
3
100
AcDbLine
 62
7
  6
BYLAYER
 10
784.8347341372
 20
2149.3021557076
 11
784.8347341372
 21
2174.119090932
  0
LINE
  5
2BC
100
AcDbEntity
  8
0
100
AcDbLine
 62
7
  6
BYLAYER
 10
784.8352091803
 20
159.118967985
 11
784.8352091803
 21
175.618967985
  0
LINE
  5
2BD
100
AcDbEntity
  8
0
100
AcDbLine
 62
7
  6
BYLAYER
 10
785.2112413692
 20
2199.3190781235
 11
785.2112413692
 21
2198.1190781235
  0
LINE
  5
2BE
100
AcDbEntity
  8
4
100
AcDbLine
 62
7
  6
BYLAYER
 10
777.6352091788
 20
1194.927931267
 11
774.9352091788
 21
1190.2513940865
  0
LINE
  5
2BF
100
AcDbEntity
  8
4
100
AcDbLine
 62
7
  6
BYLAYER
 10
783.0352091788
 20
1185.5748569061
 11
785.7352091788
 21
1190.2513940865
  0
LINE
  5
2C0
100
AcDbEntity
  8
4
100
AcDbLine
 62
7
  6
BYLAYER
 10
774.9352091788
 20
1160.2513940865
 11
777.6352091788
 21
1155.5748569061
  0
LINE
  5
2C1
100
AcDbEntity
  8
4
100
AcDbLine
 62
7
  6
BYLAYER
 10
785.7352091788
 20
1160.2513940865
 11
783.0352091788
 21
1164.927931267
  0
LINE
  5
2C2
100
AcDbEntity
  8
0
100
AcDbLine
 62
7
  6
BYLAYER
 10
793.4612413692
 20
2199.3190781235
 11
793.4612413692
 21
2198.1190781235
  0
LINE
  5
2C3
100
AcDbEntity
  8
4
100
AcDbLine
 62
7
  6
BYLAYER
 10
795.1459884538
 20
2144.3021557076
 11
795.1459884538
 21
2104.3021557076
  0
LINE
  5
2C4
100
AcDbEntity
  8
4
100
AcDbLine
 62
7
  6
BYLAYER
 10
795.1459884538
 20
1195.2513940865
 11
795.1459884538
 21
1155.2513940865
  0
LINE
  5
2C5
100
AcDbEntity
  8
4
100
AcDbLine
 62
7
  6
BYLAYER
 10
795.1459884538
 20
247.9672532468
 11
795.1459884538
 21
207.9672532468
  0
LINE
  5
2C6
100
AcDbEntity
  8
0
100
AcDbLine
 62
7
  6
BYLAYER
 10
796.3344813692
 20
2191.6190781235
 11
796.3344813692
 21
2189.6190781235
  0
LINE
  5
2C7
100
AcDbEntity
  8
0
100
AcDbLine
 62
7
  6
BYLAYER
 10
796.3352091803
 20
160.118967985
 11
796.3352091803
 21
158.118967985
  0
LINE
  5
2C8
100
AcDbEntity
  8
0
100
AcDbLine
 62
7
  6
BYLAYER
 10
797.0844813692
 20
2191.6190781235
 11
797.0844813692
 21
2197.6190781235
  0
LINE
  5
2C9
100
AcDbEntity
  8
0
100
AcDbLine
 62
7
  6
BYLAYER
 10
797.3344813692
 20
2189.6190781235
 11
797.3344813692
 21
2190.6190781235
  0
LINE
  5
2CA
100
AcDbEntity
  8
0
100
AcDbLine
 62
7
  6
BYLAYER
 10
797.3352091803
 20
159.118967985
 11
797.3352091803
 21
160.118967985
  0
LINE
  5
2CB
100
AcDbEntity
  8
0
100
AcDbLine
 62
7
  6
BYLAYER
 10
797.5344813692
 20
2189.2231451176
 11
797.5344813692
 21
2190.7190781235
  0
LINE
  5
2CC
100
AcDbEntity
  8
0
100
AcDbLine
 62
7
  6
BYLAYER
 10
797.5352091774
 20
159.0190781235
 11
797.5352091774
 21
160.5147855483
  0
LINE
  5
2CD
100
AcDbEntity
  8
0
100
AcDbLine
 62
7
  6
BYLAYER
 10
797.8344814417
 20
2188.6190781235
 11
797.8344814417
 21
2189.1190781235
  0
LINE
  5
2CE
100
AcDbEntity
  8
0
100
AcDbLine
 62
7
  6
BYLAYER
 10
797.8352092531
 20
160.618967985
 11
797.8352092531
 21
161.118967985
  0
LINE
  5
2CF
100
AcDbEntity
  8
0
100
AcDbLine
 62
7
  6
BYLAYER
 10
801.3344813692
 20
2189.1190781235
 11
801.3344813692
 21
2174.1190781235
  0
LINE
  5
2D0
100
AcDbEntity
  8
3
100
AcDbLine
 62
7
  6
BYLAYER
 10
801.3347341372
 20
2174.119090932
 11
801.3347341372
 21
175.619090932
  0
LINE
  5
2D1
100
AcDbEntity
  8
0
100
AcDbLine
 62
7
  6
BYLAYER
 10
801.3352091803
 20
175.618967985
 11
801.3352091803
 21
160.618967985
  0
LINE
  5
2D2
100
AcDbEntity
  8
0
100
AcDbLine
 62
7
  6
BYLAYER
 10
804.1344813692
 20
2190.7190781235
 11
804.1344813692
 21
2189.1190781235
  0
LINE
  5
2D3
100
AcDbEntity
  8
0
100
AcDbLine
 62
7
  6
BYLAYER
 10
804.1352091774
 20
160.6190781235
 11
804.1352091774
 21
159.0190781235
  0
LINE
  5
2D4
100
AcDbEntity
  8
0
100
AcDbLine
 62
7
  6
BYLAYER
 10
804.3344813692
 20
2191.6190781235
 11
804.3344813709
 21
2189.6190781235
  0
LINE
  5
2D5
100
AcDbEntity
  8
0
100
AcDbLine
 62
7
  6
BYLAYER
 10
804.335209182
 20
160.118967985
 11
804.3352091803
 21
158.118967985
  0
LINE
  5
2D6
100
AcDbEntity
  8
0
100
AcDbLine
 62
7
  6
BYLAYER
 10
805.3344813692
 20
2174.1190781235
 11
805.3344813692
 21
2190.6190781235
  0
LINE
  5
2D7
100
AcDbEntity
  8
3
100
AcDbLine
 62
7
  6
BYLAYER
 10
805.3347341372
 20
175.619090932
 11
805.3347341372
 21
2174.119090932
  0
LINE
  5
2D8
100
AcDbEntity
  8
0
100
AcDbLine
 62
7
  6
BYLAYER
 10
805.3352091803
 20
159.118967985
 11
805.3352091803
 21
175.618967985
  0
LINE
  5
2D9
100
AcDbEntity
  8
0
100
AcDbLine
 62
7
  6
BYLAYER
 10
805.3352077028
 20
160.1189389801
 11
805.3352091811
 21
161.0352393599
  0
LINE
  5
2DA
100
AcDbEntity
  8
4
100
AcDbLine
 62
7
  6
BYLAYER
 10
777.6352091788
 20
1164.927931267
 11
774.9352091788
 21
1160.2513940865
  0
LINE
  5
2DB
100
AcDbEntity
  8
4
100
AcDbLine
 62
7
  6
BYLAYER
 10
783.0352091788
 20
1155.5748569061
 11
785.7352091788
 21
1160.2513940865
  0
LINE
  5
2DC
100
AcDbEntity
  8
4
100
AcDbLine
 62
7
  6
BYLAYER
 10
745.1459884538
 20
1150.2513940865
 11
790.1459884538
 21
1150.2513940865
  0
LINE
  5
2DD
100
AcDbEntity
  8
3
100
AcDbLine
 62
7
  6
BYLAYER
 10
892.7951193423
 20
1150.2513940865
 11
937.7951193423
 21
1150.2513940865
  0
LINE
  5
2DE
100
AcDbEntity
  8
3
100
AcDbLine
 62
7
  6
BYLAYER
 10
895.7951193423
 20
1155.2513940865
 11
892.7951193423
 21
1155.2513940865
  0
LINE
  5
2DF
100
AcDbEntity
  8
4
100
AcDbLine
 62
7
  6
BYLAYER
 10
748.1459884538
 20
1155.2513940865
 11
745.1459884538
 21
1155.2513940865
  0
LINE
  5
2E0
100
AcDbEntity
  8
3
100
AcDbLine
 62
7
  6
BYLAYER
 10
930.6843400673
 20
1155.5748569061
 11
925.2843400673
 21
1155.5748569061
  0
LINE
  5
2E1
100
AcDbEntity
  8
4
100
AcDbLine
 62
7
  6
BYLAYER
 10
783.0352091788
 20
1155.5748569061
 11
777.6352091788
 21
1155.5748569061
  0
LINE
  5
2E2
100
AcDbEntity
  8
4
100
AcDbLine
 62
7
  6
BYLAYER
 10
773.4459884538
 20
1157.0013940865
 11
774.93089971
 21
1157.0013940865
  0
LINE
  5
2E3
100
AcDbEntity
  8
4
100
AcDbLine
 62
7
  6
BYLAYER
 10
785.739181108
 20
1157.0013940865
 11
786.9459884538
 21
1157.0013940865
  0
LINE
  5
2E4
100
AcDbEntity
  8
3
100
AcDbLine
 62
7
  6
BYLAYER
 10
921.0951193423
 20
1157.0013940865
 11
922.5800305985
 21
1157.0013940865
  0
LINE
  5
2E5
100
AcDbEntity
  8
3
100
AcDbLine
 62
7
  6
BYLAYER
 10
933.3883119965
 20
1157.0013940865
 11
934.5951193423
 21
1157.0013940865
  0
LINE
  5
2E6
100
AcDbEntity
  8
3
100
AcDbLine
 62
7
  6
BYLAYER
 10
934.5951193423
 20
1163.5013940865
 11
933.3886495361
 21
1163.5013940865
  0
LINE
  5
2E7
100
AcDbEntity
  8
3
100
AcDbLine
 62
7
  6
BYLAYER
 10
922.5803681381
 20
1163.5013940865
 11
921.0951193423
 21
1163.5013940865
  0
LINE
  5
2E8
100
AcDbEntity
  8
4
100
AcDbLine
 62
7
  6
BYLAYER
 10
786.9459884538
 20
1163.5013940865
 11
785.7395186476
 21
1163.5013940865
  0
LINE
  5
2E9
100
AcDbEntity
  8
4
100
AcDbLine
 62
7
  6
BYLAYER
 10
774.9312372496
 20
1163.5013940865
 11
773.4459884538
 21
1163.5013940865
  0
LINE
  5
2EA
100
AcDbEntity
  8
4
100
AcDbLine
 62
7
  6
BYLAYER
 10
777.6352091788
 20
1164.927931267
 11
783.0352091788
 21
1164.927931267
  0
LINE
  5
2EB
100
AcDbEntity
  8
3
100
AcDbLine
 62
7
  6
BYLAYER
 10
925.2843400673
 20
1164.927931267
 11
930.6843400673
 21
1164.927931267
  0
LINE
  5
2EC
100
AcDbEntity
  8
3
100
AcDbLine
 62
7
  6
BYLAYER
 10
930.6843400673
 20
1185.5748569061
 11
925.2843400673
 21
1185.5748569061
  0
LINE
  5
2ED
100
AcDbEntity
  8
4
100
AcDbLine
 62
7
  6
BYLAYER
 10
783.0352091788
 20
1185.5748569061
 11
777.6352091788
 21
1185.5748569061
  0
LINE
  5
2EE
100
AcDbEntity
  8
4
100
AcDbLine
 62
7
  6
BYLAYER
 10
773.4459884538
 20
1187.0013940865
 11
774.93089971
 21
1187.0013940865
  0
LINE
  5
2EF
100
AcDbEntity
  8
4
100
AcDbLine
 62
7
  6
BYLAYER
 10
785.739181108
 20
1187.0013940865
 11
786.9459884538
 21
1187.0013940865
  0
LINE
  5
2F0
100
AcDbEntity
  8
3
100
AcDbLine
 62
7
  6
BYLAYER
 10
921.0951193423
 20
1187.0013940865
 11
922.5800305985
 21
1187.0013940865
  0
LINE
  5
2F1
100
AcDbEntity
  8
3
100
AcDbLine
 62
7
  6
BYLAYER
 10
933.3883119965
 20
1187.0013940865
 11
934.5951193423
 21
1187.0013940865
  0
LINE
  5
2F2
100
AcDbEntity
  8
4
100
AcDbLine
 62
7
  6
BYLAYER
 10
774.9352091788
 20
1190.2513940865
 11
777.6352091788
 21
1185.5748569061
  0
LINE
  5
2F3
100
AcDbEntity
  8
4
100
AcDbLine
 62
7
  6
BYLAYER
 10
785.7352091788
 20
1190.2513940865
 11
783.0352091788
 21
1194.927931267
  0
LINE
  5
2F4
100
AcDbEntity
  8
3
100
AcDbLine
 62
7
  6
BYLAYER
 10
892.7951193423
 20
202.9672532468
 11
892.7951193423
 21
252.9672532468
  0
LINE
  5
2F5
100
AcDbEntity
  8
3
100
AcDbLine
 62
7
  6
BYLAYER
 10
892.7951193423
 20
1150.2513940865
 11
892.7951193423
 21
1200.2513940865
  0
LINE
  5
2F6
100
AcDbEntity
  8
3
100
AcDbLine
 62
7
  6
BYLAYER
 10
892.7951193423
 20
2099.3021557076
 11
892.7951193423
 21
2149.3021557076
  0
LINE
  5
2F7
100
AcDbEntity
  8
3
100
AcDbLine
 62
7
  6
BYLAYER
 10
895.7951193423
 20
2149.3021557076
 11
895.7951193423
 21
2099.3021557076
  0
LINE
  5
2F8
100
AcDbEntity
  8
3
100
AcDbLine
 62
7
  6
BYLAYER
 10
895.7951193423
 20
1200.2513940865
 11
895.7951193423
 21
1150.2513940865
  0
LINE
  5
2F9
100
AcDbEntity
  8
3
100
AcDbLine
 62
7
  6
BYLAYER
 10
895.7951193423
 20
252.9672532468
 11
895.7951193423
 21
202.9672532468
  0
LINE
  5
2FA
100
AcDbEntity
  8
3
100
AcDbLine
 62
7
  6
BYLAYER
 10
899.7951193423
 20
202.9672532468
 11
899.7951193423
 21
252.9672532468
  0
LINE
  5
2FB
100
AcDbEntity
  8
3
100
AcDbLine
 62
7
  6
BYLAYER
 10
899.7951193423
 20
1150.2513940865
 11
899.7951193423
 21
1200.2513940865
  0
LINE
  5
2FC
100
AcDbEntity
  8
3
100
AcDbLine
 62
7
  6
BYLAYER
 10
899.7951193423
 20
2099.3021557076
 11
899.7951193423
 21
2149.3021557076
  0
LINE
  5
2FD
100
AcDbEntity
  8
0
100
AcDbLine
 62
7
  6
BYLAYER
 10
902.9836139875
 20
2189.6191203896
 11
902.9836122567
 21
2188.8199043162
  0
LINE
  5
2FE
100
AcDbEntity
  8
0
100
AcDbLine
 62
7
  6
BYLAYER
 10
902.9836122577
 20
2190.6190781235
 11
902.9836122577
 21
2188.6309284549
  0
LINE
  5
2FF
100
AcDbEntity
  8
0
100
AcDbLine
 62
7
  6
BYLAYER
 10
902.9836122577
 20
2188.6190781235
 11
902.9836122577
 21
2174.1190781235
  0
LINE
  5
300
100
AcDbEntity
  8
3
100
AcDbLine
 62
7
  6
BYLAYER
 10
902.9838650257
 20
2174.119090932
 11
902.9838650257
 21
2149.3021557076
  0
LINE
  5
301
100
AcDbEntity
  8
3
100
AcDbLine
 62
7
  6
BYLAYER
 10
902.9838650257
 20
2099.3021557076
 11
902.9838650257
 21
1200.2513940865
  0
LINE
  5
302
100
AcDbEntity
  8
3
100
AcDbLine
 62
7
  6
BYLAYER
 10
902.9838650257
 20
1150.2513940865
 11
902.9838650257
 21
252.9672532468
  0
LINE
  5
303
100
AcDbEntity
  8
3
100
AcDbLine
 62
7
  6
BYLAYER
 10
902.9838650257
 20
202.9672532468
 11
902.9838650257
 21
175.619090932
  0
LINE
  5
304
100
AcDbEntity
  8
0
100
AcDbLine
 62
7
  6
BYLAYER
 10
902.9843400688
 20
159.118967985
 11
902.9843400688
 21
175.618967985
  0
LINE
  5
305
100
AcDbEntity
  8
0
100
AcDbLine
 62
7
  6
BYLAYER
 10
903.983612256
 20
2189.6190781235
 11
903.9836122577
 21
2191.6190781235
  0
LINE
  5
306
100
AcDbEntity
  8
0
100
AcDbLine
 62
7
  6
BYLAYER
 10
903.9843400688
 20
158.118967985
 11
903.9843400671
 21
160.118967985
  0
LINE
  5
307
100
AcDbEntity
  8
0
100
AcDbLine
 62
7
  6
BYLAYER
 10
904.1836122577
 20
2189.1190781235
 11
904.1836122577
 21
2190.7190781235
  0
LINE
  5
308
100
AcDbEntity
  8
0
100
AcDbLine
 62
7
  6
BYLAYER
 10
904.1843400688
 20
159.0190781235
 11
904.1843400688
 21
160.6190781235
  0
LINE
  5
309
100
AcDbEntity
  8
0
100
AcDbLine
 62
7
  6
BYLAYER
 10
906.9836122577
 20
2174.1190781235
 11
906.9836122577
 21
2189.1190781235
  0
LINE
  5
30A
100
AcDbEntity
  8
3
100
AcDbLine
 62
7
  6
BYLAYER
 10
906.9838650257
 20
175.619090932
 11
906.9838650257
 21
202.9672532468
  0
LINE
  5
30B
100
AcDbEntity
  8
3
100
AcDbLine
 62
7
  6
BYLAYER
 10
906.9838650257
 20
252.9672532468
 11
906.9838650257
 21
1150.2513940865
  0
LINE
  5
30C
100
AcDbEntity
  8
3
100
AcDbLine
 62
7
  6
BYLAYER
 10
906.9838650257
 20
1200.2513940865
 11
906.9838650257
 21
2099.3021557076
  0
LINE
  5
30D
100
AcDbEntity
  8
3
100
AcDbLine
 62
7
  6
BYLAYER
 10
906.9838650257
 20
2149.3021557076
 11
906.9838650257
 21
2174.119090932
  0
LINE
  5
30E
100
AcDbEntity
  8
0
100
AcDbLine
 62
7
  6
BYLAYER
 10
906.9843400688
 20
160.618967985
 11
906.9843400688
 21
175.618967985
  0
LINE
  5
30F
100
AcDbEntity
  8
0
100
AcDbLine
 62
7
  6
BYLAYER
 10
910.4836121849
 20
2189.1190781235
 11
910.4836121849
 21
2188.6190781235
  0
LINE
  5
310
100
AcDbEntity
  8
0
100
AcDbLine
 62
7
  6
BYLAYER
 10
910.4843399963
 20
161.118967985
 11
910.4843399963
 21
160.618967985
  0
LINE
  5
311
100
AcDbEntity
  8
0
100
AcDbLine
 62
7
  6
BYLAYER
 10
910.7836122577
 20
2190.7190781235
 11
910.7836122577
 21
2189.2232605584
  0
LINE
  5
312
100
AcDbEntity
  8
0
100
AcDbLine
 62
7
  6
BYLAYER
 10
910.7843400688
 20
160.5149009908
 11
910.7843400688
 21
159.0190781235
  0
LINE
  5
313
100
AcDbEntity
  8
0
100
AcDbLine
 62
7
  6
BYLAYER
 10
910.9836122577
 20
2190.6190781235
 11
910.9836122577
 21
2189.6190781235
  0
LINE
  5
314
100
AcDbEntity
  8
0
100
AcDbLine
 62
7
  6
BYLAYER
 10
910.9843400688
 20
160.118967985
 11
910.9843400688
 21
159.118967985
  0
LINE
  5
315
100
AcDbEntity
  8
0
100
AcDbLine
 62
7
  6
BYLAYER
 10
911.2336122577
 20
2191.6190781235
 11
911.2336122577
 21
2197.6190781235
  0
LINE
  5
316
100
AcDbEntity
  8
0
100
AcDbLine
 62
7
  6
BYLAYER
 10
911.9836122577
 20
2189.6190781235
 11
911.9836122577
 21
2191.6190781235
  0
LINE
  5
317
100
AcDbEntity
  8
0
100
AcDbLine
 62
7
  6
BYLAYER
 10
911.9843400688
 20
158.118967985
 11
911.9843400688
 21
160.118967985
  0
LINE
  5
318
100
AcDbEntity
  8
0
100
AcDbLine
 62
7
  6
BYLAYER
 10
912.9836122577
 20
2198.1190781235
 11
912.9836122577
 21
2201.6190771861
  0
LINE
  5
319
100
AcDbEntity
  8
0
100
AcDbLine
 62
7
  6
BYLAYER
 10
914.8593922577
 20
2199.3190781235
 11
914.8593922577
 21
2198.1190781235
  0
LINE
  5
31A
100
AcDbEntity
  8
0
100
AcDbLine
 62
7
  6
BYLAYER
 10
923.1093922577
 20
2199.3190781235
 11
923.1093922577
 21
2198.1190781235
  0
LINE
  5
31B
100
AcDbEntity
  8
0
100
AcDbLine
 62
7
  6
BYLAYER
 10
923.4836122577
 20
2190.6190781235
 11
923.4836122577
 21
2174.1190781235
  0
LINE
  5
31C
100
AcDbEntity
  8
3
100
AcDbLine
 62
7
  6
BYLAYER
 10
923.4838650257
 20
2174.119090932
 11
923.4838650257
 21
2149.3021557076
  0
LINE
  5
31D
100
AcDbEntity
  8
3
100
AcDbLine
 62
7
  6
BYLAYER
 10
923.4838650257
 20
2099.3021557076
 11
923.4838650257
 21
1200.2513940865
  0
LINE
  5
31E
100
AcDbEntity
  8
3
100
AcDbLine
 62
7
  6
BYLAYER
 10
923.4838650257
 20
1150.2513940865
 11
923.4838650257
 21
252.9672532468
  0
LINE
  5
31F
100
AcDbEntity
  8
3
100
AcDbLine
 62
7
  6
BYLAYER
 10
923.4838650257
 20
202.9672532468
 11
923.4838650257
 21
175.619090932
  0
LINE
  5
320
100
AcDbEntity
  8
0
100
AcDbLine
 62
7
  6
BYLAYER
 10
923.4843400688
 20
175.618967985
 11
923.4843400688
 21
159.118967985
  0
LINE
  5
321
100
AcDbEntity
  8
0
100
AcDbLine
 62
7
  6
BYLAYER
 10
923.9836122577
 20
2174.1190781235
 11
923.9836122577
 21
2190.6190781235
  0
LINE
  5
322
100
AcDbEntity
  8
3
100
AcDbLine
 62
7
  6
BYLAYER
 10
923.9838650257
 20
175.619090932
 11
923.9838650257
 21
202.9672532468
  0
LINE
  5
323
100
AcDbEntity
  8
3
100
AcDbLine
 62
7
  6
BYLAYER
 10
923.9838650257
 20
252.9672532468
 11
923.9838650257
 21
1150.2513940865
  0
LINE
  5
324
100
AcDbEntity
  8
3
100
AcDbLine
 62
7
  6
BYLAYER
 10
923.9838650257
 20
1200.2513940865
 11
923.9838650257
 21
2099.3021557076
  0
LINE
  5
325
100
AcDbEntity
  8
3
100
AcDbLine
 62
7
  6
BYLAYER
 10
923.9838650257
 20
2149.3021557076
 11
923.9838650257
 21
2174.119090932
  0
LINE
  5
326
100
AcDbEntity
  8
0
100
AcDbLine
 62
7
  6
BYLAYER
 10
923.9843400688
 20
159.1189679851
 11
923.9843400688
 21
175.618967985
  0
LINE
  5
327
100
AcDbEntity
  8
0
100
AcDbLine
 62
7
  6
BYLAYER
 10
924.9836122577
 20
2201.6190771861
 11
924.9836122577
 21
2198.1190781235
  0
LINE
  5
328
100
AcDbEntity
  8
0
100
AcDbLine
 62
7
  6
BYLAYER
 10
926.7336122577
 20
2191.6190781235
 11
926.7336122577
 21
2197.6190781235
  0
LINE
  5
329
100
AcDbEntity
  8
3
100
AcDbLine
 62
7
  6
BYLAYER
 10
925.2843400673
 20
1194.927931267
 11
922.5843400673
 21
1190.2513940865
  0
LINE
  5
32A
100
AcDbEntity
  8
3
100
AcDbLine
 62
7
  6
BYLAYER
 10
930.6843400673
 20
1185.5748569061
 11
933.3843400673
 21
1190.2513940865
  0
LINE
  5
32B
100
AcDbEntity
  8
3
100
AcDbLine
 62
7
  6
BYLAYER
 10
925.2843400673
 20
1164.927931267
 11
922.5843400673
 21
1160.2513940865
  0
LINE
  5
32C
100
AcDbEntity
  8
3
100
AcDbLine
 62
7
  6
BYLAYER
 10
934.5951193423
 20
1193.5013940865
 11
933.3886495361
 21
1193.5013940865
  0
LINE
  5
32D
100
AcDbEntity
  8
3
100
AcDbLine
 62
7
  6
BYLAYER
 10
922.5803681381
 20
1193.5013940865
 11
921.0951193423
 21
1193.5013940865
  0
LINE
  5
32E
100
AcDbEntity
  8
4
100
AcDbLine
 62
7
  6
BYLAYER
 10
786.9459884538
 20
1193.5013940865
 11
785.7395186476
 21
1193.5013940865
  0
LINE
  5
32F
100
AcDbEntity
  8
4
100
AcDbLine
 62
7
  6
BYLAYER
 10
774.9312372496
 20
1193.5013940865
 11
773.4459884538
 21
1193.5013940865
  0
LINE
  5
330
100
AcDbEntity
  8
4
100
AcDbLine
 62
7
  6
BYLAYER
 10
777.6352091788
 20
1194.927931267
 11
783.0352091788
 21
1194.927931267
  0
LINE
  5
331
100
AcDbEntity
  8
3
100
AcDbLine
 62
7
  6
BYLAYER
 10
925.2843400673
 20
1194.927931267
 11
930.6843400673
 21
1194.927931267
  0
LINE
  5
332
100
AcDbEntity
  8
4
100
AcDbLine
 62
7
  6
BYLAYER
 10
745.1459884538
 20
1195.2513940865
 11
748.1459884538
 21
1195.2513940865
  0
LINE
  5
333
100
AcDbEntity
  8
3
100
AcDbLine
 62
7
  6
BYLAYER
 10
892.7951193423
 20
1195.2513940865
 11
895.7951193423
 21
1195.2513940865
  0
LINE
  5
334
100
AcDbEntity
  8
4
100
AcDbLine
 62
7
  6
BYLAYER
 10
745.1459884538
 20
1200.2513940865
 11
790.1459884538
 21
1200.2513940865
  0
LINE
  5
335
100
AcDbEntity
  8
3
100
AcDbLine
 62
7
  6
BYLAYER
 10
892.7951193423
 20
1200.2513940865
 11
937.7951193423
 21
1200.2513940865
  0
LINE
  5
336
100
AcDbEntity
  8
3
100
AcDbLine
 62
7
  6
BYLAYER
 10
922.5843400673
 20
1160.2513940865
 11
925.2843400673
 21
1155.5748569061
  0
LINE
  5
337
100
AcDbEntity
  8
3
100
AcDbLine
 62
7
  6
BYLAYER
 10
933.3843400673
 20
1160.2513940865
 11
930.6843400673
 21
1164.927931267
  0
LINE
  5
338
100
AcDbEntity
  8
3
100
AcDbLine
 62
7
  6
BYLAYER
 10
922.5843400673
 20
1190.2513940865
 11
925.2843400673
 21
1185.5748569061
  0
LINE
  5
339
100
AcDbEntity
  8
0
100
AcDbLine
 62
7
  6
BYLAYER
 10
929.2336122577
 20
2191.6190781235
 11
929.2336122577
 21
2197.6190781235
  0
LINE
  5
33A
100
AcDbEntity
  8
0
100
AcDbLine
 62
7
  6
BYLAYER
 10
931.9836122577
 20
2190.6190781235
 11
931.9836122577
 21
2174.1190781235
  0
LINE
  5
33B
100
AcDbEntity
  8
3
100
AcDbLine
 62
7
  6
BYLAYER
 10
931.9838650257
 20
2174.119090932
 11
931.9838650257
 21
2149.3021557076
  0
LINE
  5
33C
100
AcDbEntity
  8
3
100
AcDbLine
 62
7
  6
BYLAYER
 10
931.9838650257
 20
2099.3021557076
 11
931.9838650257
 21
1200.2513940865
  0
LINE
  5
33D
100
AcDbEntity
  8
3
100
AcDbLine
 62
7
  6
BYLAYER
 10
931.9838650257
 20
1150.2513940865
 11
931.9838650257
 21
252.9672532468
  0
LINE
  5
33E
100
AcDbEntity
  8
3
100
AcDbLine
 62
7
  6
BYLAYER
 10
931.9838650257
 20
202.9672532468
 11
931.9838650257
 21
175.619090932
  0
LINE
  5
33F
100
AcDbEntity
  8
0
100
AcDbLine
 62
7
  6
BYLAYER
 10
931.9843400688
 20
175.618967985
 11
931.9843400688
 21
159.1189679851
  0
LINE
  5
340
100
AcDbEntity
  8
0
100
AcDbLine
 62
7
  6
BYLAYER
 10
932.4836122577
 20
2174.1190781235
 11
932.4836122577
 21
2190.6190781235
  0
LINE
  5
341
100
AcDbEntity
  8
3
100
AcDbLine
 62
7
  6
BYLAYER
 10
932.4838650257
 20
175.619090932
 11
932.4838650257
 21
202.9672532468
  0
LINE
  5
342
100
AcDbEntity
  8
3
100
AcDbLine
 62
7
  6
BYLAYER
 10
932.4838650257
 20
252.9672532468
 11
932.4838650257
 21
1150.2513940865
  0
LINE
  5
343
100
AcDbEntity
  8
3
100
AcDbLine
 62
7
  6
BYLAYER
 10
932.4838650257
 20
1200.2513940865
 11
932.4838650257
 21
2099.3021557076
  0
LINE
  5
344
100
AcDbEntity
  8
3
100
AcDbLine
 62
7
  6
BYLAYER
 10
932.4838650257
 20
2149.3021557076
 11
932.4838650257
 21
2174.119090932
  0
LINE
  5
345
100
AcDbEntity
  8
0
100
AcDbLine
 62
7
  6
BYLAYER
 10
932.4843400688
 20
159.118967985
 11
932.4843400688
 21
175.618967985
  0
LINE
  5
346
100
AcDbEntity
  8
0
100
AcDbLine
 62
7
  6
BYLAYER
 10
932.8603722577
 20
2199.3190781235
 11
932.8603722577
 21
2198.1190781235
  0
LINE
  5
347
100
AcDbEntity
  8
0
100
AcDbLine
 62
7
  6
BYLAYER
 10
941.1103722577
 20
2199.3190781235
 11
941.1103722577
 21
2198.1190781235
  0
LINE
  5
348
100
AcDbEntity
  8
3
100
AcDbLine
 62
7
  6
BYLAYER
 10
942.7951193423
 20
2144.3021557076
 11
942.7951193423
 21
2104.3021557076
  0
LINE
  5
349
100
AcDbEntity
  8
3
100
AcDbLine
 62
7
  6
BYLAYER
 10
942.7951193423
 20
1195.2513940865
 11
942.7951193423
 21
1155.2513940865
  0
LINE
  5
34A
100
AcDbEntity
  8
3
100
AcDbLine
 62
7
  6
BYLAYER
 10
942.7951193423
 20
247.9672532468
 11
942.7951193423
 21
207.9672532468
  0
LINE
  5
34B
100
AcDbEntity
  8
0
100
AcDbLine
 62
7
  6
BYLAYER
 10
943.9836122577
 20
2191.6190781235
 11
943.9836122577
 21
2189.6190781235
  0
LINE
  5
34C
100
AcDbEntity
  8
0
100
AcDbLine
 62
7
  6
BYLAYER
 10
943.9843400688
 20
160.118967985
 11
943.9843400688
 21
158.118967985
  0
LINE
  5
34D
100
AcDbEntity
  8
0
100
AcDbLine
 62
7
  6
BYLAYER
 10
944.7336122577
 20
2191.6190781235
 11
944.7336122577
 21
2197.6190781235
  0
LINE
  5
34E
100
AcDbEntity
  8
0
100
AcDbLine
 62
7
  6
BYLAYER
 10
944.9836122577
 20
2189.6190781235
 11
944.9836122577
 21
2190.6190781235
  0
LINE
  5
34F
100
AcDbEntity
  8
0
100
AcDbLine
 62
7
  6
BYLAYER
 10
944.9843400688
 20
159.118967985
 11
944.9843400688
 21
160.118967985
  0
LINE
  5
350
100
AcDbEntity
  8
0
100
AcDbLine
 62
7
  6
BYLAYER
 10
945.1836122577
 20
2189.2231451176
 11
945.1836122577
 21
2190.7190781235
  0
LINE
  5
351
100
AcDbEntity
  8
0
100
AcDbLine
 62
7
  6
BYLAYER
 10
945.1843400659
 20
159.0190781235
 11
945.1843400659
 21
160.5173691055
  0
LINE
  5
352
100
AcDbEntity
  8
0
100
AcDbLine
 62
7
  6
BYLAYER
 10
945.4836123303
 20
2188.6190781235
 11
945.4836123303
 21
2189.1190781235
  0
LINE
  5
353
100
AcDbEntity
  8
0
100
AcDbLine
 62
7
  6
BYLAYER
 10
945.4843401416
 20
160.618967985
 11
945.4843401416
 21
161.118967985
  0
LINE
  5
354
100
AcDbEntity
  8
0
100
AcDbLine
 62
7
  6
BYLAYER
 10
948.9836122577
 20
2189.1190781235
 11
948.9836122577
 21
2174.1190781235
  0
LINE
  5
355
100
AcDbEntity
  8
3
100
AcDbLine
 62
7
  6
BYLAYER
 10
948.9838650257
 20
2174.119090932
 11
948.9838650257
 21
175.619090932
  0
LINE
  5
356
100
AcDbEntity
  8
0
100
AcDbLine
 62
7
  6
BYLAYER
 10
948.9843400688
 20
175.618967985
 11
948.9843400688
 21
160.618967985
  0
LINE
  5
357
100
AcDbEntity
  8
0
100
AcDbLine
 62
7
  6
BYLAYER
 10
951.7836122577
 20
2190.7190781235
 11
951.7836122577
 21
2189.1190781235
  0
LINE
  5
358
100
AcDbEntity
  8
0
100
AcDbLine
 62
7
  6
BYLAYER
 10
951.7843400659
 20
160.6190781235
 11
951.7843400659
 21
159.0190781235
  0
LINE
  5
359
100
AcDbEntity
  8
0
100
AcDbLine
 62
7
  6
BYLAYER
 10
951.9836122577
 20
2191.6190781235
 11
951.9836122594
 21
2189.6190781235
  0
LINE
  5
35A
100
AcDbEntity
  8
0
100
AcDbLine
 62
7
  6
BYLAYER
 10
951.9843400705
 20
160.118967985
 11
951.9843400688
 21
158.118967985
  0
LINE
  5
35B
100
AcDbEntity
  8
0
100
AcDbLine
 62
7
  6
BYLAYER
 10
952.9836122577
 20
2174.1190781235
 11
952.9836122577
 21
2190.6190781235
  0
LINE
  5
35C
100
AcDbEntity
  8
3
100
AcDbLine
 62
7
  6
BYLAYER
 10
952.9838650257
 20
175.619090932
 11
952.9838650257
 21
2174.119090932
  0
LINE
  5
35D
100
AcDbEntity
  8
0
100
AcDbLine
 62
7
  6
BYLAYER
 10
952.9843400688
 20
161.118967985
 11
952.9843400688
 21
175.618967985
  0
LINE
  5
35E
100
AcDbEntity
  8
0
100
AcDbLine
 62
7
  6
BYLAYER
 10
952.9843400688
 20
159.118967985
 11
952.9843400688
 21
161.1071094219
  0
LINE
  5
35F
100
AcDbEntity
  8
0
100
AcDbLine
 62
7
  6
BYLAYER
 10
952.9843383396
 20
160.1189257854
 11
952.9843400698
 21
160.9180991174
  0
LINE
  5
360
100
AcDbEntity
  8
3
100
AcDbLine
 62
7
  6
BYLAYER
 10
930.6843400673
 20
1155.5748569061
 11
933.3843400673
 21
1160.2513940865
  0
LINE
  5
361
100
AcDbEntity
  8
3
100
AcDbLine
 62
7
  6
BYLAYER
 10
933.3843400673
 20
1190.2513940865
 11
930.6843400673
 21
1194.927931267
  0
LINE
  5
362
100
AcDbEntity
  8
4
100
AcDbLine
 62
7
  6
BYLAYER
 10
777.6352091788
 20
247.6437904272
 11
774.9352091788
 21
242.9672532468
  0
LINE
  5
363
100
AcDbEntity
  8
4
100
AcDbLine
 62
7
  6
BYLAYER
 10
783.0352091788
 20
238.2907160663
 11
785.7352091788
 21
242.9672532468
  0
LINE
  5
364
100
AcDbEntity
  8
4
100
AcDbLine
 62
7
  6
BYLAYER
 10
777.6352091788
 20
217.6437904272
 11
774.9352091788
 21
212.9672532468
  0
LINE
  5
365
100
AcDbEntity
  8
4
100
AcDbLine
 62
7
  6
BYLAYER
 10
774.9352091788
 20
2109.3021557076
 11
777.6352091788
 21
2104.6256185272
  0
LINE
  5
366
100
AcDbEntity
  8
4
100
AcDbLine
 62
7
  6
BYLAYER
 10
785.7352091788
 20
2109.3021557076
 11
783.0352091788
 21
2113.978692888
  0
LINE
  5
367
100
AcDbEntity
  8
4
100
AcDbLine
 62
7
  6
BYLAYER
 10
774.9352091788
 20
2139.3021557076
 11
777.6352091788
 21
2134.6256185272
  0
LINE
  5
368
100
AcDbEntity
  8
4
100
AcDbLine
 62
7
  6
BYLAYER
 10
783.0352091788
 20
208.2907160663
 11
785.7352091788
 21
212.9672532468
  0
LINE
  5
369
100
AcDbEntity
  8
4
100
AcDbLine
 62
7
  6
BYLAYER
 10
785.7352091788
 20
2139.3021557076
 11
783.0352091788
 21
2143.978692888
  0
LINE
  5
36A
100
AcDbEntity
  8
3
100
AcDbLine
 62
7
  6
BYLAYER
 10
925.2843400673
 20
247.6437904272
 11
922.5843400673
 21
242.9672532468
  0
LINE
  5
36B
100
AcDbEntity
  8
3
100
AcDbLine
 62
7
  6
BYLAYER
 10
930.6843400673
 20
238.2907160663
 11
933.3843400673
 21
242.9672532468
  0
LINE
  5
36C
100
AcDbEntity
  8
3
100
AcDbLine
 62
7
  6
BYLAYER
 10
925.2843400673
 20
217.6437904272
 11
922.5843400673
 21
212.9672532468
  0
LINE
  5
36D
100
AcDbEntity
  8
3
100
AcDbLine
 62
7
  6
BYLAYER
 10
930.6843400673
 20
208.2907160663
 11
933.3843400673
 21
212.9672532468
  0
LINE
  5
36E
100
AcDbEntity
  8
3
100
AcDbLine
 62
7
  6
BYLAYER
 10
922.5843400673
 20
2109.3021557076
 11
925.2843400673
 21
2104.6256185272
  0
LINE
  5
36F
100
AcDbEntity
  8
3
100
AcDbLine
 62
7
  6
BYLAYER
 10
933.3843400673
 20
2109.3021557076
 11
930.6843400673
 21
2113.978692888
  0
LINE
  5
370
100
AcDbEntity
  8
3
100
AcDbLine
 62
7
  6
BYLAYER
 10
922.5843400673
 20
2139.3021557076
 11
925.2843400673
 21
2134.6256185272
  0
LINE
  5
371
100
AcDbEntity
  8
3
100
AcDbLine
 62
7
  6
BYLAYER
 10
933.3843400673
 20
2139.3021557076
 11
930.6843400673
 21
2143.978692888
  0
LINE
  5
372
100
AcDbEntity
  8
0
100
AcDbLine
 62
7
  6
BYLAYER
 10
778.5844813692
 20
2198.1190781235
 11
779.0844813692
 21
2197.6190781235
  0
LINE
  5
373
100
AcDbEntity
  8
0
100
AcDbLine
 62
7
  6
BYLAYER
 10
776.8344833479
 20
2202.1190781235
 11
777.3344813692
 21
2201.619080282
  0
LINE
  5
374
100
AcDbEntity
  8
0
100
AcDbLine
 62
7
  6
BYLAYER
 10
796.5844813692
 20
2198.1190781235
 11
797.0844813692
 21
2197.6190781235
  0
LINE
  5
375
100
AcDbEntity
  8
0
100
AcDbLine
 62
7
  6
BYLAYER
 10
926.2336122577
 20
2198.1190781235
 11
926.7336122577
 21
2197.6190781235
  0
LINE
  5
376
100
AcDbEntity
  8
0
100
AcDbLine
 62
7
  6
BYLAYER
 10
924.4836142364
 20
2202.1190781235
 11
924.9836122577
 21
2201.619080282
  0
LINE
  5
377
100
AcDbEntity
  8
0
100
AcDbLine
 62
7
  6
BYLAYER
 10
944.2336122577
 20
2198.1190781235
 11
944.7336122577
 21
2197.6190781235
  0
LINE
  5
378
100
AcDbEntity
  8
4
100
AcDbLine
 62
7
  6
BYLAYER
 10
745.1459884538
 20
2099.3021557076
 11
790.1459884538
 21
2099.3021557076
  0
LINE
  5
379
100
AcDbEntity
  8
3
100
AcDbLine
 62
7
  6
BYLAYER
 10
892.7951193423
 20
2099.3021557076
 11
937.7951193423
 21
2099.3021557076
  0
LINE
  5
37A
100
AcDbEntity
  8
3
100
AcDbLine
 62
7
  6
BYLAYER
 10
895.7951193423
 20
2104.3021557076
 11
892.7951193423
 21
2104.3021557076
  0
LINE
  5
37B
100
AcDbEntity
  8
4
100
AcDbLine
 62
7
  6
BYLAYER
 10
748.1459884538
 20
2104.3021557076
 11
745.1459884538
 21
2104.3021557076
  0
LINE
  5
37C
100
AcDbEntity
  8
3
100
AcDbLine
 62
7
  6
BYLAYER
 10
930.6843400673
 20
2104.6256185272
 11
925.2843400673
 21
2104.6256185272
  0
LINE
  5
37D
100
AcDbEntity
  8
4
100
AcDbLine
 62
7
  6
BYLAYER
 10
783.0352091788
 20
2104.6256185272
 11
777.6352091788
 21
2104.6256185272
  0
LINE
  5
37E
100
AcDbEntity
  8
4
100
AcDbLine
 62
7
  6
BYLAYER
 10
773.4459884538
 20
2106.0521557076
 11
774.93089971
 21
2106.0521557076
  0
LINE
  5
37F
100
AcDbEntity
  8
4
100
AcDbLine
 62
7
  6
BYLAYER
 10
785.739181108
 20
2106.0521557076
 11
786.9459884538
 21
2106.0521557076
  0
LINE
  5
380
100
AcDbEntity
  8
3
100
AcDbLine
 62
7
  6
BYLAYER
 10
921.0951193423
 20
2106.0521557076
 11
922.5800305985
 21
2106.0521557076
  0
LINE
  5
381
100
AcDbEntity
  8
3
100
AcDbLine
 62
7
  6
BYLAYER
 10
933.3883119965
 20
2106.0521557076
 11
934.5951193423
 21
2106.0521557076
  0
LINE
  5
382
100
AcDbEntity
  8
3
100
AcDbLine
 62
7
  6
BYLAYER
 10
934.5951193423
 20
2112.5521557076
 11
933.3886495361
 21
2112.5521557076
  0
LINE
  5
383
100
AcDbEntity
  8
3
100
AcDbLine
 62
7
  6
BYLAYER
 10
922.5803681381
 20
2112.5521557076
 11
921.0951193423
 21
2112.5521557076
  0
LINE
  5
384
100
AcDbEntity
  8
4
100
AcDbLine
 62
7
  6
BYLAYER
 10
786.9459884538
 20
2112.5521557076
 11
785.7395186476
 21
2112.5521557076
  0
LINE
  5
385
100
AcDbEntity
  8
4
100
AcDbLine
 62
7
  6
BYLAYER
 10
774.9312372496
 20
2112.5521557076
 11
773.4459884538
 21
2112.5521557076
  0
LINE
  5
386
100
AcDbEntity
  8
4
100
AcDbLine
 62
7
  6
BYLAYER
 10
777.6352091788
 20
2113.978692888
 11
783.0352091788
 21
2113.978692888
  0
LINE
  5
387
100
AcDbEntity
  8
3
100
AcDbLine
 62
7
  6
BYLAYER
 10
925.2843400673
 20
2113.978692888
 11
930.6843400673
 21
2113.978692888
  0
LINE
  5
388
100
AcDbEntity
  8
3
100
AcDbLine
 62
7
  6
BYLAYER
 10
930.6843400673
 20
2134.6256185272
 11
925.2843400673
 21
2134.6256185272
  0
LINE
  5
389
100
AcDbEntity
  8
4
100
AcDbLine
 62
7
  6
BYLAYER
 10
783.0352091788
 20
2134.6256185272
 11
777.6352091788
 21
2134.6256185272
  0
LINE
  5
38A
100
AcDbEntity
  8
4
100
AcDbLine
 62
7
  6
BYLAYER
 10
773.4459884538
 20
2136.0521557076
 11
774.93089971
 21
2136.0521557076
  0
LINE
  5
38B
100
AcDbEntity
  8
4
100
AcDbLine
 62
7
  6
BYLAYER
 10
785.739181108
 20
2136.0521557076
 11
786.9459884538
 21
2136.0521557076
  0
LINE
  5
38C
100
AcDbEntity
  8
3
100
AcDbLine
 62
7
  6
BYLAYER
 10
921.0951193423
 20
2136.0521557076
 11
922.5800305985
 21
2136.0521557076
  0
LINE
  5
38D
100
AcDbEntity
  8
3
100
AcDbLine
 62
7
  6
BYLAYER
 10
933.3883119965
 20
2136.0521557076
 11
934.5951193423
 21
2136.0521557076
  0
LINE
  5
38E
100
AcDbEntity
  8
3
100
AcDbLine
 62
7
  6
BYLAYER
 10
934.5951193423
 20
2142.5521557076
 11
933.3886495361
 21
2142.5521557076
  0
LINE
  5
38F
100
AcDbEntity
  8
3
100
AcDbLine
 62
7
  6
BYLAYER
 10
922.5803681381
 20
2142.5521557076
 11
921.0951193423
 21
2142.5521557076
  0
LINE
  5
390
100
AcDbEntity
  8
4
100
AcDbLine
 62
7
  6
BYLAYER
 10
786.9459884538
 20
2142.5521557076
 11
785.7395186476
 21
2142.5521557076
  0
LINE
  5
391
100
AcDbEntity
  8
4
100
AcDbLine
 62
7
  6
BYLAYER
 10
774.9312372496
 20
2142.5521557076
 11
773.4459884538
 21
2142.5521557076
  0
LINE
  5
392
100
AcDbEntity
  8
4
100
AcDbLine
 62
7
  6
BYLAYER
 10
777.6352091788
 20
2143.978692888
 11
783.0352091788
 21
2143.978692888
  0
LINE
  5
393
100
AcDbEntity
  8
3
100
AcDbLine
 62
7
  6
BYLAYER
 10
925.2843400673
 20
2143.978692888
 11
930.6843400673
 21
2143.978692888
  0
LINE
  5
394
100
AcDbEntity
  8
4
100
AcDbLine
 62
7
  6
BYLAYER
 10
745.1459884538
 20
2144.3021557076
 11
748.1459884538
 21
2144.3021557076
  0
LINE
  5
395
100
AcDbEntity
  8
3
100
AcDbLine
 62
7
  6
BYLAYER
 10
892.7951193423
 20
2144.3021557076
 11
895.7951193423
 21
2144.3021557076
  0
LINE
  5
396
100
AcDbEntity
  8
4
100
AcDbLine
 62
7
  6
BYLAYER
 10
745.1459884538
 20
2149.3021557076
 11
790.1459884538
 21
2149.3021557076
  0
LINE
  5
397
100
AcDbEntity
  8
3
100
AcDbLine
 62
7
  6
BYLAYER
 10
892.7951193423
 20
2149.3021557076
 11
937.7951193423
 21
2149.3021557076
  0
LINE
  5
398
100
AcDbEntity
  8
0
100
AcDbLine
 62
7
  6
BYLAYER
 10
755.3344813692
 20
2174.1190781235
 11
805.3344813692
 21
2174.1190781235
  0
LINE
  5
399
100
AcDbEntity
  8
3
100
AcDbLine
 62
7
  6
BYLAYER
 10
755.3347341372
 20
2174.119090932
 11
805.3347341372
 21
2174.119090932
  0
LINE
  5
39A
100
AcDbEntity
  8
0
100
AcDbLine
 62
7
  6
BYLAYER
 10
902.9836122577
 20
2174.1190781235
 11
952.9836122577
 21
2174.1190781235
  0
LINE
  5
39B
100
AcDbEntity
  8
3
100
AcDbLine
 62
7
  6
BYLAYER
 10
902.9838650257
 20
2174.119090932
 11
952.9838650257
 21
2174.119090932
  0
LINE
  5
39C
100
AcDbEntity
  8
0
100
AcDbLine
 62
7
  6
BYLAYER
 10
944.9836122577
 20
2187.6190781235
 11
928.9836290717
 21
2187.6190781235
  0
LINE
  5
39D
100
AcDbEntity
  8
0
100
AcDbLine
 62
7
  6
BYLAYER
 10
926.9836122577
 20
2187.6190781235
 11
910.9836290717
 21
2187.6190781235
  0
LINE
  5
39E
100
AcDbEntity
  8
0
100
AcDbLine
 62
7
  6
BYLAYER
 10
797.3344813692
 20
2187.6190781235
 11
781.3344981832
 21
2187.6190781235
  0
LINE
  5
39F
100
AcDbEntity
  8
0
100
AcDbLine
 62
7
  6
BYLAYER
 10
779.3344813692
 20
2187.6190781235
 11
763.3344981832
 21
2187.6190781235
  0
LINE
  5
3A0
100
AcDbEntity
  8
0
100
AcDbLine
 62
7
  6
BYLAYER
 10
944.8784032289
 20
2187.6302723745
 11
929.0888378794
 21
2187.6302723745
  0
LINE
  5
3A1
100
AcDbEntity
  8
0
100
AcDbLine
 62
7
  6
BYLAYER
 10
926.8784032289
 20
2187.6302723745
 11
911.0888378794
 21
2187.6302723745
  0
LINE
  5
3A2
100
AcDbEntity
  8
0
100
AcDbLine
 62
7
  6
BYLAYER
 10
797.2292723404
 20
2187.6302723745
 11
781.4397069909
 21
2187.6302723745
  0
LINE
  5
3A3
100
AcDbEntity
  8
0
100
AcDbLine
 62
7
  6
BYLAYER
 10
779.2292723404
 20
2187.6302723745
 11
763.4397069909
 21
2187.6302723745
  0
LINE
  5
3A4
100
AcDbEntity
  8
0
100
AcDbLine
 62
7
  6
BYLAYER
 10
763.228986709
 20
2188.6078223068
 11
779.4399589938
 21
2188.6078223068
  0
LINE
  5
3A5
100
AcDbEntity
  8
0
100
AcDbLine
 62
7
  6
BYLAYER
 10
910.8781175975
 20
2188.6078223068
 11
927.0890898823
 21
2188.6078223068
  0
LINE
  5
3A6
100
AcDbEntity
  8
0
100
AcDbLine
 62
7
  6
BYLAYER
 10
945.0888212866
 20
2188.6078838725
 11
928.8784202639
 21
2188.6078838725
  0
LINE
  5
3A7
100
AcDbEntity
  8
0
100
AcDbLine
 62
7
  6
BYLAYER
 10
797.4396903981
 20
2188.6078838725
 11
781.2292893754
 21
2188.6078838725
  0
LINE
  5
3A8
100
AcDbEntity
  8
0
100
AcDbLine
 62
7
  6
BYLAYER
 10
755.3344813692
 20
2188.6190781235
 11
762.8344813692
 21
2188.6190781235
  0
LINE
  5
3A9
100
AcDbEntity
  8
0
100
AcDbLine
 62
7
  6
BYLAYER
 10
797.8344813692
 20
2188.6190781235
 11
805.3344813692
 21
2188.6190781235
  0
LINE
  5
3AA
100
AcDbEntity
  8
0
100
AcDbLine
 62
7
  6
BYLAYER
 10
902.9836122577
 20
2188.6190781235
 11
910.4836122577
 21
2188.6190781235
  0
LINE
  5
3AB
100
AcDbEntity
  8
0
100
AcDbLine
 62
7
  6
BYLAYER
 10
945.4836122577
 20
2188.6190781235
 11
952.9836122577
 21
2188.6190781235
  0
LINE
  5
3AC
100
AcDbEntity
  8
0
100
AcDbLine
 62
7
  6
BYLAYER
 10
755.8344813692
 20
2189.1190781235
 11
762.8344813692
 21
2189.1190781235
  0
LINE
  5
3AD
100
AcDbEntity
  8
0
100
AcDbLine
 62
7
  6
BYLAYER
 10
797.8344813692
 20
2189.1190781235
 11
804.8344813692
 21
2189.1190781235
  0
LINE
  5
3AE
100
AcDbEntity
  8
0
100
AcDbLine
 62
7
  6
BYLAYER
 10
903.4836122577
 20
2189.1190781235
 11
910.4836122577
 21
2189.1190781235
  0
LINE
  5
3AF
100
AcDbEntity
  8
0
100
AcDbLine
 62
7
  6
BYLAYER
 10
945.4836122577
 20
2189.1190781235
 11
952.4836122577
 21
2189.1190781235
  0
LINE
  5
3B0
100
AcDbEntity
  8
0
100
AcDbLine
 62
7
  6
BYLAYER
 10
952.9836122577
 20
2189.6190781924
 11
951.7836122577
 21
2189.6190781235
  0
LINE
  5
3B1
100
AcDbEntity
  8
0
100
AcDbLine
 62
7
  6
BYLAYER
 10
945.1836122577
 20
2189.6190781235
 11
943.9836122577
 21
2189.6190781925
  0
LINE
  5
3B2
100
AcDbEntity
  8
0
100
AcDbLine
 62
7
  6
BYLAYER
 10
911.9836122577
 20
2189.6190781924
 11
910.7836122577
 21
2189.6190781235
  0
LINE
  5
3B3
100
AcDbEntity
  8
0
100
AcDbLine
 62
7
  6
BYLAYER
 10
904.1836122577
 20
2189.6190781235
 11
902.9836122577
 21
2189.6190781925
  0
LINE
  5
3B4
100
AcDbEntity
  8
0
100
AcDbLine
 62
7
  6
BYLAYER
 10
805.3344813692
 20
2189.6190781924
 11
804.1344813692
 21
2189.6190781235
  0
LINE
  5
3B5
100
AcDbEntity
  8
0
100
AcDbLine
 62
7
  6
BYLAYER
 10
797.5344813692
 20
2189.6190781235
 11
796.3344813692
 21
2189.6190781925
  0
LINE
  5
3B6
100
AcDbEntity
  8
0
100
AcDbLine
 62
7
  6
BYLAYER
 10
764.3344813692
 20
2189.6190781924
 11
763.1344813692
 21
2189.6190781235
  0
LINE
  5
3B7
100
AcDbEntity
  8
0
100
AcDbLine
 62
7
  6
BYLAYER
 10
756.5344813692
 20
2189.6190781235
 11
755.3344813692
 21
2189.6190781925
  0
LINE
  5
3B8
100
AcDbEntity
  8
0
100
AcDbLine
 62
7
  6
BYLAYER
 10
755.3344813692
 20
2190.6190781235
 11
756.5344813692
 21
2190.6190781235
  0
LINE
  5
3B9
100
AcDbEntity
  8
0
100
AcDbLine
 62
7
  6
BYLAYER
 10
763.1344813692
 20
2190.6190781235
 11
776.3344813692
 21
2190.6190781169
  0
LINE
  5
3BA
100
AcDbEntity
  8
0
100
AcDbLine
 62
7
  6
BYLAYER
 10
784.3344813692
 20
2190.6190781235
 11
797.5344813692
 21
2190.6190781235
  0
LINE
  5
3BB
100
AcDbEntity
  8
0
100
AcDbLine
 62
7
  6
BYLAYER
 10
804.1344813692
 20
2190.6190781235
 11
805.3344813692
 21
2190.6190781235
  0
LINE
  5
3BC
100
AcDbEntity
  8
0
100
AcDbLine
 62
7
  6
BYLAYER
 10
902.9836122577
 20
2190.6190781235
 11
904.1836122577
 21
2190.6190781235
  0
LINE
  5
3BD
100
AcDbEntity
  8
0
100
AcDbLine
 62
7
  6
BYLAYER
 10
910.7836122577
 20
2190.6190781235
 11
923.9836122577
 21
2190.6190781169
  0
LINE
  5
3BE
100
AcDbEntity
  8
0
100
AcDbLine
 62
7
  6
BYLAYER
 10
931.9836122577
 20
2190.6190781235
 11
945.1836122577
 21
2190.6190781235
  0
LINE
  5
3BF
100
AcDbEntity
  8
0
100
AcDbLine
 62
7
  6
BYLAYER
 10
951.7836122577
 20
2190.6190781235
 11
952.9836122577
 21
2190.6190781235
  0
LINE
  5
3C0
100
AcDbEntity
  8
0
100
AcDbLine
 62
7
  6
BYLAYER
 10
756.5344813692
 20
2190.7190781235
 11
763.1344813692
 21
2190.7190781235
  0
LINE
  5
3C1
100
AcDbEntity
  8
0
100
AcDbLine
 62
7
  6
BYLAYER
 10
797.5344813692
 20
2190.7190781235
 11
804.1344813692
 21
2190.7190781235
  0
LINE
  5
3C2
100
AcDbEntity
  8
0
100
AcDbLine
 62
7
  6
BYLAYER
 10
904.1836122577
 20
2190.7190781235
 11
910.7836122577
 21
2190.7190781235
  0
LINE
  5
3C3
100
AcDbEntity
  8
0
100
AcDbLine
 62
7
  6
BYLAYER
 10
945.1836122577
 20
2190.7190781235
 11
951.7836122577
 21
2190.7190781235
  0
LINE
  5
3C4
100
AcDbEntity
  8
0
100
AcDbLine
 62
7
  6
BYLAYER
 10
776.193033189
 20
2191.1190781235
 11
784.4749650234
 21
2191.1190781235
  0
LINE
  5
3C5
100
AcDbEntity
  8
0
100
AcDbLine
 62
7
  6
BYLAYER
 10
923.8421640775
 20
2191.1190781235
 11
932.124095912
 21
2191.1190781235
  0
LINE
  5
3C6
100
AcDbEntity
  8
0
100
AcDbLine
 62
7
  6
BYLAYER
 10
951.9836122577
 20
2191.6190781235
 11
951.1568174612
 21
2191.6190781235
  0
LINE
  5
3C7
100
AcDbEntity
  8
0
100
AcDbLine
 62
7
  6
BYLAYER
 10
904.8104070543
 20
2191.6190781235
 11
903.9836122577
 21
2191.6190781235
  0
LINE
  5
3C8
100
AcDbEntity
  8
0
100
AcDbLine
 62
7
  6
BYLAYER
 10
804.3344813692
 20
2191.6190781235
 11
803.5076865727
 21
2191.6190781235
  0
LINE
  5
3C9
100
AcDbEntity
  8
0
100
AcDbLine
 62
7
  6
BYLAYER
 10
757.1612761657
 20
2191.6190781235
 11
756.3344813692
 21
2191.6190781235
  0
LINE
  5
3CA
100
AcDbEntity
  8
0
100
AcDbLine
 62
7
  6
BYLAYER
 10
762.5076865727
 20
2191.6190781235
 11
798.1612761657
 21
2191.6190781235
  0
LINE
  5
3CB
100
AcDbEntity
  8
0
100
AcDbLine
 62
7
  6
BYLAYER
 10
910.1568174612
 20
2191.6190781235
 11
945.8104070543
 21
2191.6190781235
  0
LINE
  5
3CC
100
AcDbEntity
  8
0
100
AcDbLine
 62
7
  6
BYLAYER
 10
756.5344816159
 20
2191.7190781235
 11
762.1343799432
 21
2191.7190781235
  0
LINE
  5
3CD
100
AcDbEntity
  8
0
100
AcDbLine
 62
7
  6
BYLAYER
 10
798.5344816159
 20
2191.7190781235
 11
804.1343799432
 21
2191.7190781235
  0
LINE
  5
3CE
100
AcDbEntity
  8
0
100
AcDbLine
 62
7
  6
BYLAYER
 10
904.1836125044
 20
2191.7190781235
 11
909.7835108317
 21
2191.7190781235
  0
LINE
  5
3CF
100
AcDbEntity
  8
0
100
AcDbLine
 62
7
  6
BYLAYER
 10
946.1836125044
 20
2191.7190781235
 11
951.7835108317
 21
2191.7190781235
  0
LINE
  5
3D0
100
AcDbEntity
  8
0
100
AcDbLine
 62
7
  6
BYLAYER
 10
944.7336122577
 20
2193.1190781235
 11
929.2336122577
 21
2193.1190781235
  0
LINE
  5
3D1
100
AcDbEntity
  8
0
100
AcDbLine
 62
7
  6
BYLAYER
 10
926.7336122577
 20
2193.1190781235
 11
911.2336122577
 21
2193.1190781235
  0
LINE
  5
3D2
100
AcDbEntity
  8
0
100
AcDbLine
 62
7
  6
BYLAYER
 10
797.0844813692
 20
2193.1190781235
 11
781.5844813692
 21
2193.1190781235
  0
LINE
  5
3D3
100
AcDbEntity
  8
0
100
AcDbLine
 62
7
  6
BYLAYER
 10
779.0844813692
 20
2193.1190781235
 11
763.5844813692
 21
2193.1190781235
  0
LINE
  5
3D4
100
AcDbEntity
  8
0
100
AcDbLine
 62
7
  6
BYLAYER
 10
944.7336079749
 20
2196.1190781235
 11
929.2336165406
 21
2196.1190781235
  0
LINE
  5
3D5
100
AcDbEntity
  8
0
100
AcDbLine
 62
7
  6
BYLAYER
 10
926.7336079749
 20
2196.1190781235
 11
911.2336165406
 21
2196.1190781235
  0
LINE
  5
3D6
100
AcDbEntity
  8
0
100
AcDbLine
 62
7
  6
BYLAYER
 10
797.0844770864
 20
2196.1190781235
 11
781.584485652
 21
2196.1190781235
  0
LINE
  5
3D7
100
AcDbEntity
  8
0
100
AcDbLine
 62
7
  6
BYLAYER
 10
779.0844770864
 20
2196.1190781235
 11
763.584485652
 21
2196.1190781235
  0
LINE
  5
3D8
100
AcDbEntity
  8
0
100
AcDbLine
 62
7
  6
BYLAYER
 10
763.5844813692
 20
2197.6190781235
 11
779.0844813692
 21
2197.6190781235
  0
LINE
  5
3D9
100
AcDbEntity
  8
0
100
AcDbLine
 62
7
  6
BYLAYER
 10
781.5844813692
 20
2197.6190781235
 11
797.0844813692
 21
2197.6190781235
  0
LINE
  5
3DA
100
AcDbEntity
  8
0
100
AcDbLine
 62
7
  6
BYLAYER
 10
911.2336122577
 20
2197.6190781235
 11
926.7336122577
 21
2197.6190781235
  0
LINE
  5
3DB
100
AcDbEntity
  8
0
100
AcDbLine
 62
7
  6
BYLAYER
 10
929.2336122577
 20
2197.6190781235
 11
944.7336122577
 21
2197.6190781235
  0
LINE
  5
3DC
100
AcDbEntity
  8
0
100
AcDbLine
 62
7
  6
BYLAYER
 10
764.084485372
 20
2198.1190781235
 11
778.5844773664
 21
2198.1190781235
  0
LINE
  5
3DD
100
AcDbEntity
  8
0
100
AcDbLine
 62
7
  6
BYLAYER
 10
782.084485372
 20
2198.1190781235
 11
796.5844773664
 21
2198.1190781235
  0
LINE
  5
3DE
100
AcDbEntity
  8
0
100
AcDbLine
 62
7
  6
BYLAYER
 10
911.7336162605
 20
2198.1190781235
 11
926.233608255
 21
2198.1190781235
  0
LINE
  5
3DF
100
AcDbEntity
  8
0
100
AcDbLine
 62
7
  6
BYLAYER
 10
929.7336162605
 20
2198.1190781235
 11
944.233608255
 21
2198.1190781235
  0
LINE
  5
3E0
100
AcDbEntity
  8
0
100
AcDbLine
 62
7
  6
BYLAYER
 10
767.2102613692
 20
2199.3190781235
 11
775.4602613692
 21
2199.3190781235
  0
LINE
  5
3E1
100
AcDbEntity
  8
0
100
AcDbLine
 62
7
  6
BYLAYER
 10
785.2112413692
 20
2199.3190781235
 11
793.4612413692
 21
2199.3190781235
  0
LINE
  5
3E2
100
AcDbEntity
  8
0
100
AcDbLine
 62
7
  6
BYLAYER
 10
914.8593922577
 20
2199.3190781235
 11
923.1093922577
 21
2199.3190781235
  0
LINE
  5
3E3
100
AcDbEntity
  8
0
100
AcDbLine
 62
7
  6
BYLAYER
 10
932.8603722577
 20
2199.3190781235
 11
941.1103722577
 21
2199.3190781235
  0
LINE
  5
3E4
100
AcDbEntity
  8
0
100
AcDbLine
 62
7
  6
BYLAYER
 10
767.5103488453
 20
2199.6190781235
 11
775.1602799864
 21
2199.6190781235
  0
LINE
  5
3E5
100
AcDbEntity
  8
0
100
AcDbLine
 62
7
  6
BYLAYER
 10
785.5111810013
 20
2199.6190781235
 11
793.1612632605
 21
2199.6190781235
  0
LINE
  5
3E6
100
AcDbEntity
  8
0
100
AcDbLine
 62
7
  6
BYLAYER
 10
915.1594797338
 20
2199.6190781235
 11
922.8094108749
 21
2199.6190781235
  0
LINE
  5
3E7
100
AcDbEntity
  8
0
100
AcDbLine
 62
7
  6
BYLAYER
 10
933.1603118898
 20
2199.6190781235
 11
940.8103941491
 21
2199.6190781235
  0
LINE
  5
3E8
100
AcDbEntity
  8
0
100
AcDbLine
 62
7
  6
BYLAYER
 10
765.3344813692
 20
2201.6190771861
 11
777.3344813692
 21
2201.6190771861
  0
LINE
  5
3E9
100
AcDbEntity
  8
0
100
AcDbLine
 62
7
  6
BYLAYER
 10
912.9836122577
 20
2201.6190771861
 11
924.9836122577
 21
2201.6190771861
  0
LINE
  5
3EA
100
AcDbEntity
  8
0
100
AcDbLine
 62
7
  6
BYLAYER
 10
765.8344866706
 20
2202.1190781235
 11
776.8344819335
 21
2202.1190781235
  0
LINE
  5
3EB
100
AcDbEntity
  8
0
100
AcDbLine
 62
7
  6
BYLAYER
 10
913.4836175591
 20
2202.1190781235
 11
924.483612822
 21
2202.1190781235
  0
ARC
  5
3EC
100
AcDbEntity
  8
4
100
AcDbCircle
 62
7
  6
BYLAYER
 10
773.4459884538
 20
212.9672532468
 40
3.25
100
AcDbArc
 50
90.0
 51
270.0
  0
ARC
  5
3ED
100
AcDbEntity
  8
4
100
AcDbCircle
 62
7
  6
BYLAYER
 10
773.4459884538
 20
242.9672532468
 40
3.25
100
AcDbArc
 50
90.0
 51
270.0
  0
ARC
  5
3EE
100
AcDbEntity
  8
0
100
AcDbCircle
 62
7
  6
BYLAYER
 10
756.5347341403
 20
159.0190781235
 40
1.0
100
AcDbArc
 50
234.2503109337
 51
270.0
  0
ARC
  5
3EF
100
AcDbEntity
  8
0
100
AcDbCircle
 62
7
  6
BYLAYER
 10
762.1352091803
 20
159.0190781235
 40
1.0
100
AcDbArc
 50
270.0
 51
360.0
  0
ARC
  5
3F0
100
AcDbEntity
  8
0
100
AcDbCircle
 62
7
  6
BYLAYER
 10
757.5352091803
 20
159.0190781235
 40
1.0
100
AcDbArc
 50
180.0
 51
270.0
  0
ARC
  5
3F1
100
AcDbEntity
  8
0
100
AcDbCircle
 62
7
  6
BYLAYER
 10
764.3352091803
 20
159.118967985
 40
1.0
100
AcDbArc
 50
180.0
 51
270.0
  0
ARC
  5
3F2
100
AcDbEntity
  8
0
100
AcDbCircle
 62
7
  6
BYLAYER
 10
756.3352091803
 20
159.118967985
 40
1.0
100
AcDbArc
 50
180.0
 51
270.0
  0
ARC
  5
3F3
100
AcDbEntity
  8
0
100
AcDbCircle
 62
7
  6
BYLAYER
 10
775.3352091803
 20
159.118967985
 40
1.0
100
AcDbArc
 50
270.0
 51
360.0
  0
ARC
  5
3F4
100
AcDbEntity
  8
0
100
AcDbCircle
 62
7
  6
BYLAYER
 10
755.8352091803
 20
161.118967985
 40
0.5
100
AcDbArc
 50
180.0
 51
270.0
  0
ARC
  5
3F5
100
AcDbEntity
  8
0
100
AcDbCircle
 62
7
  6
BYLAYER
 10
762.8352091803
 20
160.118967985
 40
0.5
100
AcDbArc
 50
0.0
 51
90.0
  0
ARC
  5
3F6
100
AcDbEntity
  8
4
100
AcDbCircle
 62
7
  6
BYLAYER
 10
773.4459884538
 20
1160.2513940865
 40
3.25
100
AcDbArc
 50
90.0
 51
270.0
  0
ARC
  5
3F7
100
AcDbEntity
  8
0
100
AcDbCircle
 62
7
  6
BYLAYER
 10
785.3352091803
 20
159.118967985
 40
1.0
100
AcDbArc
 50
179.9999999984
 51
270.0
  0
CIRCLE
  5
3F8
100
AcDbEntity
  8
4
100
AcDbCircle
 62
7
  6
BYLAYER
 10
780.3352091788
 20
242.9672532468
 40
6.3525
  0
CIRCLE
  5
3F9
100
AcDbEntity
  8
4
100
AcDbCircle
 62
7
  6
BYLAYER
 10
780.3352091788
 20
212.9672532468
 40
6.3525
  0
ARC
  5
3FA
100
AcDbEntity
  8
4
100
AcDbCircle
 62
7
  6
BYLAYER
 10
790.1459884538
 20
207.9672532468
 40
5.0
100
AcDbArc
 50
270.0
 51
360.0
  0
ARC
  5
3FB
100
AcDbEntity
  8
4
100
AcDbCircle
 62
7
  6
BYLAYER
 10
790.1459884538
 20
247.9672532468
 40
5.0
100
AcDbArc
 50
0.0
 51
90.0
  0
ARC
  5
3FC
100
AcDbEntity
  8
4
100
AcDbCircle
 62
7
  6
BYLAYER
 10
786.9459884538
 20
212.9672532468
 40
3.25
100
AcDbArc
 50
270.0
 51
90.0
  0
ARC
  5
3FD
100
AcDbEntity
  8
4
100
AcDbCircle
 62
7
  6
BYLAYER
 10
786.9459884538
 20
242.9672532468
 40
3.25
100
AcDbArc
 50
270.0
 51
90.0
  0
CIRCLE
  5
3FE
100
AcDbEntity
  8
4
100
AcDbCircle
 62
7
  6
BYLAYER
 10
780.3352091788
 20
212.9672532468
 40
3.0
  0
CIRCLE
  5
3FF
100
AcDbEntity
  8
4
100
AcDbCircle
 62
7
  6
BYLAYER
 10
780.3352091788
 20
242.9672532468
 40
3.0
  0
ARC
  5
400
100
AcDbEntity
  8
0
100
AcDbCircle
 62
7
  6
BYLAYER
 10
804.1347341373
 20
159.0190781235
 40
1.0
100
AcDbArc
 50
270.0
 51
305.7190868301
  0
ARC
  5
401
100
AcDbEntity
  8
0
100
AcDbCircle
 62
7
  6
BYLAYER
 10
803.1352091774
 20
159.0190781235
 40
1.0
100
AcDbArc
 50
270.0
 51
360.0
  0
ARC
  5
402
100
AcDbEntity
  8
0
100
AcDbCircle
 62
7
  6
BYLAYER
 10
798.5352091774
 20
159.0190781235
 40
1.0
100
AcDbArc
 50
180.0
 51
270.0
  0
ARC
  5
403
100
AcDbEntity
  8
0
100
AcDbCircle
 62
7
  6
BYLAYER
 10
796.3352091803
 20
159.118967985
 40
1.0
100
AcDbArc
 50
270.0
 51
360.0
  0
ARC
  5
404
100
AcDbEntity
  8
0
100
AcDbCircle
 62
7
  6
BYLAYER
 10
804.3352091803
 20
159.118967985
 40
1.0
100
AcDbArc
 50
270.0
 51
360.0
  0
ARC
  5
405
100
AcDbEntity
  8
0
100
AcDbCircle
 62
7
  6
BYLAYER
 10
797.8352091803
 20
160.118967985
 40
0.5
100
AcDbArc
 50
90.0
 51
180.0
  0
ARC
  5
406
100
AcDbEntity
  8
0
100
AcDbCircle
 62
7
  6
BYLAYER
 10
804.8352091803
 20
161.118967985
 40
0.5
100
AcDbArc
 50
270.0
 51
360.0
  0
CIRCLE
  5
407
100
AcDbEntity
  8
4
100
AcDbCircle
 62
7
  6
BYLAYER
 10
780.3352091788
 20
1160.2513940865
 40
6.3525
  0
ARC
  5
408
100
AcDbEntity
  8
4
100
AcDbCircle
 62
7
  6
BYLAYER
 10
790.1459884538
 20
1155.2513940865
 40
5.0
100
AcDbArc
 50
270.0
 51
360.0
  0
ARC
  5
409
100
AcDbEntity
  8
4
100
AcDbCircle
 62
7
  6
BYLAYER
 10
786.9459884538
 20
1160.2513940865
 40
3.25
100
AcDbArc
 50
270.0
 51
90.0
  0
CIRCLE
  5
40A
100
AcDbEntity
  8
4
100
AcDbCircle
 62
7
  6
BYLAYER
 10
780.3352091788
 20
1160.2513940865
 40
3.0
  0
ARC
  5
40B
100
AcDbEntity
  8
4
100
AcDbCircle
 62
7
  6
BYLAYER
 10
773.4459884538
 20
1190.2513940865
 40
3.25
100
AcDbArc
 50
90.0
 51
270.0
  0
ARC
  5
40C
100
AcDbEntity
  8
0
100
AcDbCircle
 62
7
  6
BYLAYER
 10
756.5344813692
 20
2190.7190781235
 40
1.0
100
AcDbArc
 50
90.0
 51
125.746880854
  0
ARC
  5
40D
100
AcDbEntity
  8
0
100
AcDbCircle
 62
7
  6
BYLAYER
 10
757.5344813692
 20
2190.7190781235
 40
1.0
100
AcDbArc
 50
90.0
 51
180.0
  0
ARC
  5
40E
100
AcDbEntity
  8
0
100
AcDbCircle
 62
7
  6
BYLAYER
 10
762.1344813692
 20
2190.7190781235
 40
1.0
100
AcDbArc
 50
0.0
 51
90.0
  0
ARC
  5
40F
100
AcDbEntity
  8
0
100
AcDbCircle
 62
7
  6
BYLAYER
 10
756.3344813692
 20
2190.6190781235
 40
1.0
100
AcDbArc
 50
90.0
 51
179.9999999999
  0
ARC
  5
410
100
AcDbEntity
  8
0
100
AcDbCircle
 62
7
  6
BYLAYER
 10
764.3344813692
 20
2190.6190781235
 40
1.0
100
AcDbArc
 50
90.0
 51
180.0
  0
ARC
  5
411
100
AcDbEntity
  8
0
100
AcDbCircle
 62
7
  6
BYLAYER
 10
762.8344813692
 20
2189.6190781235
 40
0.5
100
AcDbArc
 50
270.0
 51
360.0
  0
ARC
  5
412
100
AcDbEntity
  8
0
100
AcDbCircle
 62
7
  6
BYLAYER
 10
755.8344813692
 20
2188.6190781235
 40
0.5
100
AcDbArc
 50
90.0
 51
180.0
  0
ARC
  5
413
100
AcDbEntity
  8
0
100
AcDbCircle
 62
7
  6
BYLAYER
 10
763.3344990311
 20
2188.1190783066
 40
0.4999999532
100
AcDbArc
 50
102.1804098123
 51
282.180210997
  0
ARC
  5
414
100
AcDbEntity
  8
0
100
AcDbCircle
 62
7
  6
BYLAYER
 10
767.5102613692
 20
2199.3190781235
 40
0.3
100
AcDbArc
 50
90.0
 51
180.0
  0
ARC
  5
415
100
AcDbEntity
  8
4
100
AcDbCircle
 62
7
  6
BYLAYER
 10
773.4459884538
 20
2109.3021557076
 40
3.25
100
AcDbArc
 50
90.0
 51
270.0
  0
ARC
  5
416
100
AcDbEntity
  8
4
100
AcDbCircle
 62
7
  6
BYLAYER
 10
773.4459884538
 20
2139.3021557076
 40
3.25
100
AcDbArc
 50
90.0
 51
270.0
  0
ARC
  5
417
100
AcDbEntity
  8
0
100
AcDbCircle
 62
7
  6
BYLAYER
 10
775.3344813692
 20
2190.6190781235
 40
1.0
100
AcDbArc
 50
0.0
 51
90.0
  0
ARC
  5
418
100
AcDbEntity
  8
0
100
AcDbCircle
 62
7
  6
BYLAYER
 10
779.3344637073
 20
2188.1190783066
 40
0.4999999532
100
AcDbArc
 50
257.819789003
 51
77.8195901876
  0
ARC
  5
419
100
AcDbEntity
  8
0
100
AcDbCircle
 62
7
  6
BYLAYER
 10
775.1602613692
 20
2199.3190781235
 40
0.3
100
AcDbArc
 50
0.0
 51
90.0
  0
CIRCLE
  5
41A
100
AcDbEntity
  8
4
100
AcDbCircle
 62
7
  6
BYLAYER
 10
780.3352091788
 20
1190.2513940865
 40
6.3525
  0
ARC
  5
41B
100
AcDbEntity
  8
4
100
AcDbCircle
 62
7
  6
BYLAYER
 10
790.1459884538
 20
1195.2513940865
 40
5.0
100
AcDbArc
 50
0.0
 51
90.0
  0
ARC
  5
41C
100
AcDbEntity
  8
4
100
AcDbCircle
 62
7
  6
BYLAYER
 10
786.9459884538
 20
1190.2513940865
 40
3.25
100
AcDbArc
 50
270.0
 51
90.0
  0
CIRCLE
  5
41D
100
AcDbEntity
  8
4
100
AcDbCircle
 62
7
  6
BYLAYER
 10
780.3352091788
 20
1190.2513940865
 40
3.0
  0
CIRCLE
  5
41E
100
AcDbEntity
  8
4
100
AcDbCircle
 62
7
  6
BYLAYER
 10
780.3352091788
 20
2109.3021557076
 40
6.3525
  0
CIRCLE
  5
41F
100
AcDbEntity
  8
4
100
AcDbCircle
 62
7
  6
BYLAYER
 10
780.3352091788
 20
2139.3021557076
 40
6.3525
  0
ARC
  5
420
100
AcDbEntity
  8
4
100
AcDbCircle
 62
7
  6
BYLAYER
 10
790.1459884538
 20
2104.3021557076
 40
5.0
100
AcDbArc
 50
270.0
 51
360.0
  0
ARC
  5
421
100
AcDbEntity
  8
4
100
AcDbCircle
 62
7
  6
BYLAYER
 10
790.1459884538
 20
2144.3021557076
 40
5.0
100
AcDbArc
 50
0.0
 51
90.0
  0
ARC
  5
422
100
AcDbEntity
  8
4
100
AcDbCircle
 62
7
  6
BYLAYER
 10
786.9459884538
 20
2109.3021557076
 40
3.25
100
AcDbArc
 50
270.0
 51
90.0
  0
ARC
  5
423
100
AcDbEntity
  8
4
100
AcDbCircle
 62
7
  6
BYLAYER
 10
786.9459884538
 20
2139.3021557076
 40
3.25
100
AcDbArc
 50
270.0
 51
90.0
  0
CIRCLE
  5
424
100
AcDbEntity
  8
4
100
AcDbCircle
 62
7
  6
BYLAYER
 10
780.3352091788
 20
2109.3021557076
 40
3.0
  0
CIRCLE
  5
425
100
AcDbEntity
  8
4
100
AcDbCircle
 62
7
  6
BYLAYER
 10
780.3352091788
 20
2139.3021557076
 40
3.0
  0
ARC
  5
426
100
AcDbEntity
  8
0
100
AcDbCircle
 62
7
  6
BYLAYER
 10
785.3344813692
 20
2190.6190781235
 40
1.0
100
AcDbArc
 50
90.0
 51
180.0000000008
  0
ARC
  5
427
100
AcDbEntity
  8
0
100
AcDbCircle
 62
7
  6
BYLAYER
 10
781.3344990317
 20
2188.1190783063
 40
0.4999999534
100
AcDbArc
 50
102.1571786862
 51
282.1569797606
  0
ARC
  5
428
100
AcDbEntity
  8
0
100
AcDbCircle
 62
7
  6
BYLAYER
 10
785.5112413692
 20
2199.3190781235
 40
0.3
100
AcDbArc
 50
90.0
 51
180.0
  0
ARC
  5
429
100
AcDbEntity
  8
0
100
AcDbCircle
 62
7
  6
BYLAYER
 10
804.1344813692
 20
2190.7190781235
 40
1.0
100
AcDbArc
 50
54.2529864704
 51
90.0
  0
ARC
  5
42A
100
AcDbEntity
  8
0
100
AcDbCircle
 62
7
  6
BYLAYER
 10
798.5344813692
 20
2190.7190781235
 40
1.0
100
AcDbArc
 50
90.0
 51
180.0
  0
ARC
  5
42B
100
AcDbEntity
  8
0
100
AcDbCircle
 62
7
  6
BYLAYER
 10
803.1344813692
 20
2190.7190781235
 40
1.0
100
AcDbArc
 50
0.0
 51
90.0
  0
ARC
  5
42C
100
AcDbEntity
  8
0
100
AcDbCircle
 62
7
  6
BYLAYER
 10
796.3344813692
 20
2190.6190781235
 40
1.0
100
AcDbArc
 50
0.0
 51
90.0
  0
ARC
  5
42D
100
AcDbEntity
  8
0
100
AcDbCircle
 62
7
  6
BYLAYER
 10
804.3344813692
 20
2190.6190781235
 40
1.0
100
AcDbArc
 50
0.0
 51
90.0
  0
ARC
  5
42E
100
AcDbEntity
  8
0
100
AcDbCircle
 62
7
  6
BYLAYER
 10
804.8344813692
 20
2188.6190781235
 40
0.5
100
AcDbArc
 50
0.0
 51
90.0
  0
ARC
  5
42F
100
AcDbEntity
  8
0
100
AcDbCircle
 62
7
  6
BYLAYER
 10
797.8344813692
 20
2189.6190781235
 40
0.5
100
AcDbArc
 50
180.0
 51
270.0
  0
ARC
  5
430
100
AcDbEntity
  8
0
100
AcDbCircle
 62
7
  6
BYLAYER
 10
797.3344637068
 20
2188.1190783063
 40
0.4999999534
100
AcDbArc
 50
257.8430202394
 51
77.8428213138
  0
ARC
  5
431
100
AcDbEntity
  8
0
100
AcDbCircle
 62
7
  6
BYLAYER
 10
793.1612413692
 20
2199.3190781235
 40
0.3
100
AcDbArc
 50
0.0
 51
90.0
  0
ARC
  5
432
100
AcDbEntity
  8
3
100
AcDbCircle
 62
7
  6
BYLAYER
 10
921.0951193423
 20
212.9672532468
 40
3.25
100
AcDbArc
 50
90.0
 51
270.0
  0
ARC
  5
433
100
AcDbEntity
  8
3
100
AcDbCircle
 62
7
  6
BYLAYER
 10
921.0951193423
 20
242.9672532468
 40
3.25
100
AcDbArc
 50
90.0
 51
270.0
  0
ARC
  5
434
100
AcDbEntity
  8
0
100
AcDbCircle
 62
7
  6
BYLAYER
 10
904.1838650288
 20
159.0190781235
 40
1.0
100
AcDbArc
 50
234.2503109337
 51
270.0
  0
ARC
  5
435
100
AcDbEntity
  8
0
100
AcDbCircle
 62
7
  6
BYLAYER
 10
909.7843400688
 20
159.0190781235
 40
1.0
100
AcDbArc
 50
270.0
 51
360.0
  0
ARC
  5
436
100
AcDbEntity
  8
0
100
AcDbCircle
 62
7
  6
BYLAYER
 10
905.1843400688
 20
159.0190781235
 40
1.0
100
AcDbArc
 50
180.0
 51
270.0
  0
ARC
  5
437
100
AcDbEntity
  8
0
100
AcDbCircle
 62
7
  6
BYLAYER
 10
911.9843400688
 20
159.118967985
 40
1.0
100
AcDbArc
 50
180.0
 51
270.0
  0
ARC
  5
438
100
AcDbEntity
  8
0
100
AcDbCircle
 62
7
  6
BYLAYER
 10
903.9843400688
 20
159.118967985
 40
1.0
100
AcDbArc
 50
180.0
 51
270.0
  0
ARC
  5
439
100
AcDbEntity
  8
0
100
AcDbCircle
 62
7
  6
BYLAYER
 10
922.9843400688
 20
159.118967985
 40
1.0
100
AcDbArc
 50
270.0
 51
360.0
  0
ARC
  5
43A
100
AcDbEntity
  8
0
100
AcDbCircle
 62
7
  6
BYLAYER
 10
903.4843400688
 20
161.118967985
 40
0.5
100
AcDbArc
 50
180.0
 51
270.0
  0
ARC
  5
43B
100
AcDbEntity
  8
0
100
AcDbCircle
 62
7
  6
BYLAYER
 10
910.4843400688
 20
160.118967985
 40
0.5
100
AcDbArc
 50
0.0
 51
90.0
  0
ARC
  5
43C
100
AcDbEntity
  8
3
100
AcDbCircle
 62
7
  6
BYLAYER
 10
921.0951193423
 20
1160.2513940865
 40
3.25
100
AcDbArc
 50
90.0
 51
270.0
  0
ARC
  5
43D
100
AcDbEntity
  8
0
100
AcDbCircle
 62
7
  6
BYLAYER
 10
932.9843400688
 20
159.118967985
 40
1.0
100
AcDbArc
 50
179.9999999984
 51
270.0
  0
CIRCLE
  5
43E
100
AcDbEntity
  8
3
100
AcDbCircle
 62
7
  6
BYLAYER
 10
927.9843400673
 20
242.9672532468
 40
6.3525
  0
CIRCLE
  5
43F
100
AcDbEntity
  8
3
100
AcDbCircle
 62
7
  6
BYLAYER
 10
927.9843400673
 20
212.9672532468
 40
6.3525
  0
ARC
  5
440
100
AcDbEntity
  8
3
100
AcDbCircle
 62
7
  6
BYLAYER
 10
937.7951193423
 20
207.9672532468
 40
5.0
100
AcDbArc
 50
270.0
 51
360.0
  0
ARC
  5
441
100
AcDbEntity
  8
3
100
AcDbCircle
 62
7
  6
BYLAYER
 10
937.7951193423
 20
247.9672532468
 40
5.0
100
AcDbArc
 50
0.0
 51
90.0
  0
ARC
  5
442
100
AcDbEntity
  8
3
100
AcDbCircle
 62
7
  6
BYLAYER
 10
934.5951193423
 20
212.9672532468
 40
3.25
100
AcDbArc
 50
270.0
 51
90.0
  0
ARC
  5
443
100
AcDbEntity
  8
3
100
AcDbCircle
 62
7
  6
BYLAYER
 10
934.5951193423
 20
242.9672532468
 40
3.25
100
AcDbArc
 50
270.0
 51
90.0
  0
CIRCLE
  5
444
100
AcDbEntity
  8
3
100
AcDbCircle
 62
7
  6
BYLAYER
 10
927.9843400673
 20
212.9672532468
 40
3.0
  0
CIRCLE
  5
445
100
AcDbEntity
  8
3
100
AcDbCircle
 62
7
  6
BYLAYER
 10
927.9843400673
 20
242.9672532468
 40
3.0
  0
ARC
  5
446
100
AcDbEntity
  8
0
100
AcDbCircle
 62
7
  6
BYLAYER
 10
951.7838650258
 20
159.0190781235
 40
1.0
100
AcDbArc
 50
270.0
 51
305.71908683
  0
ARC
  5
447
100
AcDbEntity
  8
0
100
AcDbCircle
 62
7
  6
BYLAYER
 10
950.7843400659
 20
159.0190781235
 40
1.0
100
AcDbArc
 50
270.0
 51
360.0
  0
ARC
  5
448
100
AcDbEntity
  8
0
100
AcDbCircle
 62
7
  6
BYLAYER
 10
946.1843400659
 20
159.0190781235
 40
1.0
100
AcDbArc
 50
180.0
 51
270.0
  0
ARC
  5
449
100
AcDbEntity
  8
0
100
AcDbCircle
 62
7
  6
BYLAYER
 10
943.9843400688
 20
159.118967985
 40
1.0
100
AcDbArc
 50
270.0
 51
360.0
  0
ARC
  5
44A
100
AcDbEntity
  8
0
100
AcDbCircle
 62
7
  6
BYLAYER
 10
951.9843400688
 20
159.118967985
 40
1.0
100
AcDbArc
 50
270.0
 51
359.9999999999
  0
ARC
  5
44B
100
AcDbEntity
  8
0
100
AcDbCircle
 62
7
  6
BYLAYER
 10
945.4843400688
 20
160.118967985
 40
0.5
100
AcDbArc
 50
90.0
 51
180.0
  0
ARC
  5
44C
100
AcDbEntity
  8
0
100
AcDbCircle
 62
7
  6
BYLAYER
 10
952.4843400688
 20
161.118967985
 40
0.5
100
AcDbArc
 50
270.0
 51
360.0
  0
CIRCLE
  5
44D
100
AcDbEntity
  8
3
100
AcDbCircle
 62
7
  6
BYLAYER
 10
927.9843400673
 20
1160.2513940865
 40
6.3525
  0
ARC
  5
44E
100
AcDbEntity
  8
3
100
AcDbCircle
 62
7
  6
BYLAYER
 10
937.7951193423
 20
1155.2513940865
 40
5.0
100
AcDbArc
 50
270.0
 51
360.0
  0
ARC
  5
44F
100
AcDbEntity
  8
3
100
AcDbCircle
 62
7
  6
BYLAYER
 10
934.5951193423
 20
1160.2513940865
 40
3.25
100
AcDbArc
 50
270.0
 51
90.0
  0
CIRCLE
  5
450
100
AcDbEntity
  8
3
100
AcDbCircle
 62
7
  6
BYLAYER
 10
927.9843400673
 20
1160.2513940865
 40
3.0
  0
ARC
  5
451
100
AcDbEntity
  8
3
100
AcDbCircle
 62
7
  6
BYLAYER
 10
921.0951193423
 20
1190.2513940865
 40
3.25
100
AcDbArc
 50
90.0
 51
270.0
  0
ARC
  5
452
100
AcDbEntity
  8
0
100
AcDbCircle
 62
7
  6
BYLAYER
 10
904.1836122577
 20
2190.7190781235
 40
1.0
100
AcDbArc
 50
90.0
 51
125.746880854
  0
ARC
  5
453
100
AcDbEntity
  8
0
100
AcDbCircle
 62
7
  6
BYLAYER
 10
905.1836122577
 20
2190.7190781235
 40
1.0
100
AcDbArc
 50
90.0
 51
180.0
  0
ARC
  5
454
100
AcDbEntity
  8
0
100
AcDbCircle
 62
7
  6
BYLAYER
 10
909.7836122577
 20
2190.7190781235
 40
1.0
100
AcDbArc
 50
0.0
 51
90.0
  0
ARC
  5
455
100
AcDbEntity
  8
0
100
AcDbCircle
 62
7
  6
BYLAYER
 10
903.9836122577
 20
2190.6190781235
 40
1.0
100
AcDbArc
 50
90.0
 51
179.9999999999
  0
ARC
  5
456
100
AcDbEntity
  8
0
100
AcDbCircle
 62
7
  6
BYLAYER
 10
911.9836122577
 20
2190.6190781235
 40
1.0
100
AcDbArc
 50
90.0
 51
180.0
  0
ARC
  5
457
100
AcDbEntity
  8
0
100
AcDbCircle
 62
7
  6
BYLAYER
 10
910.4836122577
 20
2189.6190781235
 40
0.5
100
AcDbArc
 50
270.0
 51
360.0
  0
ARC
  5
458
100
AcDbEntity
  8
0
100
AcDbCircle
 62
7
  6
BYLAYER
 10
903.4836122577
 20
2188.6190781235
 40
0.5
100
AcDbArc
 50
90.0
 51
180.0
  0
ARC
  5
459
100
AcDbEntity
  8
0
100
AcDbCircle
 62
7
  6
BYLAYER
 10
910.9836299196
 20
2188.1190783066
 40
0.4999999532
100
AcDbArc
 50
102.1804098124
 51
282.180210997
  0
ARC
  5
45A
100
AcDbEntity
  8
0
100
AcDbCircle
 62
7
  6
BYLAYER
 10
915.1593922577
 20
2199.3190781235
 40
0.3
100
AcDbArc
 50
90.0
 51
180.0
  0
ARC
  5
45B
100
AcDbEntity
  8
3
100
AcDbCircle
 62
7
  6
BYLAYER
 10
921.0951193423
 20
2109.3021557076
 40
3.25
100
AcDbArc
 50
90.0
 51
270.0
  0
ARC
  5
45C
100
AcDbEntity
  8
3
100
AcDbCircle
 62
7
  6
BYLAYER
 10
921.0951193423
 20
2139.3021557076
 40
3.25
100
AcDbArc
 50
90.0
 51
270.0
  0
ARC
  5
45D
100
AcDbEntity
  8
0
100
AcDbCircle
 62
7
  6
BYLAYER
 10
922.9836122577
 20
2190.6190781235
 40
1.0
100
AcDbArc
 50
0.0
 51
90.0
  0
ARC
  5
45E
100
AcDbEntity
  8
0
100
AcDbCircle
 62
7
  6
BYLAYER
 10
926.9835945958
 20
2188.1190783066
 40
0.4999999532
100
AcDbArc
 50
257.819789003
 51
77.8195901876
  0
ARC
  5
45F
100
AcDbEntity
  8
0
100
AcDbCircle
 62
7
  6
BYLAYER
 10
922.8093922577
 20
2199.3190781235
 40
0.3
100
AcDbArc
 50
0.0
 51
90.0
  0
CIRCLE
  5
460
100
AcDbEntity
  8
3
100
AcDbCircle
 62
7
  6
BYLAYER
 10
927.9843400673
 20
1190.2513940865
 40
6.3525
  0
ARC
  5
461
100
AcDbEntity
  8
3
100
AcDbCircle
 62
7
  6
BYLAYER
 10
937.7951193423
 20
1195.2513940865
 40
5.0
100
AcDbArc
 50
0.0
 51
90.0
  0
ARC
  5
462
100
AcDbEntity
  8
3
100
AcDbCircle
 62
7
  6
BYLAYER
 10
934.5951193423
 20
1190.2513940865
 40
3.25
100
AcDbArc
 50
270.0
 51
90.0
  0
CIRCLE
  5
463
100
AcDbEntity
  8
3
100
AcDbCircle
 62
7
  6
BYLAYER
 10
927.9843400673
 20
1190.2513940865
 40
3.0
  0
CIRCLE
  5
464
100
AcDbEntity
  8
3
100
AcDbCircle
 62
7
  6
BYLAYER
 10
927.9843400673
 20
2139.3021557076
 40
6.3525
  0
CIRCLE
  5
465
100
AcDbEntity
  8
3
100
AcDbCircle
 62
7
  6
BYLAYER
 10
927.9843400673
 20
2109.3021557076
 40
6.3525
  0
ARC
  5
466
100
AcDbEntity
  8
3
100
AcDbCircle
 62
7
  6
BYLAYER
 10
937.7951193423
 20
2104.3021557076
 40
5.0
100
AcDbArc
 50
270.0
 51
360.0
  0
ARC
  5
467
100
AcDbEntity
  8
3
100
AcDbCircle
 62
7
  6
BYLAYER
 10
937.7951193423
 20
2144.3021557076
 40
5.0
100
AcDbArc
 50
0.0
 51
90.0
  0
ARC
  5
468
100
AcDbEntity
  8
3
100
AcDbCircle
 62
7
  6
BYLAYER
 10
934.5951193423
 20
2109.3021557076
 40
3.25
100
AcDbArc
 50
270.0
 51
90.0
  0
ARC
  5
469
100
AcDbEntity
  8
3
100
AcDbCircle
 62
7
  6
BYLAYER
 10
934.5951193423
 20
2139.3021557076
 40
3.25
100
AcDbArc
 50
270.0
 51
90.0
  0
CIRCLE
  5
46A
100
AcDbEntity
  8
3
100
AcDbCircle
 62
7
  6
BYLAYER
 10
927.9843400673
 20
2109.3021557076
 40
3.0
  0
CIRCLE
  5
46B
100
AcDbEntity
  8
3
100
AcDbCircle
 62
7
  6
BYLAYER
 10
927.9843400673
 20
2139.3021557076
 40
3.0
  0
ARC
  5
46C
100
AcDbEntity
  8
0
100
AcDbCircle
 62
7
  6
BYLAYER
 10
932.9836122577
 20
2190.6190781235
 40
1.0
100
AcDbArc
 50
90.0
 51
180.0000000008
  0
ARC
  5
46D
100
AcDbEntity
  8
0
100
AcDbCircle
 62
7
  6
BYLAYER
 10
928.9836299202
 20
2188.1190783063
 40
0.4999999534
100
AcDbArc
 50
102.1571786862
 51
282.1569797606
  0
ARC
  5
46E
100
AcDbEntity
  8
0
100
AcDbCircle
 62
7
  6
BYLAYER
 10
933.1603722577
 20
2199.3190781235
 40
0.3
100
AcDbArc
 50
90.0
 51
180.0
  0
ARC
  5
46F
100
AcDbEntity
  8
0
100
AcDbCircle
 62
7
  6
BYLAYER
 10
951.7836122577
 20
2190.7190781235
 40
1.0
100
AcDbArc
 50
54.2529864704
 51
90.0
  0
ARC
  5
470
100
AcDbEntity
  8
0
100
AcDbCircle
 62
7
  6
BYLAYER
 10
946.1836122577
 20
2190.7190781235
 40
1.0
100
AcDbArc
 50
90.0
 51
180.0
  0
ARC
  5
471
100
AcDbEntity
  8
0
100
AcDbCircle
 62
7
  6
BYLAYER
 10
950.7836122577
 20
2190.7190781235
 40
1.0
100
AcDbArc
 50
0.0
 51
90.0
  0
ARC
  5
472
100
AcDbEntity
  8
0
100
AcDbCircle
 62
7
  6
BYLAYER
 10
943.9836122577
 20
2190.6190781235
 40
1.0
100
AcDbArc
 50
0.0
 51
90.0
  0
ARC
  5
473
100
AcDbEntity
  8
0
100
AcDbCircle
 62
7
  6
BYLAYER
 10
951.9836122577
 20
2190.6190781235
 40
1.0
100
AcDbArc
 50
0.0
 51
90.0
  0
ARC
  5
474
100
AcDbEntity
  8
0
100
AcDbCircle
 62
7
  6
BYLAYER
 10
952.4836122577
 20
2188.6190781235
 40
0.5
100
AcDbArc
 50
0.0
 51
90.0
  0
ARC
  5
475
100
AcDbEntity
  8
0
100
AcDbCircle
 62
7
  6
BYLAYER
 10
945.4836122577
 20
2189.6190781235
 40
0.5
100
AcDbArc
 50
180.0
 51
270.0
  0
ARC
  5
476
100
AcDbEntity
  8
0
100
AcDbCircle
 62
7
  6
BYLAYER
 10
944.9835945953
 20
2188.1190783063
 40
0.4999999534
100
AcDbArc
 50
257.8430202394
 51
77.8428213138
  0
ARC
  5
477
100
AcDbEntity
  8
0
100
AcDbCircle
 62
7
  6
BYLAYER
 10
940.8103722577
 20
2199.3190781235
 40
0.3
100
AcDbArc
 50
0.0
 51
90.0
  0
SPLINE
  5
478
100
AcDbEntity
  8
0
100
AcDbSpline
 62
7
  6
BYLAYER
 70
0
 71
3
 72
11
 73
7
 74
0
 42
0.0000001
 43
0.0000001
 44
0.0000000001
 40
0.0
 40
0.0
 40
0.0
 40
0.0
 40
0.1598605771
 40
0.3733762137
 40
0.6595504004
 40
1.0
 40
1.0
 40
1.0
 40
1.0
 10
932.983614292
 20
2191.6190781239
 30
0.0
 10
932.9194702109
 20
2191.6190649926
 30
0.0
 10
932.7707068013
 20
2191.5534959158
 30
0.0
 10
932.6162274871
 20
2191.3305972437
 30
0.0
 10
932.5084748779
 20
2191.0083335381
 30
0.0
 10
932.4836134435
 20
2190.7556835806
 30
0.0
 10
932.4836127986
 20
2190.6190781236
 30
0.0
  0
SPLINE
  5
479
100
AcDbEntity
  8
0
100
AcDbSpline
 62
7
  6
BYLAYER
 70
0
 71
3
 72
11
 73
7
 74
0
 42
0.0000001
 43
0.0000001
 44
0.0000000001
 40
0.0
 40
0.0
 40
0.0
 40
0.0
 40
0.2478327053
 40
0.4979558062
 40
0.7486361583
 40
1.0
 40
1.0
 40
1.0
 40
1.0
 10
911.9836122577
 20
2189.6190781235
 30
0.0
 10
911.9836118222
 20
2189.454956508
 30
0.0
 10
911.851452344
 20
2189.1248777941
 30
0.0
 10
911.4639352309
 20
2188.7983496171
 30
0.0
 10
910.9853692406
 20
2188.6256038971
 30
0.0
 10
910.6500722886
 20
2188.6190780822
 30
0.0
 10
910.4836122577
 20
2188.6190781235
 30
0.0
  0
SPLINE
  5
47A
100
AcDbEntity
  8
0
100
AcDbSpline
 62
7
  6
BYLAYER
 70
0
 71
3
 72
13
 73
9
 74
0
 42
0.0000001
 43
0.0000001
 44
0.0000000001
 40
0.0
 40
0.0
 40
0.0
 40
0.0
 40
0.263683202
 40
0.5741154223
 40
0.7239646888
 40
0.8563112027
 40
0.9572588386
 40
1.0
 40
1.0
 40
1.0
 40
1.0
 10
903.9836122694
 20
2189.6190781235
 30
0.0
 10
903.9836121145
 20
2189.5557841088
 30
0.0
 10
903.8893818619
 20
2189.4333833328
 30
0.0
 10
903.7620312231
 20
2189.3236307326
 30
0.0
 10
903.6513255337
 20
2189.2330787323
 30
0.0
 10
903.5758382071
 20
2189.1803949454
 30
0.0
 10
903.5256035285
 20
2189.1374887945
 30
0.0
 10
903.4899835284
 20
2189.1271195506
 30
0.0
 10
903.483612266
 20
2189.1190781264
 30
0.0
  0
SPLINE
  5
47B
100
AcDbEntity
  8
0
100
AcDbSpline
 62
7
  6
BYLAYER
 70
0
 71
3
 72
13
 73
9
 74
0
 42
0.0000001
 43
0.0000001
 44
0.0000000001
 40
0.0
 40
0.0
 40
0.0
 40
0.0
 40
0.0427411614
 40
0.1436887974
 40
0.2760353115
 40
0.425884578
 40
0.7363167985
 40
1.0
 40
1.0
 40
1.0
 40
1.0
 10
952.4836122503
 20
2189.1190781264
 30
0.0
 10
952.4772441932
 20
2189.1271220891
 30
0.0
 10
952.4416173812
 20
2189.1374859381
 30
0.0
 10
952.3913880128
 20
2189.1803962946
 30
0.0
 10
952.3158984135
 20
2189.2330782816
 30
0.0
 10
952.2051936539
 20
2189.3236310182
 30
0.0
 10
952.0778425437
 20
2189.4333832448
 30
0.0
 10
951.9836124027
 20
2189.555784109
 30
0.0
 10
951.9836122478
 20
2189.6190781235
 30
0.0
  0
SPLINE
  5
47C
100
AcDbEntity
  8
0
100
AcDbSpline
 62
7
  6
BYLAYER
 70
0
 71
3
 72
11
 73
7
 74
0
 42
0.0000001
 43
0.0000001
 44
0.0000000001
 40
0.0
 40
0.0
 40
0.0
 40
0.0
 40
0.3404385698
 40
0.6266185405
 40
0.8401374976
 40
1.0
 40
1.0
 40
1.0
 40
1.0
 10
923.4836108346
 20
2190.6190781235
 30
0.0
 10
923.4836108342
 20
2190.7556791417
 30
0.0
 10
923.4587493202
 20
2191.0083269317
 30
0.0
 10
923.35099975
 20
2191.3305902597
 30
0.0
 10
923.196519485
 20
2191.5534949689
 30
0.0
 10
923.0477541641
 20
2191.6190636302
 30
0.0
 10
922.9836093169
 20
2191.619078124
 30
0.0
  0
SPLINE
  5
47D
100
AcDbEntity
  8
0
100
AcDbSpline
 62
7
  6
BYLAYER
 70
0
 71
3
 72
11
 73
7
 74
0
 42
0.0000001
 43
0.0000001
 44
0.0000000001
 40
0.0
 40
0.0
 40
0.0
 40
0.0
 40
0.2478325037
 40
0.497955658
 40
0.7486362695
 40
1.0
 40
1.0
 40
1.0
 40
1.0
 10
943.9836122577
 20
2189.6190781235
 30
0.0
 10
943.9836126934
 20
2189.4549566413
 30
0.0
 10
944.1157720198
 20
2189.1248780214
 30
0.0
 10
944.5032891103
 20
2188.798349659
 30
0.0
 10
944.9818552584
 20
2188.6256039216
 30
0.0
 10
945.3171523003
 20
2188.6190780822
 30
0.0
 10
945.4836122577
 20
2188.6190781235
 30
0.0
  0
SPLINE
  5
47E
100
AcDbEntity
  8
0
100
AcDbSpline
 62
7
  6
BYLAYER
 70
0
 71
3
 72
11
 73
7
 74
0
 42
0.0000001
 43
0.0000001
 44
0.0000000001
 40
0.0
 40
0.0
 40
0.0
 40
0.0
 40
0.2478327053
 40
0.4979558062
 40
0.7486361583
 40
1.0
 40
1.0
 40
1.0
 40
1.0
 10
764.3344813692
 20
2189.6190781235
 30
0.0
 10
764.3344809337
 20
2189.454956508
 30
0.0
 10
764.2023214555
 20
2189.1248777941
 30
0.0
 10
763.8148043424
 20
2188.7983496171
 30
0.0
 10
763.3362383521
 20
2188.6256038971
 30
0.0
 10
763.0009414
 20
2188.6190780822
 30
0.0
 10
762.8344813692
 20
2188.6190781235
 30
0.0
  0
SPLINE
  5
47F
100
AcDbEntity
  8
0
100
AcDbSpline
 62
7
  6
BYLAYER
 70
0
 71
3
 72
13
 73
9
 74
0
 42
0.0000001
 43
0.0000001
 44
0.0000000001
 40
0.0
 40
0.0
 40
0.0
 40
0.0
 40
0.263683202
 40
0.5741154223
 40
0.7239646887
 40
0.8563112027
 40
0.9572588386
 40
1.0
 40
1.0
 40
1.0
 40
1.0
 10
756.3344813809
 20
2189.6190781235
 30
0.0
 10
756.334481226
 20
2189.5557841088
 30
0.0
 10
756.2402509711
 20
2189.4333833346
 30
0.0
 10
756.1129003419
 20
2189.3236307268
 30
0.0
 10
756.0021946335
 20
2189.2330787416
 30
0.0
 10
755.9267073537
 20
2189.1803949176
 30
0.0
 10
755.8764725658
 20
2189.1374888533
 30
0.0
 10
755.8408527057
 20
2189.1271194984
 30
0.0
 10
755.8344813775
 20
2189.1190781264
 30
0.0
  0
SPLINE
  5
480
100
AcDbEntity
  8
0
100
AcDbSpline
 62
7
  6
BYLAYER
 70
0
 71
3
 72
13
 73
9
 74
0
 42
0.0000001
 43
0.0000001
 44
0.0000000001
 40
0.0
 40
0.0
 40
0.0
 40
0.0
 40
0.0427411614
 40
0.1436887974
 40
0.2760353115
 40
0.425884578
 40
0.7363167985
 40
1.0
 40
1.0
 40
1.0
 40
1.0
 10
804.8344813618
 20
2189.1190781264
 30
0.0
 10
804.8281133047
 20
2189.1271220891
 30
0.0
 10
804.7924864927
 20
2189.1374859381
 30
0.0
 10
804.7422571242
 20
2189.1803962946
 30
0.0
 10
804.666767525
 20
2189.2330782816
 30
0.0
 10
804.5560627653
 20
2189.3236310182
 30
0.0
 10
804.4287116552
 20
2189.4333832448
 30
0.0
 10
804.3344815142
 20
2189.555784109
 30
0.0
 10
804.3344813593
 20
2189.6190781235
 30
0.0
  0
SPLINE
  5
481
100
AcDbEntity
  8
0
100
AcDbSpline
 62
7
  6
BYLAYER
 70
0
 71
3
 72
11
 73
7
 74
0
 42
0.0000001
 43
0.0000001
 44
0.0000000001
 40
0.0
 40
0.0
 40
0.0
 40
0.0
 40
0.3404385698
 40
0.6266185405
 40
0.8401374976
 40
1.0
 40
1.0
 40
1.0
 40
1.0
 10
775.8344799461
 20
2190.6190781235
 30
0.0
 10
775.8344799456
 20
2190.7556791417
 30
0.0
 10
775.8096184317
 20
2191.0083269317
 30
0.0
 10
775.7018688615
 20
2191.3305902597
 30
0.0
 10
775.5473885965
 20
2191.5534949689
 30
0.0
 10
775.3986232756
 20
2191.6190636302
 30
0.0
 10
775.3344784284
 20
2191.619078124
 30
0.0
  0
SPLINE
  5
482
100
AcDbEntity
  8
0
100
AcDbSpline
 62
7
  6
BYLAYER
 70
0
 71
3
 72
11
 73
7
 74
0
 42
0.0000001
 43
0.0000001
 44
0.0000000001
 40
0.0
 40
0.0
 40
0.0
 40
0.0
 40
0.2478325037
 40
0.497955658
 40
0.7486362695
 40
1.0
 40
1.0
 40
1.0
 40
1.0
 10
796.3344813692
 20
2189.6190781235
 30
0.0
 10
796.3344818049
 20
2189.4549566413
 30
0.0
 10
796.4666411313
 20
2189.1248780214
 30
0.0
 10
796.8541582218
 20
2188.798349659
 30
0.0
 10
797.3327243699
 20
2188.6256039216
 30
0.0
 10
797.6680214118
 20
2188.6190780822
 30
0.0
 10
797.8344813692
 20
2188.6190781235
 30
0.0
  0
SPLINE
  5
483
100
AcDbEntity
  8
0
100
AcDbSpline
 62
7
  6
BYLAYER
 70
0
 71
3
 72
11
 73
7
 74
0
 42
0.0000001
 43
0.0000001
 44
0.0000000001
 40
0.0
 40
0.0
 40
0.0
 40
0.0
 40
0.1598605771
 40
0.3733762137
 40
0.6595504004
 40
1.0
 40
1.0
 40
1.0
 40
1.0
 10
785.3344834035
 20
2191.6190781239
 30
0.0
 10
785.2703393224
 20
2191.6190649926
 30
0.0
 10
785.1215759128
 20
2191.5534959158
 30
0.0
 10
784.9670965986
 20
2191.3305972437
 30
0.0
 10
784.8593439893
 20
2191.0083335381
 30
0.0
 10
784.834482555
 20
2190.7556835806
 30
0.0
 10
784.8344819101
 20
2190.6190781236
 30
0.0
  0
SPLINE
  5
484
100
AcDbEntity
  8
0
100
AcDbSpline
 62
7
  6
BYLAYER
 70
0
 71
3
 72
11
 73
7
 74
0
 42
0.0000001
 43
0.0000001
 44
0.0000000001
 40
0.0
 40
0.0
 40
0.0
 40
0.0
 40
0.3404385698
 40
0.6266185405
 40
0.8401374976
 40
1.0
 40
1.0
 40
1.0
 40
1.0
 10
932.4843414919
 20
159.118967985
 30
0.0
 10
932.4843414924
 20
158.9823669669
 30
0.0
 10
932.5092030063
 20
158.7297191769
 30
0.0
 10
932.6169525765
 20
158.4074558489
 30
0.0
 10
932.7714328415
 20
158.1845511397
 30
0.0
 10
932.9201981624
 20
158.1189824783
 30
0.0
 10
932.9843430096
 20
158.1189679846
 30
0.0
  0
SPLINE
  5
485
100
AcDbEntity
  8
0
100
AcDbSpline
 62
7
  6
BYLAYER
 70
0
 71
3
 72
11
 73
7
 74
0
 42
0.0000001
 43
0.0000001
 44
0.0000000001
 40
0.0
 40
0.0
 40
0.0
 40
0.0
 40
0.1598605678
 40
0.3733761936
 40
0.6595503807
 40
1.0
 40
1.0
 40
1.0
 40
1.0
 10
922.9843381269
 20
158.1189679847
 30
0.0
 10
923.0484822053
 20
158.1189811089
 30
0.0
 10
923.1972456163
 20
158.1845501714
 30
0.0
 10
923.3517249372
 20
158.4074488357
 30
0.0
 10
923.4594775544
 20
158.7297125482
 30
0.0
 10
923.4843389918
 20
158.9823625179
 30
0.0
 10
923.4843396368
 20
159.118967985
 30
0.0
  0
SPLINE
  5
486
100
AcDbEntity
  8
0
100
AcDbSpline
 62
7
  6
BYLAYER
 70
0
 71
3
 72
13
 73
9
 74
0
 42
0.0000001
 43
0.0000001
 44
0.0000000001
 40
0.0
 40
0.0
 40
0.0
 40
0.0
 40
0.0427411615
 40
0.1436887974
 40
0.2760353115
 40
0.425884578
 40
0.7363167985
 40
1.0
 40
1.0
 40
1.0
 40
1.0
 10
903.4843400762
 20
160.6189679822
 30
0.0
 10
903.4907081333
 20
160.6109240195
 30
0.0
 10
903.5263349453
 20
160.6005601704
 30
0.0
 10
903.5765643138
 20
160.557649814
 30
0.0
 10
903.652053913
 20
160.504967827
 30
0.0
 10
903.7627586727
 20
160.4144150904
 30
0.0
 10
903.8901097828
 20
160.3046628637
 30
0.0
 10
903.9843399238
 20
160.1822619996
 30
0.0
 10
903.9843400787
 20
160.118967985
 30
0.0
  0
SPLINE
  5
487
100
AcDbEntity
  8
0
100
AcDbSpline
 62
7
  6
BYLAYER
 70
0
 71
3
 72
11
 73
7
 74
0
 42
0.0000001
 43
0.0000001
 44
0.0000000001
 40
0.0
 40
0.0
 40
0.0
 40
0.0
 40
0.2478325037
 40
0.497955658
 40
0.7486362695
 40
1.0
 40
1.0
 40
1.0
 40
1.0
 10
911.9843400688
 20
160.118967985
 30
0.0
 10
911.9843396331
 20
160.2830894673
 30
0.0
 10
911.8521803067
 20
160.6131680872
 30
0.0
 10
911.4646632162
 20
160.9396964496
 30
0.0
 10
910.9860970681
 20
161.1124421869
 30
0.0
 10
910.6508000262
 20
161.1189680264
 30
0.0
 10
910.4843400688
 20
161.118967985
 30
0.0
  0
SPLINE
  5
488
100
AcDbEntity
  8
0
100
AcDbSpline
 62
7
  6
BYLAYER
 70
0
 71
3
 72
11
 73
7
 74
0
 42
0.0000001
 43
0.0000001
 44
0.0000000001
 40
0.0
 40
0.0
 40
0.0
 40
0.0
 40
0.2478327053
 40
0.4979558062
 40
0.7486361583
 40
1.0
 40
1.0
 40
1.0
 40
1.0
 10
943.9843400688
 20
160.118967985
 30
0.0
 10
943.9843405043
 20
160.2830896005
 30
0.0
 10
944.1164999825
 20
160.6131683145
 30
0.0
 10
944.5040170956
 20
160.9396964914
 30
0.0
 10
944.9825830859
 20
161.1124422115
 30
0.0
 10
945.317880038
 20
161.1189680264
 30
0.0
 10
945.4843400688
 20
161.118967985
 30
0.0
  0
SPLINE
  5
489
100
AcDbEntity
  8
0
100
AcDbSpline
 62
7
  6
BYLAYER
 70
0
 71
3
 72
13
 73
9
 74
0
 42
0.0000001
 43
0.0000001
 44
0.0000000001
 40
0.0
 40
0.0
 40
0.0
 40
0.0
 40
0.263683202
 40
0.5741154223
 40
0.7239646887
 40
0.8563112027
 40
0.9572588386
 40
1.0
 40
1.0
 40
1.0
 40
1.0
 10
951.9843400571
 20
160.118967985
 30
0.0
 10
951.984340212
 20
160.1822619998
 30
0.0
 10
952.0785704719
 20
160.3046627701
 30
0.0
 10
952.2059210801
 20
160.4144153944
 30
0.0
 10
952.3166268297
 20
160.504967347
 30
0.0
 10
952.392114009
 20
160.5576512507
 30
0.0
 10
952.4423490318
 20
160.6005571288
 30
0.0
 10
952.4779685904
 20
160.6109267225
 30
0.0
 10
952.4843400605
 20
160.6189679822
 30
0.0
  0
SPLINE
  5
48A
100
AcDbEntity
  8
0
100
AcDbSpline
 62
7
  6
BYLAYER
 70
0
 71
3
 72
11
 73
7
 74
0
 42
0.0000001
 43
0.0000001
 44
0.0000000001
 40
0.0
 40
0.0
 40
0.0
 40
0.0
 40
0.3404385699
 40
0.6266185405
 40
0.8401374976
 40
1.0
 40
1.0
 40
1.0
 40
1.0
 10
784.8352106034
 20
159.118967985
 30
0.0
 10
784.8352106038
 20
158.9823669669
 30
0.0
 10
784.8600721178
 20
158.7297191768
 30
0.0
 10
784.9678216881
 20
158.4074558489
 30
0.0
 10
785.122301953
 20
158.1845511396
 30
0.0
 10
785.2710672739
 20
158.1189824783
 30
0.0
 10
785.3352121211
 20
158.1189679846
 30
0.0
  0
SPLINE
  5
48B
100
AcDbEntity
  8
0
100
AcDbSpline
 62
7
  6
BYLAYER
 70
0
 71
3
 72
11
 73
7
 74
0
 42
0.0000001
 43
0.0000001
 44
0.0000000001
 40
0.0
 40
0.0
 40
0.0
 40
0.0
 40
0.1598605678
 40
0.3733761936
 40
0.6595503807
 40
1.0
 40
1.0
 40
1.0
 40
1.0
 10
775.3352072384
 20
158.1189679847
 30
0.0
 10
775.3993513168
 20
158.1189811089
 30
0.0
 10
775.5481147278
 20
158.1845501714
 30
0.0
 10
775.7025940487
 20
158.4074488357
 30
0.0
 10
775.8103466658
 20
158.7297125482
 30
0.0
 10
775.8352081033
 20
158.9823625179
 30
0.0
 10
775.8352087483
 20
159.118967985
 30
0.0
  0
SPLINE
  5
48C
100
AcDbEntity
  8
0
100
AcDbSpline
 62
7
  6
BYLAYER
 70
0
 71
3
 72
13
 73
9
 74
0
 42
0.0000001
 43
0.0000001
 44
0.0000000001
 40
0.0
 40
0.0
 40
0.0
 40
0.0
 40
0.0427411614
 40
0.1436887974
 40
0.2760353115
 40
0.425884578
 40
0.7363167985
 40
1.0
 40
1.0
 40
1.0
 40
1.0
 10
755.8352091877
 20
160.6189679822
 30
0.0
 10
755.8415773108
 20
160.6109240717
 30
0.0
 10
755.8772039825
 20
160.6005601116
 30
0.0
 10
755.9274334603
 20
160.5576498418
 30
0.0
 10
756.0029230128
 20
160.5049678177
 30
0.0
 10
756.1136277916
 20
160.4144150962
 30
0.0
 10
756.240978892
 20
160.3046628619
 30
0.0
 10
756.3352090353
 20
160.1822619996
 30
0.0
 10
756.3352091902
 20
160.118967985
 30
0.0
  0
SPLINE
  5
48D
100
AcDbEntity
  8
0
100
AcDbSpline
 62
7
  6
BYLAYER
 70
0
 71
3
 72
11
 73
7
 74
0
 42
0.0000001
 43
0.0000001
 44
0.0000000001
 40
0.0
 40
0.0
 40
0.0
 40
0.0
 40
0.2478325037
 40
0.497955658
 40
0.7486362695
 40
1.0
 40
1.0
 40
1.0
 40
1.0
 10
764.3352091803
 20
160.118967985
 30
0.0
 10
764.3352087446
 20
160.2830894673
 30
0.0
 10
764.2030494182
 20
160.6131680872
 30
0.0
 10
763.8155323277
 20
160.9396964496
 30
0.0
 10
763.3369661796
 20
161.1124421869
 30
0.0
 10
763.0016691377
 20
161.1189680264
 30
0.0
 10
762.8352091803
 20
161.118967985
 30
0.0
  0
SPLINE
  5
48E
100
AcDbEntity
  8
0
100
AcDbSpline
 62
7
  6
BYLAYER
 70
0
 71
3
 72
11
 73
7
 74
0
 42
0.0000001
 43
0.0000001
 44
0.0000000001
 40
0.0
 40
0.0
 40
0.0
 40
0.0
 40
0.2478327053
 40
0.4979558062
 40
0.7486361583
 40
1.0
 40
1.0
 40
1.0
 40
1.0
 10
796.3352091803
 20
160.118967985
 30
0.0
 10
796.3352096158
 20
160.2830896005
 30
0.0
 10
796.467369094
 20
160.6131683145
 30
0.0
 10
796.8548862071
 20
160.9396964914
 30
0.0
 10
797.3334521974
 20
161.1124422115
 30
0.0
 10
797.6687491494
 20
161.1189680264
 30
0.0
 10
797.8352091803
 20
161.118967985
 30
0.0
  0
SPLINE
  5
48F
100
AcDbEntity
  8
0
100
AcDbSpline
 62
7
  6
BYLAYER
 70
0
 71
3
 72
13
 73
9
 74
0
 42
0.0000001
 43
0.0000001
 44
0.0000000001
 40
0.0
 40
0.0
 40
0.0
 40
0.0
 40
0.263683202
 40
0.5741154223
 40
0.7239646887
 40
0.8563112027
 40
0.9572588386
 40
1.0
 40
1.0
 40
1.0
 40
1.0
 10
804.3352091686
 20
160.118967985
 30
0.0
 10
804.3352093235
 20
160.1822619998
 30
0.0
 10
804.4294395835
 20
160.30466277
 30
0.0
 10
804.5567901912
 20
160.4144153947
 30
0.0
 10
804.6674959418
 20
160.5049673465
 30
0.0
 10
804.7429831187
 20
160.5576512521
 30
0.0
 10
804.793218147
 20
160.6005571258
 30
0.0
 10
804.8288376986
 20
160.6109267252
 30
0.0
 10
804.835209172
 20
160.6189679822
 30
0.0
  0
ENDSEC
  0
SECTION
  2
OBJECTS
  0
DICTIONARY
  5
C
100
AcDbDictionary
280
0
281
1
  3
ACAD_GROUP
350
D
  3
ACAD_MLINESTYLE
350
17
  3
ACAD_LAYOUT
350
1A
  3
ACAD_PLOTSETTINGS
350
19
  3
ACAD_PLOTSTYLENAME
350
E
  0
DICTIONARY
  5
D
102
{ACAD_REACTORS
330
C
102
}
100
AcDbDictionary
280
0
281
1
  0
ACDBDICTIONARYWDFLT
  5
E
102
{ACAD_REACTORS
330
C
102
}
100
AcDbDictionary
281
1
  3
Normal
350
F
100
AcDbDictionaryWithDefault
340
F
  0
DICTIONARY
  5
17
102
{ACAD_REACTORS
330
C
102
}
100
AcDbDictionary
280
0
281
1
  3
Standard
350
18
  0
DICTIONARY
  5
19
102
{ACAD_REACTORS
330
C
102
}
100
AcDbDictionary
281
1
  0
DICTIONARY
  5
1A
102
{ACAD_REACTORS
330
C
102
}
100
AcDbDictionary
281
1
  3
Model
350
490
  3
Layout1
350
491
  0
ACDBPLACEHOLDER
  5
F
102
{ACAD_REACTORS
330
E
102
}
  0
MLINESTYLE
  5
18
102
{ACAD_REACTORS
330
17
102
}
100
AcDbMlineStyle
  2
STANDARD
 70
0
  3

 62
256
 51
90.0
 52
90.0
 71
2
 49
0.5
 62
256
  6
BYLAYER
 49
-0.5
 62
256
  6
BYLAYER
  0
LAYOUT
  5
490
102
{ACAD_REACTORS
330
1A
102
}
100
AcDbPlotSettings
  1

  2
none_device
  4

  6

 40
0.0
 41
0.0
 42
0.0
 43
0.0
 44
210.0
 45
297.0
 46
0.0
 47
0.0
 48
0.0
 49
0.0
140
0.0
141
0.0
142
1.0
143
1.0
 70
1024
 72
1
 73
0
 74
0
  7

 75
0
147
1.0
148
0.0
149
0.0
100
AcDbLayout
  1
Model
 70
0
 71
0
 10
0.0
 20
0.0
 11
210.0
 21
297.0
 12
0.0
 22
0.0
 32
0.0
 14
0.0
 24
0.0
 34
0.0
 15
0.0
 25
0.0
 35
0.0
146
0.0
 13
0.0
 23
0.0
 33
0.0
 16
1.0
 26
0.0
 36
0.0
 17
0.0
 27
1.0
 37
0.0
 76
0
330
212
345
0
346
0
  0
LAYOUT
  5
491
102
{ACAD_REACTORS
330
1A
102
}
100
AcDbPlotSettings
  1

  2
none_device
  4

  6

 40
0.0
 41
0.0
 42
0.0
 43
0.0
 44
210.0
 45
297.0
 46
0.0
 47
0.0
 48
0.0
 49
0.0
140
0.0
141
0.0
142
1.0
143
1.0
 70
0
 72
1
 73
0
 74
0
  7

 75
0
147
1.0
148
0.0
149
0.0
100
AcDbLayout
  1
Layout1
 70
0
 71
1
 10
0.0
 20
0.0
 11
210.0
 21
297.0
 12
0.0
 22
0.0
 32
0.0
 14
0.0
 24
0.0
 34
0.0
 15
0.0
 25
0.0
 35
0.0
146
0.0
 13
0.0
 23
0.0
 33
0.0
 16
1.0
 26
0.0
 36
0.0
 17
0.0
 27
1.0
 37
0.0
 76
0
330
213
345
0
346
0
  0
ENDSEC
  0
EOF
