999
DXF file: C:\2D\Gen2D\CAD\GVAN20_3D-CAD\drw0001_1.dxf
999
Pro/ENGINEER 2019471 by Parametric Technology Corporation
  0
SECTION
  2
HEADER
  9
$ACADVER
  1
AC1024
  9
$DWGCODEPAGE
  3
ANSI_1252
  9
$EXTMAX
 10
72.9505444225
 20
103.1729128262
 30
0.0
  9
$EXTMIN
 10
0.0
 20
0.0
 30
0.0
  9
$LIMMIN
 10
0.0
 20
0.0
  9
$LIMMAX
 10
72.9505444225
 20
103.1729128262
  9
$VIEWCTR
 10
36.4752722113
 20
51.5864564131
  9
$VIEWSIZE
 40
103.1729128262
  9
$CLAYER
  8
0
  9
$LTSCALE
 40
6.7253454287
  9
$CELTYPE
  6
BYLAYER
  9
$DIMSCALE
 40
1.0
  9
$DIMASZ
 40
0.8684588622
  9
$DIMEXO
 40
1.0
  9
$DIMDLI
 40
4.6466022962
  9
$DIMEXE
 40
1.0
  9
$DIMCEN
 40
1.1005110701
  9
$DIMLFAC
 40
1.0
  9
$DIMBLK
  1
_FILLED
  9
$DIMALT
 70
0
  9
$DIMALTF
 40
0.0393700787
  9
$DIMTXT
 40
1.215842407
  9
$DIMTOL
 70
1
  9
$DIMLIM
 70
0
  9
$DIMTFAC
 40
1.0
  9
$DIMTP
 40
0.01
  9
$DIMTM
 40
0.01
  9
$DIMGAP
 40
0.625
  9
$DIMDSEP
 70
46
  9
$AUNITS
 70
0
  9
$PDMODE
 70
3
  9
$PDSIZE
 40
0.3125
  9
$HANDSEED
  5
33C
  9
$TILEMODE
 70
1
  9
$MEASUREMENT
 70
1
  9
$INSUNITS
 70
4
  0
ENDSEC
  0
SECTION
  2
CLASSES
  0
CLASS
  1
ACDBDICTIONARYWDFLT
  2
AcDbDictionaryWithDefault
  3
AutoCAD 2000
 90
0
 91
1
280
0
281
0
  0
CLASS
  1
ACDBPLACEHOLDER
  2
AcDbPlaceHolder
  3
AutoCAD 2000
 90
0
 91
1
280
0
281
0
  0
CLASS
  1
LAYOUT
  2
AcDbLayout
  3
AutoCAD 2000
 90
0
 91
0
280
0
281
0
  0
ENDSEC
  0
SECTION
  2
TABLES
  0
TABLE
  2
VPORT
  5
8
100
AcDbSymbolTable
 70
2
  0
VPORT
  5
1F4
100
AcDbSymbolTableRecord
100
AcDbViewportTableRecord
  2
*ACTIVE
 70
0
 10
0.0
 20
0.0
 11
1.0
 21
1.0
 12
36.4752722113
 22
51.5864564131
 13
0.0
 23
0.0
 14
1.0
 24
1.0
 15
0.0
 25
0.0
 16
0.0
 26
0.0
 36
1.0
 17
0.0
 27
0.0
 37
0.0
 40
103.1729128262
 41
0.7070707071
 42
50.0
 43
0.0
 44
0.0
 50
0.0
 51
0.0
 71
0
 72
100
 73
1
 74
1
 75
0
 76
0
 77
0
 78
0
  0
ENDTAB
  0
TABLE
  2
LTYPE
  5
5
100
AcDbSymbolTable
 70
6
  0
LTYPE
  5
14
100
AcDbSymbolTableRecord
100
AcDbLinetypeTableRecord
  2
BYBLOCK
 70
0
  3

 72
65
 73
0
 40
0.0
  0
LTYPE
  5
15
100
AcDbSymbolTableRecord
100
AcDbLinetypeTableRecord
  2
BYLAYER
 70
0
  3

 72
65
 73
0
 40
0.0
  0
LTYPE
  5
16
100
AcDbSymbolTableRecord
100
AcDbLinetypeTableRecord
  2
CONTINUOUS
 70
64
  3
Solid line
 72
65
 73
0
 40
0.0
  0
LTYPE
  5
1F5
100
AcDbSymbolTableRecord
100
AcDbLinetypeTableRecord
  2
CENTER
 70
64
  3
____ _ ____ _ ____ _ ____ _ ____ _ ____ _ ____
 72
65
 73
4
 40
0.6
 49
0.375
 74
0
 49
-0.075
 74
0
 49
0.075
 74
0
 49
-0.075
 74
0
  0
LTYPE
  5
1F6
100
AcDbSymbolTableRecord
100
AcDbLinetypeTableRecord
  2
HIDDEN
 70
64
  3
- - - - - - - - - - - - - - - - - - - -
 72
65
 73
2
 40
0.2
 49
0.1
 74
0
 49
-0.1
 74
0
  0
LTYPE
  5
1F7
100
AcDbSymbolTableRecord
100
AcDbLinetypeTableRecord
  2
PHANTOM
 70
64
  3
_____ _ _ _____ _ _ _____ _ _ _____
 72
65
 73
6
 40
0.8
 49
0.45
 74
0
 49
-0.05
 74
0
 49
0.1
 74
0
 49
-0.05
 74
0
 49
0.1
 74
0
 49
-0.05
 74
0
  0
LTYPE
  5
1F8
100
AcDbSymbolTableRecord
100
AcDbLinetypeTableRecord
  2
DOT
 70
64
  3
. . . . . . . . . . . . . . . . . . . .
 72
65
 73
2
 40
0.2
 49
0.1
 74
0
 49
-0.1
 74
0
  0
LTYPE
  5
1F9
100
AcDbSymbolTableRecord
100
AcDbLinetypeTableRecord
  2
DASHED
 70
64
  3
- - - - - - - - - - - - - - - - - - - -
 72
65
 73
2
 40
0.2
 49
0.1
 74
0
 49
-0.1
 74
0
  0
ENDTAB
  0
TABLE
  2
LAYER
  5
2
100
AcDbSymbolTable
 70
36
  0
LAYER
  5
10
100
AcDbSymbolTableRecord
100
AcDbLayerTableRecord
  2
0
 70
0
 62
7
  6
CONTINUOUS
370
-3
390
F
  0
LAYER
  5
1FA
100
AcDbSymbolTableRecord
100
AcDbLayerTableRecord
  2
DEFAULT_1
 70
0
 62
7
  6
CENTER
370
-3
390
F
  0
LAYER
  5
1FB
100
AcDbSymbolTableRecord
100
AcDbLayerTableRecord
  2
DEFAULT_2
 70
0
 62
8
  6
HIDDEN
370
-3
390
F
  0
LAYER
  5
1FC
100
AcDbSymbolTableRecord
100
AcDbLayerTableRecord
  2
DEFAULT_3
 70
0
 62
7
  6
PHANTOM
370
-3
390
F
  0
LAYER
  5
1FD
100
AcDbSymbolTableRecord
100
AcDbLayerTableRecord
  2
00_COMPONENTS
 70
0
 62
7
  6
CONTINUOUS
370
-3
390
F
  0
LAYER
  5
1FE
100
AcDbSymbolTableRecord
100
AcDbLayerTableRecord
  2
00_COMPONENTS_1
 70
0
 62
7
  6
CONTINUOUS
370
-3
390
F
  0
LAYER
  5
1FF
100
AcDbSymbolTableRecord
100
AcDbLayerTableRecord
  2
01_1_DEFAULT_DATUMS
 70
0
 62
7
  6
CONTINUOUS
370
-3
390
F
  0
LAYER
  5
200
100
AcDbSymbolTableRecord
100
AcDbLayerTableRecord
  2
01_PLANES
 70
0
 62
7
  6
CONTINUOUS
370
-3
390
F
  0
LAYER
  5
201
100
AcDbSymbolTableRecord
100
AcDbLayerTableRecord
  2
02_COORD_SYS
 70
0
 62
7
  6
CONTINUOUS
370
-3
390
F
  0
LAYER
  5
202
100
AcDbSymbolTableRecord
100
AcDbLayerTableRecord
  2
03_AXES
 70
0
 62
7
  6
CONTINUOUS
370
-3
390
F
  0
LAYER
  5
203
100
AcDbSymbolTableRecord
100
AcDbLayerTableRecord
  2
04_POINTS
 70
0
 62
7
  6
CONTINUOUS
370
-3
390
F
  0
LAYER
  5
204
100
AcDbSymbolTableRecord
100
AcDbLayerTableRecord
  2
05_CURVES
 70
0
 62
7
  6
CONTINUOUS
370
-3
390
F
  0
LAYER
  5
205
100
AcDbSymbolTableRecord
100
AcDbLayerTableRecord
  2
06_SURFS
 70
0
 62
7
  6
CONTINUOUS
370
-3
390
F
  0
LAYER
  5
206
100
AcDbSymbolTableRecord
100
AcDbLayerTableRecord
  2
07_COSMETICS
 70
0
 62
7
  6
CONTINUOUS
370
-3
390
F
  0
LAYER
  5
207
100
AcDbSymbolTableRecord
100
AcDbLayerTableRecord
  2
10_NOTES
 70
0
 62
7
  6
CONTINUOUS
370
-3
390
F
  0
LAYER
  5
208
100
AcDbSymbolTableRecord
100
AcDbLayerTableRecord
  2
11_NOTES_PUB
 70
0
 62
7
  6
CONTINUOUS
370
-3
390
F
  0
LAYER
  5
209
100
AcDbSymbolTableRecord
100
AcDbLayerTableRecord
  2
13_REF_GTOL
 70
0
 62
7
  6
CONTINUOUS
370
-3
390
F
  0
LAYER
  5
20A
100
AcDbSymbolTableRecord
100
AcDbLayerTableRecord
  2
16_MISC
 70
0
 62
7
  6
CONTINUOUS
370
-3
390
F
  0
LAYER
  5
20B
100
AcDbSymbolTableRecord
100
AcDbLayerTableRecord
  2
17_NO_PRINT
 70
0
 62
7
  6
CONTINUOUS
370
-3
390
F
  0
LAYER
  5
20C
100
AcDbSymbolTableRecord
100
AcDbLayerTableRecord
  2
18_DATUM_CAMS_JOINTS
 70
0
 62
7
  6
CONTINUOUS
370
-3
390
F
  0
LAYER
  5
20D
100
AcDbSymbolTableRecord
100
AcDbLayerTableRecord
  2
19_DATUM_FUNCTIONAL
 70
0
 62
7
  6
CONTINUOUS
370
-3
390
F
  0
LAYER
  5
20E
100
AcDbSymbolTableRecord
100
AcDbLayerTableRecord
  2
20_DATUM_KINEMATIC_SCHEME
 70
0
 62
7
  6
CONTINUOUS
370
-3
390
F
  0
ENDTAB
  0
TABLE
  2
STYLE
  5
3
100
AcDbSymbolTable
 70
1
  0
STYLE
  5
11
100
AcDbSymbolTableRecord
100
AcDbTextStyleTableRecord
  2
STANDARD
 70
0
 40
0.0
 41
0.8
 50
0.0
 71
0
 42
0.2
  3
txt
  4

  0
STYLE
  5
20F
100
AcDbSymbolTableRecord
100
AcDbTextStyleTableRecord
  2
TEXTSTYLE_1
 70
0
 40
0.0
 41
0.8
 50
0.0
 71
0
 42
0.2
  3
gdt
  4

  0
ENDTAB
  0
TABLE
  2
VIEW
  5
6
100
AcDbSymbolTable
 70
0
  0
ENDTAB
  0
TABLE
  2
UCS
  5
7
100
AcDbSymbolTable
 70
0
  0
ENDTAB
  0
TABLE
  2
APPID
  5
9
100
AcDbSymbolTable
 70
1
  0
APPID
  5
210
100
AcDbSymbolTableRecord
100
AcDbRegAppTableRecord
  2
ACAD
 70
0
  0
ENDTAB
  0
TABLE
  2
BLOCK_RECORD
  5
1
100
AcDbSymbolTable
 70
0
  0
BLOCK_RECORD
  5
211
100
AcDbSymbolTableRecord
100
AcDbBlockTableRecord
  2
*Model_Space
  0
BLOCK_RECORD
  5
212
100
AcDbSymbolTableRecord
100
AcDbBlockTableRecord
  2
*Paper_Space
  0
BLOCK_RECORD
  5
213
100
AcDbSymbolTableRecord
100
AcDbBlockTableRecord
  2
_FILLED
  0
ENDTAB
  0
TABLE
  2
DIMSTYLE
  5
A
100
AcDbSymbolTable
 70
1
100
AcDbDimStyleTable
 71
0
  0
DIMSTYLE
105
214
100
AcDbSymbolTableRecord
100
AcDbDimStyleTableRecord
  2
STANDARD
 70
0
  3

  4

 40
1.0
 41
0.8684588622
 42
1.0
 43
0.38
 44
1.0
 45
0.0
 46
0.0
 47
0.01
 48
0.01
140
1.215842407
141
0.09
142
0.0
143
25.4
144
1.0
145
0.0
146
1.0
147
0.625
 71
1
 72
0
 73
0
 74
0
 75
0
 76
0
 77
1
 78
8
 79
2
170
0
171
1
172
0
173
0
174
0
175
0
176
0
177
0
178
0
270
2
179
2
271
2
272
2
273
2
274
2
275
0
280
0
281
0
282
0
283
1
284
8
285
0
286
0
287
3
288
0
340
11
278
46
341
213
342
213
343
213
344
213
  0
ENDTAB
  0
ENDSEC
  0
SECTION
  2
BLOCKS
  0
BLOCK
  5
20
100
AcDbEntity
  8
0
100
AcDbBlockBegin
  2
*Model_Space
 70
0
 10
0.0
 20
0.0
 30
0.0
  3
*Model_Space
  1

  0
ENDBLK
  5
21
100
AcDbEntity
  8
0
100
AcDbBlockEnd
  0
BLOCK
  5
1C
100
AcDbEntity
  8
0
100
AcDbBlockBegin
  2
*Paper_Space
 70
0
 10
0.0
 20
0.0
 30
0.0
  3
*Paper_Space
  1

  0
ENDBLK
  5
1D
100
AcDbEntity
  8
0
100
AcDbBlockEnd
  0
BLOCK
  5
215
100
AcDbEntity
  8
0
100
AcDbBlockBegin
  2
_FILLED
 70
64
 10
0.0
 20
0.0
  3
_FILLED
  1

  0
SOLID
  5
216
100
AcDbEntity
  8
0
  6
BYBLOCK
 62
0
100
AcDbTrace
 10
0.0
 20
0.0
 11
-1.0
 21
0.25
 12
-1.0
 22
-0.25
 13
-1.0
 23
-0.25
  0
ENDBLK
  5
217
100
AcDbEntity
  8
0
  6
BYBLOCK
 62
0
100
AcDbBlockEnd
  0
ENDSEC
  0
SECTION
  2
ENTITIES
  0
LINE
  5
218
100
AcDbEntity
  8
00_COMPONENTS_1
100
AcDbLine
 62
7
  6
CONTINUOUS
 10
17.2645059907
 20
11.7513270434
 11
10.6185113417
 21
15.588307039
  0
LINE
  5
219
100
AcDbEntity
  8
00_COMPONENTS_1
100
AcDbLine
 62
7
  6
CONTINUOUS
 10
17.2653416439
 20
14.7307774599
 11
10.6193469949
 21
18.5677574554
  0
LINE
  5
21A
100
AcDbEntity
  8
00_COMPONENTS_1
100
AcDbLine
 62
7
  6
CONTINUOUS
 10
17.1591179346
 20
15.1613246326
 11
10.5131232856
 21
18.9983046281
  0
LINE
  5
21B
100
AcDbEntity
  8
00_COMPONENTS_1
100
AcDbLine
 62
7
  6
CONTINUOUS
 10
16.5235559494
 20
15.6137556663
 11
11.1495220382
 21
18.7163854007
  0
LINE
  5
21C
100
AcDbEntity
  8
00_COMPONENTS_1
100
AcDbLine
 62
7
  6
CONTINUOUS
 10
59.544143757
 20
18.435280698
 11
58.4258983056
 21
18.1516971951
  0
LINE
  5
21D
100
AcDbEntity
  8
00_COMPONENTS_1
100
AcDbLine
 62
7
  6
CONTINUOUS
 10
16.5235559494
 20
17.0572708762
 11
11.1495220382
 21
20.1599006106
  0
LINE
  5
21E
100
AcDbEntity
  8
00_COMPONENTS_1
100
AcDbLine
 62
7
  6
CONTINUOUS
 10
16.5235559494
 20
17.7628510918
 11
11.1495220382
 21
20.8654808261
  0
LINE
  5
21F
100
AcDbEntity
  8
00_COMPONENTS_1
100
AcDbLine
 62
7
  6
CONTINUOUS
 10
28.7267891241
 20
11.0251654975
 11
22.3965747662
 21
14.6798337814
  0
LINE
  5
220
100
AcDbEntity
  8
00_COMPONENTS_1
100
AcDbLine
 62
7
  6
CONTINUOUS
 10
11.1495220382
 20
22.308996036
 11
16.5235559494
 21
19.2063663017
  0
LINE
  5
221
100
AcDbEntity
  8
00_COMPONENTS_1
100
AcDbLine
 62
7
  6
CONTINUOUS
 10
17.1591179346
 20
18.9172357514
 11
10.5131232856
 21
22.7542157469
  0
LINE
  5
222
100
AcDbEntity
  8
00_COMPONENTS_1
100
AcDbLine
 62
7
  6
CONTINUOUS
 10
17.2717047713
 20
19.4919419386
 11
10.6257101223
 21
23.3289219342
  0
LINE
  5
223
100
AcDbEntity
  8
00_COMPONENTS_1
100
AcDbLine
 62
7
  6
CONTINUOUS
 10
33.6594315093
 20
11.2604475787
 11
31.3969652207
 21
12.5667831834
  0
LINE
  5
224
100
AcDbEntity
  8
00_COMPONENTS_1
100
AcDbLine
 62
7
  6
CONTINUOUS
 10
40.5353173817
 20
7.9630100503
 11
34.2416403268
 21
11.5965839897
  0
LINE
  5
225
100
AcDbEntity
  8
00_COMPONENTS_1
100
AcDbLine
 62
7
  6
CONTINUOUS
 10
10.5131232856
 20
18.9983046281
 11
10.6193469949
 21
18.5677574554
  0
LINE
  5
226
100
AcDbEntity
  8
00_COMPONENTS_1
100
AcDbLine
 62
7
  6
CONTINUOUS
 10
33.8893227327
 20
82.8357003362
 11
45.9290383482
 21
89.7867918953
  0
LINE
  5
227
100
AcDbEntity
  8
00_COMPONENTS_1
100
AcDbLine
 62
7
  6
CONTINUOUS
 10
52.9647215284
 20
93.8488212263
 11
55.7583219602
 21
95.46169756
  0
LINE
  5
228
100
AcDbEntity
  8
00_COMPONENTS_1
100
AcDbLine
 62
7
  6
CONTINUOUS
 10
37.6817128734
 20
84.4536829196
 11
45.2350968851
 21
88.8146051809
  0
LINE
  5
229
100
AcDbEntity
  8
00_COMPONENTS_1
100
AcDbLine
 62
7
  6
CONTINUOUS
 10
47.3362110175
 20
88.9743787551
 11
52.6044108794
 21
92.0159572078
  0
LINE
  5
22A
100
AcDbEntity
  8
00_COMPONENTS_1
100
AcDbLine
 62
7
  6
CONTINUOUS
 10
17.2653416439
 20
14.7307774599
 11
17.1591179346
 21
15.1613246326
  0
LINE
  5
22B
100
AcDbEntity
  8
00_COMPONENTS_1
100
AcDbLine
 62
7
  6
CONTINUOUS
 10
10.5131232856
 20
18.9983046281
 11
10.5131232856
 21
22.7542157469
  0
LINE
  5
22C
100
AcDbEntity
  8
00_COMPONENTS_1
100
AcDbLine
 62
7
  6
CONTINUOUS
 10
10.6257101223
 20
23.3289219342
 11
10.6257118679
 21
52.1814553062
  0
LINE
  5
22D
100
AcDbEntity
  8
00_COMPONENTS_1
100
AcDbLine
 62
7
  6
CONTINUOUS
 10
11.1495220382
 20
22.308996036
 11
11.1495220382
 21
20.8654808261
  0
LINE
  5
22E
100
AcDbEntity
  8
00_COMPONENTS_1
100
AcDbLine
 62
7
  6
CONTINUOUS
 10
11.1495220382
 20
20.1599006106
 11
11.1495220382
 21
18.7163854007
  0
LINE
  5
22F
100
AcDbEntity
  8
00_COMPONENTS_1
100
AcDbLine
 62
7
  6
CONTINUOUS
 10
10.6185113417
 20
15.588307039
 11
10.6193469949
 21
18.5677574554
  0
LINE
  5
230
100
AcDbEntity
  8
00_COMPONENTS_1
100
AcDbLine
 62
7
  6
CONTINUOUS
 10
48.4675865777
 20
88.3211935479
 11
53.5885925875
 21
91.2777900976
  0
LINE
  5
231
100
AcDbEntity
  8
00_COMPONENTS_1
100
AcDbLine
 62
7
  6
CONTINUOUS
 10
48.7574772487
 20
88.1538288772
 11
55.793160429
 21
92.2158582082
  0
LINE
  5
232
100
AcDbEntity
  8
00_COMPONENTS_1
100
AcDbLine
 62
7
  6
CONTINUOUS
 10
42.5510233007
 20
83.6723531892
 11
42.4399072794
 21
83.6082007073
  0
LINE
  5
233
100
AcDbEntity
  8
00_COMPONENTS_1
100
AcDbLine
 62
7
  6
CONTINUOUS
 10
40.9253226247
 20
82.6112868227
 11
41.0964108719
 21
82.7100640787
  0
LINE
  5
234
100
AcDbEntity
  8
00_COMPONENTS_1
100
AcDbLine
 62
7
  6
CONTINUOUS
 10
54.6075375846
 20
13.6044690427
 11
52.3439514631
 21
14.9113215343
  0
LINE
  5
235
100
AcDbEntity
  8
00_COMPONENTS_1
100
AcDbLine
 62
7
  6
CONTINUOUS
 10
16.5235559494
 20
15.6137556663
 11
16.5235559494
 21
17.0572708762
  0
LINE
  5
236
100
AcDbEntity
  8
00_COMPONENTS_1
100
AcDbLine
 62
7
  6
CONTINUOUS
 10
16.5235559494
 20
17.7628510918
 11
16.5235559494
 21
19.2063663017
  0
LINE
  5
237
100
AcDbEntity
  8
00_COMPONENTS_1
100
AcDbLine
 62
7
  6
CONTINUOUS
 10
10.6257101223
 20
23.3289219342
 11
10.5131232856
 21
22.7542157469
  0
LINE
  5
238
100
AcDbEntity
  8
00_COMPONENTS_1
100
AcDbLine
 62
7
  6
CONTINUOUS
 10
59.6107161774
 20
90.0097277676
 11
62.4043166092
 21
91.6247175645
  0
LINE
  5
239
100
AcDbEntity
  8
00_COMPONENTS_1
100
AcDbLine
 62
7
  6
CONTINUOUS
 10
50.7373944886
 20
85.6227304203
 11
43.2420938142
 21
81.2953423893
  0
LINE
  5
23A
100
AcDbEntity
  8
00_COMPONENTS_1
100
AcDbLine
 62
7
  6
CONTINUOUS
 10
27.0134368603
 20
71.5990579607
 11
33.8893227327
 21
75.5688288237
  0
LINE
  5
23B
100
AcDbEntity
  8
00_COMPONENTS_1
100
AcDbLine
 62
7
  6
CONTINUOUS
 10
52.7517984149
 20
86.047652168
 11
59.6107056358
 21
90.0076204605
  0
LINE
  5
23C
100
AcDbEntity
  8
00_COMPONENTS_1
100
AcDbLine
 62
7
  6
CONTINUOUS
 10
34.3842995403
 20
75.2830602955
 11
27.5084136679
 21
71.3132894326
  0
LINE
  5
23D
100
AcDbEntity
  8
00_COMPONENTS_1
100
AcDbLine
 62
7
  6
CONTINUOUS
 10
54.3466810023
 20
85.1162600364
 11
61.2055882233
 21
89.0762283289
  0
LINE
  5
23E
100
AcDbEntity
  8
00_COMPONENTS_1
100
AcDbLine
 62
7
  6
CONTINUOUS
 10
40.5353173817
 20
78.9987203406
 11
52.7518089565
 21
86.049759475
  0
LINE
  5
23F
100
AcDbEntity
  8
00_COMPONENTS_1
100
AcDbLine
 62
7
  6
CONTINUOUS
 10
53.4761620244
 20
15.4998535631
 11
52.4680635904
 21
16.0818662984
  0
LINE
  5
240
100
AcDbEntity
  8
00_COMPONENTS_1
100
AcDbLine
 62
7
  6
CONTINUOUS
 10
53.5710470593
 20
16.7300734232
 11
54.6075375846
 21
16.1316688771
  0
LINE
  5
241
100
AcDbEntity
  8
00_COMPONENTS_1
100
AcDbLine
 62
7
  6
CONTINUOUS
 10
17.1591179346
 20
15.1613246326
 11
17.1591179346
 21
18.9172357514
  0
LINE
  5
242
100
AcDbEntity
  8
00_COMPONENTS_1
100
AcDbLine
 62
7
  6
CONTINUOUS
 10
17.2717047713
 20
19.4919419386
 11
17.2717065169
 21
48.3444753106
  0
LINE
  5
243
100
AcDbEntity
  8
00_COMPONENTS_1
100
AcDbLine
 62
7
  6
CONTINUOUS
 10
17.2645059907
 20
11.7513270434
 11
17.2653416439
 21
14.7307774599
  0
LINE
  5
244
100
AcDbEntity
  8
00_COMPONENTS_1
100
AcDbLine
 62
7
  6
CONTINUOUS
 10
27.0134368603
 20
71.5990579607
 11
24.7506502442
 21
67.6798375622
  0
LINE
  5
245
100
AcDbEntity
  8
00_COMPONENTS_1
100
AcDbLine
 62
7
  6
CONTINUOUS
 10
25.2456270518
 20
67.394069034
 11
27.5084136679
 21
71.3132894326
  0
LINE
  5
246
100
AcDbEntity
  8
00_COMPONENTS_1
100
AcDbLine
 62
7
  6
CONTINUOUS
 10
39.2465018968
 20
73.3283251669
 11
39.2860033747
 21
73.3515057984
  0
LINE
  5
247
100
AcDbEntity
  8
00_COMPONENTS_1
100
AcDbLine
 62
7
  6
CONTINUOUS
 10
22.0807944751
 20
66.1384048163
 11
24.7506502442
 21
67.6798375622
  0
LINE
  5
248
100
AcDbEntity
  8
00_COMPONENTS_1
100
AcDbLine
 62
7
  6
CONTINUOUS
 10
53.4069706507
 20
83.7760084022
 11
53.6791709205
 21
83.9331623632
  0
LINE
  5
249
100
AcDbEntity
  8
00_COMPONENTS_1
100
AcDbLine
 62
7
  6
CONTINUOUS
 10
25.2456270518
 20
67.394069034
 11
28.573231626
 21
69.3152509628
  0
LINE
  5
24A
100
AcDbEntity
  8
00_COMPONENTS_1
100
AcDbLine
 62
7
  6
CONTINUOUS
 10
30.7580768016
 20
70.5766643835
 11
34.3842995403
 21
72.6702525607
  0
LINE
  5
24B
100
AcDbEntity
  8
00_COMPONENTS_1
100
AcDbLine
 62
7
  6
CONTINUOUS
 10
54.8288112901
 20
84.2811905178
 11
61.687718511
 21
88.2411588103
  0
LINE
  5
24C
100
AcDbEntity
  8
00_COMPONENTS_1
100
AcDbLine
 62
7
  6
CONTINUOUS
 10
61.3228360787
 20
86.7254446221
 11
54.4639288577
 21
82.7654763296
  0
LINE
  5
24D
100
AcDbEntity
  8
00_COMPONENTS_1
100
AcDbLine
 62
7
  6
CONTINUOUS
 10
56.2864243114
 20
18.8668554748
 11
56.7792583741
 21
18.582324033
  0
LINE
  5
24E
100
AcDbEntity
  8
00_COMPONENTS_1
100
AcDbLine
 62
7
  6
CONTINUOUS
 10
57.3894077803
 20
18.9345918541
 11
58.4258983056
 21
18.336187308
  0
LINE
  5
24F
100
AcDbEntity
  8
00_COMPONENTS_1
100
AcDbLine
 62
7
  6
CONTINUOUS
 10
22.0807944751
 20
58.871196425
 11
22.0807944751
 21
66.1384048163
  0
LINE
  5
250
100
AcDbEntity
  8
00_COMPONENTS_1
100
AcDbLine
 62
7
  6
CONTINUOUS
 10
17.1591179346
 20
18.9172357514
 11
17.2717047713
 21
19.4919419386
  0
LINE
  5
251
100
AcDbEntity
  8
00_COMPONENTS_1
100
AcDbLine
 62
7
  6
CONTINUOUS
 10
21.9235826897
 20
58.7804307002
 11
10.6257118679
 21
52.1814553062
  0
LINE
  5
252
100
AcDbEntity
  8
00_COMPONENTS_1
100
AcDbLine
 62
7
  6
CONTINUOUS
 10
33.0238695241
 20
68.1290115473
 11
39.8997553964
 21
72.0987824103
  0
LINE
  5
253
100
AcDbEntity
  8
00_COMPONENTS_1
100
AcDbLine
 62
7
  6
CONTINUOUS
 10
33.6594315093
 20
67.7620779652
 11
40.5353173817
 21
71.7318488282
  0
LINE
  5
254
100
AcDbEntity
  8
00_COMPONENTS_1
100
AcDbLine
 62
7
  6
CONTINUOUS
 10
21.9235826897
 20
58.7804307002
 11
22.0807944751
 21
58.871196425
  0
LINE
  5
255
100
AcDbEntity
  8
00_COMPONENTS_1
100
AcDbLine
 62
7
  6
CONTINUOUS
 10
28.7267891241
 20
62.3014248208
 11
31.3966448932
 21
63.8428575666
  0
LINE
  5
256
100
AcDbEntity
  8
00_COMPONENTS_1
100
AcDbLine
 62
7
  6
CONTINUOUS
 10
45.2350968851
 20
88.8146051809
 11
42.5510233007
 21
83.998954156
  0
LINE
  5
257
100
AcDbEntity
  8
00_COMPONENTS_1
100
AcDbLine
 62
7
  6
CONTINUOUS
 10
33.0238695241
 20
68.1290115473
 11
30.7610829079
 21
64.2097911488
  0
LINE
  5
258
100
AcDbEntity
  8
00_COMPONENTS_1
100
AcDbLine
 62
7
  6
CONTINUOUS
 10
31.3966448932
 20
63.8428575666
 11
33.6594315093
 21
67.7620779652
  0
LINE
  5
259
100
AcDbEntity
  8
00_COMPONENTS_1
100
AcDbLine
 62
7
  6
CONTINUOUS
 10
26.1294987453
 20
60.3108970688
 11
26.5374623053
 21
60.546433534
  0
LINE
  5
25A
100
AcDbEntity
  8
00_COMPONENTS_1
100
AcDbLine
 62
7
  6
CONTINUOUS
 10
17.2717065169
 20
48.3444753106
 11
10.6257118679
 21
52.1814553062
  0
LINE
  5
25B
100
AcDbEntity
  8
00_COMPONENTS_1
100
AcDbLine
 62
7
  6
CONTINUOUS
 10
38.1359679309
 20
39.4746243666
 11
38.701655711
 21
39.148031763
  0
LINE
  5
25C
100
AcDbEntity
  8
00_COMPONENTS_1
100
AcDbLine
 62
7
  6
CONTINUOUS
 10
35.8308126599
 20
40.968856418
 11
35.5691857122
 21
41.1199033896
  0
LINE
  5
25D
100
AcDbEntity
  8
00_COMPONENTS_1
100
AcDbLine
 62
7
  6
CONTINUOUS
 10
28.7267891241
 20
11.0251654975
 11
28.7267891241
 21
18.2920370099
  0
LINE
  5
25E
100
AcDbEntity
  8
00_COMPONENTS_1
100
AcDbLine
 62
7
  6
CONTINUOUS
 10
28.7267891241
 20
55.0342164295
 11
28.7267891241
 21
62.3014248208
  0
LINE
  5
25F
100
AcDbEntity
  8
00_COMPONENTS_1
100
AcDbLine
 62
7
  6
CONTINUOUS
 10
17.2717065169
 20
48.3444753106
 11
28.5695773387
 21
54.9434507047
  0
LINE
  5
260
100
AcDbEntity
  8
00_COMPONENTS_1
100
AcDbLine
 62
7
  6
CONTINUOUS
 10
28.5695773387
 20
54.9434507047
 11
28.7267891241
 21
55.0342164295
  0
LINE
  5
261
100
AcDbEntity
  8
00_COMPONENTS_1
100
AcDbLine
 62
7
  6
CONTINUOUS
 10
44.7986735125
 20
44.6379498071
 11
44.9736667471
 21
44.6552779914
  0
LINE
  5
262
100
AcDbEntity
  8
00_COMPONENTS_1
100
AcDbLine
 62
7
  6
CONTINUOUS
 10
40.5043801257
 20
38.6406583093
 11
36.2573376946
 21
41.0926339291
  0
LINE
  5
263
100
AcDbEntity
  8
00_COMPONENTS_1
100
AcDbLine
 62
7
  6
CONTINUOUS
 10
36.2573376946
 20
43.0522397302
 11
40.5043801257
 21
40.6002641104
  0
LINE
  5
264
100
AcDbEntity
  8
00_COMPONENTS_1
100
AcDbLine
 62
7
  6
CONTINUOUS
 10
37.5309837315
 20
42.4393918457
 11
38.0966715116
 21
42.1127992421
  0
LINE
  5
265
100
AcDbEntity
  8
00_COMPONENTS_1
100
AcDbLine
 62
7
  6
CONTINUOUS
 10
37.5309837315
 20
43.3375445046
 11
38.0966715116
 21
43.010951901
  0
LINE
  5
266
100
AcDbEntity
  8
00_COMPONENTS_1
100
AcDbLine
 62
7
  6
CONTINUOUS
 10
30.7580768016
 20
68.0683056973
 11
30.7580768016
 21
70.5766643835
  0
LINE
  5
267
100
AcDbEntity
  8
00_COMPONENTS_1
100
AcDbLine
 62
7
  6
CONTINUOUS
 10
30.7936350389
 20
68.0480117304
 11
30.7936350389
 21
69.5762625745
  0
LINE
  5
268
100
AcDbEntity
  8
00_COMPONENTS_1
100
AcDbLine
 62
7
  6
CONTINUOUS
 10
33.0448250133
 20
35.882078532
 11
33.0448250133
 21
37.8416843331
  0
LINE
  5
269
100
AcDbEntity
  8
00_COMPONENTS_1
100
AcDbLine
 62
7
  6
CONTINUOUS
 10
33.8893227327
 20
75.5688288237
 11
33.8893227327
 21
82.8357003362
  0
LINE
  5
26A
100
AcDbEntity
  8
00_COMPONENTS_1
100
AcDbLine
 62
7
  6
CONTINUOUS
 10
59.5139843725
 20
70.5232359028
 11
63.5704976658
 21
72.8652509648
  0
LINE
  5
26B
100
AcDbEntity
  8
00_COMPONENTS_1
100
AcDbLine
 62
7
  6
CONTINUOUS
 10
44.7986735125
 20
46.67920585
 11
44.9736667471
 21
46.6965340342
  0
LINE
  5
26C
100
AcDbEntity
  8
00_COMPONENTS_1
100
AcDbLine
 62
7
  6
CONTINUOUS
 10
42.4842708699
 20
41.7433477412
 11
39.9704939641
 21
43.1946446817
  0
LINE
  5
26D
100
AcDbEntity
  8
00_COMPONENTS_1
100
AcDbLine
 62
7
  6
CONTINUOUS
 10
38.6269720452
 20
43.9703098754
 11
38.2372284387
 21
44.195323361
  0
LINE
  5
26E
100
AcDbEntity
  8
00_COMPONENTS_1
100
AcDbLine
 62
7
  6
CONTINUOUS
 10
39.5108744757
 20
44.4806281354
 11
40.0765622558
 21
44.1540355318
  0
LINE
  5
26F
100
AcDbEntity
  8
00_COMPONENTS_1
100
AcDbLine
 62
7
  6
CONTINUOUS
 10
40.4481974786
 20
46.206663727
 11
41.0138852587
 21
45.8800711234
  0
LINE
  5
270
100
AcDbEntity
  8
00_COMPONENTS_1
100
AcDbLine
 62
7
  6
CONTINUOUS
 10
34.3842995403
 20
72.6702525607
 11
34.3842995403
 21
75.2830602955
  0
LINE
  5
271
100
AcDbEntity
  8
00_COMPONENTS_1
100
AcDbLine
 62
7
  6
CONTINUOUS
 10
35.5691857122
 20
40.4503843706
 11
35.5691857122
 21
42.7365911385
  0
LINE
  5
272
100
AcDbEntity
  8
00_COMPONENTS_1
100
AcDbLine
 62
7
  6
CONTINUOUS
 10
35.8308126599
 20
40.968856418
 11
35.8308126599
 21
42.8876406256
  0
LINE
  5
273
100
AcDbEntity
  8
00_COMPONENTS_1
100
AcDbLine
 62
7
  6
CONTINUOUS
 10
36.2573376946
 20
41.0926339291
 11
36.2573376946
 21
43.0522397302
  0
LINE
  5
274
100
AcDbEntity
  8
00_COMPONENTS_1
100
AcDbLine
 62
7
  6
CONTINUOUS
 10
42.9230609088
 20
45.3493114976
 11
43.488748689
 21
45.0227188939
  0
LINE
  5
275
100
AcDbEntity
  8
00_COMPONENTS_1
100
AcDbLine
 62
7
  6
CONTINUOUS
 10
44.7261772354
 20
44.7981628951
 11
44.9736667471
 21
44.6552779914
  0
LINE
  5
276
100
AcDbEntity
  8
00_COMPONENTS_1
100
AcDbLine
 62
7
  6
CONTINUOUS
 10
28.5695773387
 20
54.9434507047
 11
21.9235826897
 21
58.7804307002
  0
LINE
  5
277
100
AcDbEntity
  8
00_COMPONENTS_1
100
AcDbLine
 62
7
  6
CONTINUOUS
 10
28.7267891241
 20
55.0342164295
 11
22.0807944751
 21
58.871196425
  0
LINE
  5
278
100
AcDbEntity
  8
00_COMPONENTS_1
100
AcDbLine
 62
7
  6
CONTINUOUS
 10
44.7261772354
 20
46.8394189379
 11
44.9736667471
 21
46.6965340342
  0
LINE
  5
279
100
AcDbEntity
  8
00_COMPONENTS_1
100
AcDbLine
 62
7
  6
CONTINUOUS
 10
37.5309837315
 20
42.4393918457
 11
37.5309837315
 21
43.3375445046
  0
LINE
  5
27A
100
AcDbEntity
  8
00_COMPONENTS_1
100
AcDbLine
 62
7
  6
CONTINUOUS
 10
38.0966715116
 20
42.1127992421
 11
38.0966715116
 21
43.0109519009
  0
LINE
  5
27B
100
AcDbEntity
  8
00_COMPONENTS_1
100
AcDbLine
 62
7
  6
CONTINUOUS
 10
38.1359679309
 20
40.0080307934
 11
38.1359679309
 21
39.4746243666
  0
LINE
  5
27C
100
AcDbEntity
  8
00_COMPONENTS_1
100
AcDbLine
 62
7
  6
CONTINUOUS
 10
38.6592280088
 20
44.5206172411
 11
38.6592280088
 21
43.9889327535
  0
LINE
  5
27D
100
AcDbEntity
  8
00_COMPONENTS_1
100
AcDbLine
 62
7
  6
CONTINUOUS
 10
38.701655711
 20
39.6814381898
 11
38.701655711
 21
39.148031763
  0
LINE
  5
27E
100
AcDbEntity
  8
00_COMPONENTS_1
100
AcDbLine
 62
7
  6
CONTINUOUS
 10
38.7511529796
 20
44.573689831
 11
38.7511529796
 21
45.3085420064
  0
LINE
  5
27F
100
AcDbEntity
  8
00_COMPONENTS_1
100
AcDbLine
 62
7
  6
CONTINUOUS
 10
39.2465018968
 20
73.3283251669
 11
39.2465018968
 21
73.5268720964
  0
LINE
  5
280
100
AcDbEntity
  8
00_COMPONENTS_1
100
AcDbLine
 62
7
  6
CONTINUOUS
 10
40.0765622558
 20
44.1540355318
 11
40.0765622558
 21
43.2558828729
  0
LINE
  5
281
100
AcDbEntity
  8
00_COMPONENTS_1
100
AcDbLine
 62
7
  6
CONTINUOUS
 10
40.4481974786
 20
46.2883252562
 11
40.4481974786
 21
46.206663727
  0
LINE
  5
282
100
AcDbEntity
  8
00_COMPONENTS_1
100
AcDbLine
 62
7
  6
CONTINUOUS
 10
40.5043801257
 20
38.6406583093
 11
40.5043801257
 21
40.6002641104
  0
LINE
  5
283
100
AcDbEntity
  8
00_COMPONENTS_1
100
AcDbLine
 62
7
  6
CONTINUOUS
 10
40.5353173817
 20
7.9630100503
 11
40.5353173817
 21
15.2302184416
  0
LINE
  5
284
100
AcDbEntity
  8
00_COMPONENTS_1
100
AcDbLine
 62
7
  6
CONTINUOUS
 10
40.5353173817
 20
71.7318488282
 11
40.5353173817
 21
78.9987203406
  0
LINE
  5
285
100
AcDbEntity
  8
00_COMPONENTS_1
100
AcDbLine
 62
7
  6
CONTINUOUS
 10
12.0020910928
 20
21.8167761984
 11
11.1495220382
 21
20.8654808261
  0
LINE
  5
286
100
AcDbEntity
  8
00_COMPONENTS_1
100
AcDbLine
 62
7
  6
CONTINUOUS
 10
56.1954095722
 20
49.9776922917
 11
56.1519869937
 21
49.986819927
  0
LINE
  5
287
100
AcDbEntity
  8
00_COMPONENTS_1
100
AcDbLine
 62
7
  6
CONTINUOUS
 10
62.1726948004
 20
41.3577946407
 11
59.5139843725
 21
42.8927670962
  0
LINE
  5
288
100
AcDbEntity
  8
00_COMPONENTS_1
100
AcDbLine
 62
7
  6
CONTINUOUS
 10
62.1726948004
 20
41.3577946407
 11
63.5704976658
 21
40.5507109459
  0
LINE
  5
289
100
AcDbEntity
  8
00_COMPONENTS_1
100
AcDbLine
 62
7
  6
CONTINUOUS
 10
41.0138852587
 20
46.6149232988
 11
41.0138852587
 21
45.8800711234
  0
LINE
  5
28A
100
AcDbEntity
  8
00_COMPONENTS_1
100
AcDbLine
 62
7
  6
CONTINUOUS
 10
42.4399072794
 20
83.6082007073
 11
42.4399072794
 21
81.7509907113
  0
LINE
  5
28B
100
AcDbEntity
  8
00_COMPONENTS_1
100
AcDbLine
 62
7
  6
CONTINUOUS
 10
42.4842708699
 20
41.7433477412
 11
42.4842708699
 21
39.7837419401
  0
LINE
  5
28C
100
AcDbEntity
  8
00_COMPONENTS_1
100
AcDbLine
 62
7
  6
CONTINUOUS
 10
42.5510233007
 20
83.6723531892
 11
42.5510233007
 21
83.998954156
  0
LINE
  5
28D
100
AcDbEntity
  8
00_COMPONENTS_1
100
AcDbLine
 62
7
  6
CONTINUOUS
 10
42.9230609088
 20
46.9823276193
 11
42.9230609088
 21
45.3493114976
  0
LINE
  5
28E
100
AcDbEntity
  8
00_COMPONENTS_1
100
AcDbLine
 62
7
  6
CONTINUOUS
 10
43.488748689
 20
47.3089256619
 11
43.488748689
 21
45.0227188939
  0
LINE
  5
28F
100
AcDbEntity
  8
00_COMPONENTS_1
100
AcDbLine
 62
7
  6
CONTINUOUS
 10
52.9647215284
 20
93.3670848002
 11
52.6044108794
 21
92.0159572078
  0
LINE
  5
290
100
AcDbEntity
  8
00_COMPONENTS_1
100
AcDbLine
 62
7
  6
CONTINUOUS
 10
53.5885925875
 20
91.2777900976
 11
53.4830837139
 21
90.8821427561
  0
LINE
  5
291
100
AcDbEntity
  8
00_COMPONENTS_1
100
AcDbLine
 62
7
  6
CONTINUOUS
 10
38.7511529796
 20
45.3085420064
 11
41.0138852587
 21
46.6149232988
  0
LINE
  5
292
100
AcDbEntity
  8
00_COMPONENTS_1
100
AcDbLine
 62
7
  6
CONTINUOUS
 10
35.5691857122
 20
42.7365911385
 11
38.7511529796
 21
44.573689831
  0
LINE
  5
293
100
AcDbEntity
  8
00_COMPONENTS_1
100
AcDbLine
 62
7
  6
CONTINUOUS
 10
41.0138852587
 20
45.8800711234
 11
43.488748689
 21
47.3089256619
  0
LINE
  5
294
100
AcDbEntity
  8
00_COMPONENTS_1
100
AcDbLine
 62
7
  6
CONTINUOUS
 10
36.2573376946
 20
43.0522397302
 11
38.2372284387
 21
44.195323361
  0
LINE
  5
295
100
AcDbEntity
  8
00_COMPONENTS_1
100
AcDbLine
 62
7
  6
CONTINUOUS
 10
28.7267891241
 20
62.3014248208
 11
22.0807944751
 21
66.1384048163
  0
LINE
  5
296
100
AcDbEntity
  8
00_COMPONENTS_1
100
AcDbLine
 62
7
  6
CONTINUOUS
 10
44.7261804041
 20
44.7981683835
 11
44.7986735125
 21
44.6379498071
  0
LINE
  5
297
100
AcDbEntity
  8
00_COMPONENTS_1
100
AcDbLine
 62
7
  6
CONTINUOUS
 10
44.7261804041
 20
46.8394244263
 11
44.7986735125
 21
46.67920585
  0
LINE
  5
298
100
AcDbEntity
  8
00_COMPONENTS_1
100
AcDbLine
 62
7
  6
CONTINUOUS
 10
46.6721990375
 20
46.2074719048
 11
46.6721990375
 21
47.6771762557
  0
LINE
  5
299
100
AcDbEntity
  8
00_COMPONENTS_1
100
AcDbLine
 62
7
  6
CONTINUOUS
 10
37.5309837315
 20
43.3375445046
 11
39.5108744757
 21
44.4806281354
  0
LINE
  5
29A
100
AcDbEntity
  8
00_COMPONENTS_1
100
AcDbLine
 62
7
  6
CONTINUOUS
 10
55.1177559416
 20
53.3696941189
 11
55.3327379623
 21
53.4938133055
  0
LINE
  5
29B
100
AcDbEntity
  8
00_COMPONENTS_1
100
AcDbLine
 62
7
  6
CONTINUOUS
 10
44.9736667471
 20
47.2680857262
 11
55.1177559416
 21
53.1247433938
  0
LINE
  5
29C
100
AcDbEntity
  8
00_COMPONENTS_1
100
AcDbLine
 62
7
  6
CONTINUOUS
 10
38.0966715116
 20
43.0109519009
 11
40.0765622558
 21
44.1540355318
  0
LINE
  5
29D
100
AcDbEntity
  8
00_COMPONENTS_1
100
AcDbLine
 62
7
  6
CONTINUOUS
 10
44.9736667471
 20
46.6965340342
 11
46.6721990375
 21
47.6771762557
  0
LINE
  5
29E
100
AcDbEntity
  8
00_COMPONENTS_1
100
AcDbLine
 62
7
  6
CONTINUOUS
 10
56.8176624972
 20
53.4529926295
 11
56.1105586599
 21
53.0447484756
  0
LINE
  5
29F
100
AcDbEntity
  8
00_COMPONENTS_1
100
AcDbLine
 62
7
  6
CONTINUOUS
 10
42.9230609088
 20
45.3493114976
 11
40.0765622558
 21
43.7058945439
  0
LINE
  5
2A0
100
AcDbEntity
  8
00_COMPONENTS_1
100
AcDbLine
 62
7
  6
CONTINUOUS
 10
56.0951918282
 20
52.7097163228
 11
51.642203135
 21
50.1387974479
  0
LINE
  5
2A1
100
AcDbEntity
  8
00_COMPONENTS_1
100
AcDbLine
 62
7
  6
CONTINUOUS
 10
36.2573376946
 20
41.2151092917
 11
35.8308126599
 21
40.968856418
  0
LINE
  5
2A2
100
AcDbEntity
  8
00_COMPONENTS_1
100
AcDbLine
 62
7
  6
CONTINUOUS
 10
40.0765622558
 20
43.2558828729
 11
38.0966715116
 21
42.1127992421
  0
LINE
  5
2A3
100
AcDbEntity
  8
00_COMPONENTS_1
100
AcDbLine
 62
7
  6
CONTINUOUS
 10
43.488748689
 20
45.0227188939
 11
40.1464546338
 21
43.09305604
  0
LINE
  5
2A4
100
AcDbEntity
  8
00_COMPONENTS_1
100
AcDbLine
 62
7
  6
CONTINUOUS
 10
36.4694712231
 20
40.97016135
 11
35.5691857122
 21
40.4503843706
  0
LINE
  5
2A5
100
AcDbEntity
  8
00_COMPONENTS_1
100
AcDbLine
 62
7
  6
CONTINUOUS
 10
46.6721990375
 20
46.2074719048
 11
44.9736667471
 21
45.2268296834
  0
LINE
  5
2A6
100
AcDbEntity
  8
00_COMPONENTS_1
100
AcDbLine
 62
7
  6
CONTINUOUS
 10
51.642203135
 20
48.669093097
 11
55.6764631099
 21
50.9982602762
  0
LINE
  5
2A7
100
AcDbEntity
  8
00_COMPONENTS_1
100
AcDbLine
 62
7
  6
CONTINUOUS
 10
33.0448250133
 20
37.8416843331
 11
37.4665131646
 21
40.3945319391
  0
LINE
  5
2A8
100
AcDbEntity
  8
00_COMPONENTS_1
100
AcDbLine
 62
7
  6
CONTINUOUS
 10
55.1177559416
 20
50.511935659
 11
44.9736667471
 21
44.6552779914
  0
LINE
  5
2A9
100
AcDbEntity
  8
00_COMPONENTS_1
100
AcDbLine
 62
7
  6
CONTINUOUS
 10
55.3327379623
 20
50.5497018356
 11
55.1177559416
 21
50.4255826489
  0
LINE
  5
2AA
100
AcDbEntity
  8
00_COMPONENTS_1
100
AcDbLine
 62
7
  6
CONTINUOUS
 10
56.1242149309
 20
51.3444167534
 11
55.6764631099
 21
51.0959003041
  0
LINE
  5
2AB
100
AcDbEntity
  8
00_COMPONENTS_1
100
AcDbLine
 62
7
  6
CONTINUOUS
 10
51.642203135
 20
50.1387974479
 11
46.6721990375
 21
47.6771762557
  0
LINE
  5
2AC
100
AcDbEntity
  8
00_COMPONENTS_1
100
AcDbLine
 62
7
  6
CONTINUOUS
 10
46.6721990375
 20
46.2074719048
 11
51.642203135
 21
48.669093097
  0
LINE
  5
2AD
100
AcDbEntity
  8
00_COMPONENTS_1
100
AcDbLine
 62
7
  6
CONTINUOUS
 10
31.3966448932
 20
63.8428575666
 11
30.7610829079
 21
64.2097911488
  0
LINE
  5
2AE
100
AcDbEntity
  8
00_COMPONENTS_1
100
AcDbLine
 62
7
  6
CONTINUOUS
 10
25.2456270518
 20
67.394069034
 11
24.7506502442
 21
67.6798375622
  0
LINE
  5
2AF
100
AcDbEntity
  8
00_COMPONENTS_1
100
AcDbLine
 62
7
  6
CONTINUOUS
 10
54.9759363577
 20
50.5938133816
 11
55.1177559416
 21
50.511935659
  0
LINE
  5
2B0
100
AcDbEntity
  8
00_COMPONENTS_1
100
AcDbLine
 62
7
  6
CONTINUOUS
 10
56.1519836909
 20
49.9868141934
 11
55.3741629932
 21
50.4358790234
  0
LINE
  5
2B1
100
AcDbEntity
  8
00_COMPONENTS_1
100
AcDbLine
 62
7
  6
CONTINUOUS
 10
55.3327379623
 20
50.5274335289
 11
56.1105586599
 21
50.0783686989
  0
LINE
  5
2B2
100
AcDbEntity
  8
00_COMPONENTS_1
100
AcDbLine
 62
7
  6
CONTINUOUS
 10
55.1161334089
 20
50.6747557036
 11
56.1105586599
 21
50.1006370056
  0
LINE
  5
2B3
100
AcDbEntity
  8
00_COMPONENTS_1
100
AcDbLine
 62
7
  6
CONTINUOUS
 10
56.8176624972
 20
50.5135839278
 11
55.7518846341
 21
51.1288971436
  0
LINE
  5
2B4
100
AcDbEntity
  8
00_COMPONENTS_1
100
AcDbLine
 62
7
  6
CONTINUOUS
 10
55.9430152119
 20
51.4490300933
 11
56.3676701323
 21
51.2038610071
  0
LINE
  5
2B5
100
AcDbEntity
  8
00_COMPONENTS_1
100
AcDbLine
 62
7
  6
CONTINUOUS
 10
56.1105586599
 20
53.0447484756
 11
55.3327379623
 21
53.4938133055
  0
LINE
  5
2B6
100
AcDbEntity
  8
00_COMPONENTS_1
100
AcDbLine
 62
7
  6
CONTINUOUS
 10
56.1105586599
 20
50.1006370056
 11
56.8176624972
 21
50.5135839278
  0
LINE
  5
2B7
100
AcDbEntity
  8
00_COMPONENTS_1
100
AcDbLine
 62
7
  6
CONTINUOUS
 10
38.1359679309
 20
39.4746243666
 11
33.0448250133
 21
36.5352691782
  0
LINE
  5
2B8
100
AcDbEntity
  8
00_COMPONENTS_1
100
AcDbLine
 62
7
  6
CONTINUOUS
 10
40.5043801257
 20
40.6002641104
 11
42.4842708699
 21
41.7433477412
  0
LINE
  5
2B9
100
AcDbEntity
  8
00_COMPONENTS_1
100
AcDbLine
 62
7
  6
CONTINUOUS
 10
38.701655711
 20
39.148031763
 11
33.0448250133
 21
35.882078532
  0
LINE
  5
2BA
100
AcDbEntity
  8
00_COMPONENTS_1
100
AcDbLine
 62
7
  6
CONTINUOUS
 10
42.4842708699
 20
39.7837419401
 11
40.5043801257
 21
38.6406583093
  0
LINE
  5
2BB
100
AcDbEntity
  8
00_COMPONENTS_1
100
AcDbLine
 62
7
  6
CONTINUOUS
 10
28.573231626
 20
69.3152509628
 11
32.435944002
 21
67.1107053214
  0
LINE
  5
2BC
100
AcDbEntity
  8
00_COMPONENTS_1
100
AcDbLine
 62
7
  6
CONTINUOUS
 10
56.1105586599
 20
53.0717195506
 11
55.3327379623
 21
53.5207843805
  0
LINE
  5
2BD
100
AcDbEntity
  8
00_COMPONENTS_1
100
AcDbLine
 62
7
  6
CONTINUOUS
 10
55.3809355134
 20
53.679148932
 11
56.1587562111
 21
53.2300841021
  0
LINE
  5
2BE
100
AcDbEntity
  8
00_COMPONENTS_1
100
AcDbLine
 62
7
  6
CONTINUOUS
 10
56.4448507736
 20
53.2377509653
 11
57.267654862
 21
52.7627155501
  0
LINE
  5
2BF
100
AcDbEntity
  8
00_COMPONENTS_1
100
AcDbLine
 62
7
  6
CONTINUOUS
 10
33.6594315093
 20
67.7620779652
 11
33.0238695241
 21
68.1290115473
  0
LINE
  5
2C0
100
AcDbEntity
  8
00_COMPONENTS_1
100
AcDbLine
 62
7
  6
CONTINUOUS
 10
27.5084136679
 20
71.3132894326
 11
27.0134368603
 21
71.5990579607
  0
LINE
  5
2C1
100
AcDbEntity
  8
00_COMPONENTS_1
100
AcDbLine
 62
7
  6
CONTINUOUS
 10
57.1398231358
 20
54.3376197723
 11
57.9176438334
 21
53.8885549423
  0
LINE
  5
2C2
100
AcDbEntity
  8
00_COMPONENTS_1
100
AcDbLine
 62
7
  6
CONTINUOUS
 10
30.7580768016
 20
69.5970317267
 11
33.1483681152
 21
68.2008904133
  0
LINE
  5
2C3
100
AcDbEntity
  8
00_COMPONENTS_1
100
AcDbLine
 62
7
  6
CONTINUOUS
 10
33.9920083754
 20
68.6879634372
 11
30.7580768016
 21
70.5766643835
  0
LINE
  5
2C4
100
AcDbEntity
  8
00_COMPONENTS_1
100
AcDbLine
 62
7
  6
CONTINUOUS
 10
51.642203135
 20
50.1387974479
 11
51.642203135
 21
48.669093097
  0
LINE
  5
2C5
100
AcDbEntity
  8
00_COMPONENTS_1
100
AcDbLine
 62
7
  6
CONTINUOUS
 10
52.3439514631
 20
15.9913429151
 11
52.3439514631
 21
14.78068742
  0
LINE
  5
2C6
100
AcDbEntity
  8
00_COMPONENTS_1
100
AcDbLine
 62
7
  6
CONTINUOUS
 10
52.7518089573
 20
84.4747306141
 11
52.7518089565
 21
86.049759475
  0
LINE
  5
2C7
100
AcDbEntity
  8
00_COMPONENTS_1
100
AcDbLine
 62
7
  6
CONTINUOUS
 10
52.9647215284
 20
93.3670848002
 11
52.9647215284
 21
93.8488212263
  0
LINE
  5
2C8
100
AcDbEntity
  8
00_COMPONENTS_1
100
AcDbLine
 62
7
  6
CONTINUOUS
 10
12.3996607526
 20
19.4381490156
 11
11.1495220382
 21
18.7163854007
  0
LINE
  5
2C9
100
AcDbEntity
  8
00_COMPONENTS_1
100
AcDbLine
 62
7
  6
CONTINUOUS
 10
59.5139843725
 20
61.7698669931
 11
63.2333505562
 21
60.9099780069
  0
LINE
  5
2CA
100
AcDbEntity
  8
00_COMPONENTS_1
100
AcDbLine
 62
7
  6
CONTINUOUS
 10
34.3842995403
 20
72.6702525607
 11
37.6369651744
 21
70.7923676647
  0
LINE
  5
2CB
100
AcDbEntity
  8
00_COMPONENTS_1
100
AcDbLine
 62
7
  6
CONTINUOUS
 10
54.6075375846
 20
16.1316688771
 11
54.6075375846
 21
13.6044690427
  0
LINE
  5
2CC
100
AcDbEntity
  8
00_COMPONENTS_1
100
AcDbLine
 62
7
  6
CONTINUOUS
 10
55.1177559416
 20
50.4255826489
 11
55.1177559416
 21
50.511935659
  0
LINE
  5
2CD
100
AcDbEntity
  8
00_COMPONENTS_1
100
AcDbLine
 62
7
  6
CONTINUOUS
 10
55.1177559416
 20
53.1247433938
 11
55.1177559416
 21
53.3696941189
  0
LINE
  5
2CE
100
AcDbEntity
  8
00_COMPONENTS_1
100
AcDbLine
 62
7
  6
CONTINUOUS
 10
55.3327379623
 20
50.5274335289
 11
55.3327379623
 21
50.5497018356
  0
LINE
  5
2CF
100
AcDbEntity
  8
00_COMPONENTS_1
100
AcDbLine
 62
7
  6
CONTINUOUS
 10
55.3327379623
 20
53.4938133055
 11
55.3327379623
 21
53.5207843805
  0
LINE
  5
2D0
100
AcDbEntity
  8
00_COMPONENTS_1
100
AcDbLine
 62
7
  6
CONTINUOUS
 10
55.6764631099
 20
51.0959003041
 11
55.6764631099
 21
50.9982602762
  0
LINE
  5
2D1
100
AcDbEntity
  8
00_COMPONENTS_1
100
AcDbLine
 62
7
  6
CONTINUOUS
 10
56.1105586599
 20
50.0783686989
 11
56.1105586599
 21
50.1006370056
  0
LINE
  5
2D2
100
AcDbEntity
  8
00_COMPONENTS_1
100
AcDbLine
 62
7
  6
CONTINUOUS
 10
56.1105586599
 20
53.0447484756
 11
56.1105586599
 21
53.0717195506
  0
LINE
  5
2D3
100
AcDbEntity
  8
00_COMPONENTS_1
100
AcDbLine
 62
7
  6
CONTINUOUS
 10
56.3744433353
 20
18.8160388173
 11
56.3744433353
 21
18.9310537124
  0
LINE
  5
2D4
100
AcDbEntity
  8
00_COMPONENTS_1
100
AcDbLine
 62
7
  6
CONTINUOUS
 10
53.4761620244
 20
15.4998535631
 11
53.5710470593
 21
16.7300734232
  0
LINE
  5
2D5
100
AcDbEntity
  8
00_COMPONENTS_1
100
AcDbLine
 62
7
  6
CONTINUOUS
 10
63.2333505562
 20
52.2610270626
 11
59.5139843725
 21
47.1064673753
  0
LINE
  5
2D6
100
AcDbEntity
  8
00_COMPONENTS_1
100
AcDbLine
 62
7
  6
CONTINUOUS
 10
40.5353173817
 20
71.7318488282
 11
39.8997553964
 21
72.0987824103
  0
LINE
  5
2D7
100
AcDbEntity
  8
00_COMPONENTS_1
100
AcDbLine
 62
7
  6
CONTINUOUS
 10
34.3842995403
 20
75.2830602955
 11
33.8893227327
 21
75.5688288237
  0
LINE
  5
2D8
100
AcDbEntity
  8
00_COMPONENTS_1
100
AcDbLine
 62
7
  6
CONTINUOUS
 10
41.0964108719
 20
82.7100640787
 11
41.2643150381
 21
82.41873644
  0
LINE
  5
2D9
100
AcDbEntity
  8
00_COMPONENTS_1
100
AcDbLine
 62
7
  6
CONTINUOUS
 10
58.4258983056
 20
18.336187308
 11
58.4258983056
 21
15.8089874736
  0
LINE
  5
2DA
100
AcDbEntity
  8
00_COMPONENTS_1
100
AcDbLine
 62
7
  6
CONTINUOUS
 10
59.5139843725
 20
70.5232359028
 11
59.5139843725
 21
61.7698669931
  0
LINE
  5
2DB
100
AcDbEntity
  8
00_COMPONENTS_1
100
AcDbLine
 62
7
  6
CONTINUOUS
 10
59.5139843725
 20
47.1064673753
 11
59.5139843725
 21
39.8227966221
  0
LINE
  5
2DC
100
AcDbEntity
  8
00_COMPONENTS_1
100
AcDbLine
 62
7
  6
CONTINUOUS
 10
59.5139843725
 20
39.8227966221
 11
62.1726948004
 21
41.3577946407
  0
LINE
  5
2DD
100
AcDbEntity
  8
00_COMPONENTS_1
100
AcDbLine
 62
7
  6
CONTINUOUS
 10
63.2333505562
 20
60.9099780069
 11
59.5139843725
 21
63.0573064952
  0
LINE
  5
2DE
100
AcDbEntity
  8
00_COMPONENTS_1
100
AcDbLine
 62
7
  6
CONTINUOUS
 10
63.2333505562
 20
60.9099780069
 11
63.2333505562
 21
52.2610270626
  0
LINE
  5
2DF
100
AcDbEntity
  8
00_COMPONENTS_1
100
AcDbLine
 62
7
  6
CONTINUOUS
 10
63.5704976658
 20
82.7164151532
 11
63.5704976658
 21
72.8652509648
  0
LINE
  5
2E0
100
AcDbEntity
  8
00_COMPONENTS_1
100
AcDbLine
 62
7
  6
CONTINUOUS
 10
63.5704976658
 20
40.5507109459
 11
63.5704976658
 21
21.2622982022
  0
LINE
  5
2E1
100
AcDbEntity
  8
00_COMPONENTS_1
100
AcDbLine
 62
7
  6
CONTINUOUS
 10
28.7267891241
 20
18.2920370099
 11
17.2645059907
 21
11.7513270434
  0
LINE
  5
2E2
100
AcDbEntity
  8
00_COMPONENTS_1
100
AcDbLine
 62
7
  6
CONTINUOUS
 10
33.8893227327
 20
82.8357003362
 11
40.5353173817
 21
78.9987203406
  0
LINE
  5
2E3
100
AcDbEntity
  8
00_COMPONENTS_1
100
AcDbLine
 62
7
  6
CONTINUOUS
 10
53.2497942109
 20
84.1839132057
 11
53.4069706507
 21
83.7760084022
  0
LINE
  5
2E4
100
AcDbEntity
  8
00_COMPONENTS_1
100
AcDbLine
 62
7
  6
CONTINUOUS
 10
54.0631485575
 20
82.8284226143
 11
53.7850259573
 21
83.8713442928
  0
LINE
  5
2E5
100
AcDbEntity
  8
00_COMPONENTS_1
100
AcDbLine
 62
7
  6
CONTINUOUS
 10
60.2524473741
 20
19.3466324081
 11
60.2289266066
 21
19.2377759494
  0
LINE
  5
2E6
100
AcDbEntity
  8
00_COMPONENTS_1
100
AcDbLine
 62
7
  6
CONTINUOUS
 10
31.3969652207
 20
12.5667831834
 11
28.7267891241
 21
11.0251654975
  0
LINE
  5
2E7
100
AcDbEntity
  8
00_COMPONENTS_1
100
AcDbLine
 62
7
  6
CONTINUOUS
 10
37.6817128734
 20
84.4536829196
 11
43.2420938142
 21
81.2953423893
  0
LINE
  5
2E8
100
AcDbEntity
  8
00_COMPONENTS_1
100
AcDbLine
 62
7
  6
CONTINUOUS
 10
44.8440265803
 20
82.2202131822
 11
42.4399072794
 21
83.6082007073
  0
LINE
  5
2E9
100
AcDbEntity
  8
00_COMPONENTS_1
100
AcDbLine
 62
7
  6
CONTINUOUS
 10
42.5510233007
 20
83.6723531892
 11
44.9494070812
 21
82.2810542797
  0
LINE
  5
2EA
100
AcDbEntity
  8
00_COMPONENTS_1
100
AcDbLine
 62
7
  6
CONTINUOUS
 10
42.5510233007
 20
83.998954156
 11
45.2315810651
 21
82.4439665328
  0
LINE
  5
2EB
100
AcDbEntity
  8
00_COMPONENTS_1
100
AcDbLine
 62
7
  6
CONTINUOUS
 10
62.4043166092
 20
91.6247175645
 11
63.5704976658
 21
82.7164151532
  0
LINE
  5
2EC
100
AcDbEntity
  8
00_COMPONENTS_1
100
AcDbLine
 62
7
  6
CONTINUOUS
 10
40.5353173817
 20
15.2302184416
 11
33.6594315093
 21
11.2604475787
  0
LINE
  5
2ED
100
AcDbEntity
  8
00_COMPONENTS_1
100
AcDbLine
 62
7
  6
CONTINUOUS
 10
54.4639288577
 20
82.7654763296
 11
54.0631485575
 21
82.8284226143
  0
LINE
  5
2EE
100
AcDbEntity
  8
00_COMPONENTS_1
100
AcDbLine
 62
7
  6
CONTINUOUS
 10
54.3466810023
 20
85.1162600364
 11
54.8288112901
 21
84.2811905178
  0
LINE
  5
2EF
100
AcDbEntity
  8
00_COMPONENTS_1
100
AcDbLine
 62
7
  6
CONTINUOUS
 10
56.3744433353
 20
18.9310537124
 11
52.3439514631
 21
15.9913429151
  0
LINE
  5
2F0
100
AcDbEntity
  8
00_COMPONENTS_1
100
AcDbLine
 62
7
  6
CONTINUOUS
 10
48.7574772487
 20
88.1538288772
 11
45.9290383482
 21
89.7867918953
  0
LINE
  5
2F1
100
AcDbEntity
  8
00_COMPONENTS_1
100
AcDbLine
 62
7
  6
CONTINUOUS
 10
45.2350968851
 20
88.8146051809
 11
50.7373944886
 21
85.6227304203
  0
LINE
  5
2F2
100
AcDbEntity
  8
00_COMPONENTS_1
100
AcDbLine
 62
7
  6
CONTINUOUS
 10
53.7850259573
 20
83.8713442928
 11
52.7518089573
 21
84.4747306141
  0
LINE
  5
2F3
100
AcDbEntity
  8
00_COMPONENTS_1
100
AcDbLine
 62
7
  6
CONTINUOUS
 10
52.7518089565
 20
86.049759475
 11
54.3466810023
 21
85.1162600364
  0
LINE
  5
2F4
100
AcDbEntity
  8
00_COMPONENTS_1
100
AcDbLine
 62
7
  6
CONTINUOUS
 10
53.5710470593
 20
16.7300734232
 11
57.3894077803
 21
18.9345918541
  0
LINE
  5
2F5
100
AcDbEntity
  8
00_COMPONENTS_1
100
AcDbLine
 62
7
  6
CONTINUOUS
 10
54.6075375846
 20
16.1316688771
 11
58.4258983056
 21
18.336187308
  0
LINE
  5
2F6
100
AcDbEntity
  8
00_COMPONENTS_1
100
AcDbLine
 62
7
  6
CONTINUOUS
 10
52.3439514631
 20
14.78068742
 11
40.5353173817
 21
7.9630100503
  0
LINE
  5
2F7
100
AcDbEntity
  8
00_COMPONENTS_1
100
AcDbLine
 62
7
  6
CONTINUOUS
 10
58.4258983056
 20
18.2920801065
 11
63.5704976658
 21
21.2622982022
  0
LINE
  5
2F8
100
AcDbEntity
  8
00_COMPONENTS_1
100
AcDbLine
 62
7
  6
CONTINUOUS
 10
61.687718511
 20
88.2411588103
 11
61.2055882233
 21
89.0762283289
  0
LINE
  5
2F9
100
AcDbEntity
  8
00_COMPONENTS_1
100
AcDbLine
 62
7
  6
CONTINUOUS
 10
54.6075375846
 20
13.6044690427
 11
58.4258983056
 21
15.8089874736
  0
LINE
  5
2FA
100
AcDbEntity
  8
00_COMPONENTS_1
100
AcDbLine
 62
7
  6
CONTINUOUS
 10
53.5885925875
 20
91.2777900976
 11
53.8784832585
 21
91.110425427
  0
LINE
  5
2FB
100
AcDbEntity
  8
00_COMPONENTS_1
100
AcDbLine
 62
7
  6
CONTINUOUS
 10
54.0256771107
 20
91.1954073299
 11
52.6044108794
 21
92.0159572078
  0
LINE
  5
2FC
100
AcDbEntity
  8
00_COMPONENTS_1
100
AcDbLine
 62
7
  6
CONTINUOUS
 10
55.3759584818
 20
91.9749879895
 11
52.9647215284
 21
93.3670848002
  0
LINE
  5
2FD
100
AcDbEntity
  8
00_COMPONENTS_1
100
AcDbLine
 62
7
  6
CONTINUOUS
 10
55.793160429
 20
92.2158582082
 11
52.9647215284
 21
93.8488212263
  0
LINE
  5
2FE
100
AcDbEntity
  8
00_COMPONENTS_1
100
AcDbLine
 62
7
  6
CONTINUOUS
 10
59.6107056358
 20
90.0076204605
 11
61.2055882233
 21
89.0762283289
  0
LINE
  5
2FF
100
AcDbEntity
  8
00_COMPONENTS_1
100
AcDbLine
 62
7
  6
CONTINUOUS
 10
55.7583219602
 20
95.46169756
 11
62.4043166092
 21
91.6247175645
  0
ARC
  5
300
100
AcDbEntity
  8
00_COMPONENTS_1
100
AcDbCircle
 62
7
  6
CONTINUOUS
 10
49.132814222
 20
42.9353077838
 40
11.9523335343
100
AcDbArc
 50
59.569866751
 51
59.9838596109
  0
ARC
  5
301
100
AcDbEntity
  8
00_COMPONENTS_1
100
AcDbCircle
 62
7
  6
CONTINUOUS
 10
29.1172185044
 20
61.4258435538
 40
3.0423297983
100
AcDbArc
 50
238.1658266708
 51
239.3977397177
  0
ARC
  5
302
100
AcDbEntity
  8
00_COMPONENTS_1
100
AcDbCircle
 62
7
  6
CONTINUOUS
 10
28.4210004531
 20
62.5855661074
 40
3.0158932031
100
AcDbArc
 50
180.6354474903
 51
181.8188727419
  0
ARC
  5
303
100
AcDbEntity
  8
00_COMPONENTS_1
100
AcDbCircle
 62
7
  6
CONTINUOUS
 10
56.1548299029
 20
52.3953155245
 40
1.3706285425
100
AcDbArc
 50
137.0936230067
 51
139.5450202516
  0
ARC
  5
304
100
AcDbEntity
  8
00_COMPONENTS_1
100
AcDbCircle
 62
7
  6
CONTINUOUS
 10
56.4593010387
 20
53.0435049527
 40
0.3537498726
100
AcDbArc
 50
148.167863012
 51
157.6258624653
  0
SPLINE
  5
305
100
AcDbEntity
  8
00_COMPONENTS_1
100
AcDbSpline
 62
7
  6
CONTINUOUS
 70
0
 71
3
 72
11
 73
7
 74
0
 42
0.0000001
 43
0.0000001
 44
0.0000000001
 40
0.0
 40
0.0
 40
0.0
 40
0.0
 40
0.2176994324
 40
0.450872691
 40
0.7105756293
 40
1.0
 40
1.0
 40
1.0
 40
1.0
 10
57.2676333343
 20
52.7626778198
 30
0.0
 10
57.2973191363
 20
52.7455622874
 30
0.0
 10
57.3528778223
 20
52.69889441
 30
0.0
 10
57.4120610356
 20
52.6021763583
 30
0.0
 10
57.4470627797
 20
52.4829781305
 30
0.0
 10
57.4540559506
 20
52.3962641314
 30
0.0
 10
57.4540559506
 20
52.3507080171
 30
0.0
  0
SPLINE
  5
306
100
AcDbEntity
  8
00_COMPONENTS_1
100
AcDbSpline
 62
7
  6
CONTINUOUS
 70
0
 71
3
 72
11
 73
7
 74
0
 42
0.0000001
 43
0.0000001
 44
0.0000000001
 40
0.0
 40
0.0
 40
0.0
 40
0.0
 40
0.2177815333
 40
0.4509150357
 40
0.710271516
 40
1.0
 40
1.0
 40
1.0
 40
1.0
 10
57.9176378772
 20
53.8885445842
 30
0.0
 10
57.9902151983
 20
53.8466589973
 30
0.0
 10
58.1259812786
 20
53.7324905331
 30
0.0
 10
58.2705349327
 20
53.4961639275
 30
0.0
 10
58.356404107
 20
53.2048975919
 30
0.0
 10
58.373290939
 20
52.9929053074
 30
0.0
 10
58.373290939
 20
52.8814254171
 30
0.0
  0
SPLINE
  5
307
100
AcDbEntity
  8
00_COMPONENTS_1
100
AcDbSpline
 62
7
  6
CONTINUOUS
 70
0
 71
3
 72
11
 73
7
 74
0
 42
0.0000001
 43
0.0000001
 44
0.0000000001
 40
0.0
 40
0.0
 40
0.0
 40
0.0
 40
0.2177839237
 40
0.4509111717
 40
0.7102971901
 40
1.0
 40
1.0
 40
1.0
 40
1.0
 10
57.717642736
 20
53.5421350432
 30
0.0
 10
57.6582687323
 20
53.5764138347
 30
0.0
 10
57.5218478335
 20
53.625920895
 30
0.0
 10
57.2952555122
 20
53.6316562323
 30
0.0
 10
57.0537614748
 20
53.5733375869
 30
0.0
 10
56.8966432596
 20
53.4985919217
 30
0.0
 10
56.8176624972
 20
53.4529926295
 30
0.0
  0
SPLINE
  5
308
100
AcDbEntity
  8
00_COMPONENTS_1
100
AcDbSpline
 62
7
  6
CONTINUOUS
 70
0
 71
3
 72
11
 73
7
 74
0
 42
0.0000001
 43
0.0000001
 44
0.0000000001
 40
0.0
 40
0.0
 40
0.0
 40
0.0
 40
0.2372423294
 40
0.4999983821
 40
0.7627553152
 40
1.0
 40
1.0
 40
1.0
 40
1.0
 10
44.9736667471
 20
47.2680857262
 30
0.0
 10
44.9385302912
 20
47.247799805
 30
0.0
 10
44.8720423866
 20
47.1918364004
 30
0.0
 10
44.7944402192
 20
47.085789064
 30
0.0
 10
44.7414020801
 20
46.9655593
 30
0.0
 10
44.7261804041
 20
46.8799968532
 30
0.0
 10
44.7261804041
 20
46.8394244263
 30
0.0
  0
SPLINE
  5
309
100
AcDbEntity
  8
00_COMPONENTS_1
100
AcDbSpline
 62
7
  6
CONTINUOUS
 70
0
 71
3
 72
11
 73
7
 74
0
 42
0.0000001
 43
0.0000001
 44
0.0000000001
 40
0.0
 40
0.0
 40
0.0
 40
0.0
 40
0.2372423294
 40
0.4999983821
 40
0.7627553152
 40
1.0
 40
1.0
 40
1.0
 40
1.0
 10
44.9736667471
 20
45.2268296834
 30
0.0
 10
44.9385302912
 20
45.2065437622
 30
0.0
 10
44.8720423866
 20
45.1505803576
 30
0.0
 10
44.7944402192
 20
45.0445330212
 30
0.0
 10
44.7414020801
 20
44.9243032572
 30
0.0
 10
44.7261804041
 20
44.8387408104
 30
0.0
 10
44.7261804041
 20
44.7981683835
 30
0.0
  0
SPLINE
  5
30A
100
AcDbEntity
  8
00_COMPONENTS_1
100
AcDbSpline
 62
7
  6
CONTINUOUS
 70
0
 71
3
 72
12
 73
8
 74
0
 42
0.0000001
 43
0.0000001
 44
0.0000000001
 40
0.0
 40
0.0
 40
0.0
 40
0.0
 40
0.1081685507
 40
0.2183769441
 40
0.4513357867
 40
0.7104853662
 40
1.0
 40
1.0
 40
1.0
 40
1.0
 10
38.6920086453
 20
71.4145104797
 30
0.0
 10
38.7428440683
 20
71.4438435803
 30
0.0
 10
38.8405572205
 20
71.5120720614
 30
0.0
 10
39.0158206962
 20
71.6844987165
 30
0.0
 10
39.1894992835
 20
71.9675258651
 30
0.0
 10
39.310201992
 20
72.3777839806
 30
0.0
 10
39.3340676163
 20
72.6765380867
 30
0.0
 10
39.3340676163
 20
72.8336262225
 30
0.0
  0
SPLINE
  5
30B
100
AcDbEntity
  8
00_COMPONENTS_1
100
AcDbSpline
 62
7
  6
CONTINUOUS
 70
0
 71
3
 72
12
 73
8
 74
0
 42
0.0000001
 43
0.0000001
 44
0.0000000001
 40
0.0
 40
0.0
 40
0.0
 40
0.0
 40
0.108168544
 40
0.2183769493
 40
0.4513358246
 40
0.7104852759
 40
1.0
 40
1.0
 40
1.0
 40
1.0
 10
26.881762442
 20
57.332998282
 30
0.0
 10
26.9325415233
 20
57.3622988626
 30
0.0
 10
27.030146497
 20
57.4304515638
 30
0.0
 10
27.2052155802
 20
57.6026873094
 30
0.0
 10
27.3787017012
 20
57.8854006469
 30
0.0
 10
27.4992707107
 20
58.2952040573
 30
0.0
 10
27.5231098101
 20
58.5936270279
 30
0.0
 10
27.5231098101
 20
58.7505411063
 30
0.0
  0
SPLINE
  5
30C
100
AcDbEntity
  8
00_COMPONENTS_1
100
AcDbSpline
 62
7
  6
CONTINUOUS
 70
0
 71
3
 72
12
 73
8
 74
0
 42
0.0000001
 43
0.0000001
 44
0.0000000001
 40
0.0
 40
0.0
 40
0.0
 40
0.0
 40
0.1081609636
 40
0.2183678068
 40
0.4513466778
 40
0.710443771
 40
1.0
 40
1.0
 40
1.0
 40
1.0
 10
26.8817629551
 20
14.5564356669
 30
0.0
 10
26.93253169
 20
14.5857468365
 30
0.0
 10
27.0301629285
 20
14.6538519451
 30
0.0
 10
27.2052148096
 20
14.8261248018
 30
0.0
 10
27.3786902648
 20
15.1088147907
 30
0.0
 10
27.4993003454
 20
15.5186184093
 30
0.0
 10
27.5231098101
 20
15.8170417189
 30
0.0
 10
27.5231098101
 20
15.9739794728
 30
0.0
  0
SPLINE
  5
30D
100
AcDbEntity
  8
00_COMPONENTS_1
100
AcDbSpline
 62
7
  6
CONTINUOUS
 70
0
 71
3
 72
11
 73
7
 74
0
 42
0.0000001
 43
0.0000001
 44
0.0000000001
 40
0.0
 40
0.0
 40
0.0
 40
0.0
 40
0.266393158
 40
0.5370340458
 40
0.787583489
 40
1.0
 40
1.0
 40
1.0
 40
1.0
 10
60.2289266066
 20
19.2377759494
 30
0.0
 10
60.2040410413
 20
19.1438141557
 30
0.0
 10
60.1301357623
 20
18.9602416593
 30
0.0
 10
59.9685478508
 20
18.7200564109
 30
0.0
 10
59.7730040225
 20
18.534196923
 30
0.0
 10
59.6192720168
 20
18.4543329866
 30
0.0
 10
59.544143757
 20
18.435280698
 30
0.0
  0
SPLINE
  5
30E
100
AcDbEntity
  8
00_COMPONENTS_1
100
AcDbSpline
 62
7
  6
CONTINUOUS
 70
0
 71
3
 72
12
 73
8
 74
0
 42
0.0000001
 43
0.0000001
 44
0.0000000001
 40
0.0
 40
0.0
 40
0.0
 40
0.0
 40
0.2895552427
 40
0.5486519846
 40
0.7816312595
 40
0.8918385311
 40
1.0
 40
1.0
 40
1.0
 40
1.0
 10
37.1420274684
 20
76.6303300546
 30
0.0
 10
37.0059679165
 20
76.7088822964
 30
0.0
 10
36.7353277425
 20
76.837610691
 30
0.0
 10
36.3196724983
 20
76.9381663185
 30
0.0
 10
35.9877590059
 20
76.9292658264
 30
0.0
 10
35.7507834401
 20
76.8637317387
 30
0.0
 10
35.6428697454
 20
76.8131786295
 30
0.0
 10
35.5920458012
 20
76.783835585
 30
0.0
  0
SPLINE
  5
30F
100
AcDbEntity
  8
00_COMPONENTS_1
100
AcDbSpline
 62
7
  6
CONTINUOUS
 70
0
 71
3
 72
15
 73
11
 74
0
 42
0.0000001
 43
0.0000001
 44
0.0000000001
 40
0.0
 40
0.0
 40
0.0
 40
0.0
 40
0.1141474765
 40
0.2373368178
 40
0.3669776594
 40
0.5000010819
 40
0.633024354
 40
0.7626647561
 40
0.8858534048
 40
1.0
 40
1.0
 40
1.0
 40
1.0
 10
39.3340676163
 20
72.8336262225
 30
0.0
 10
39.3340676163
 20
73.0068914762
 30
0.0
 10
39.3023087615
 20
73.3674802999
 30
0.0
 10
39.1758166985
 20
73.9114597646
 30
0.0
 10
38.9730877998
 20
74.4624552076
 30
0.0
 10
38.701850644
 20
74.9997622442
 30
0.0
 10
38.3721456539
 20
75.5033119113
 30
0.0
 10
37.9963329195
 20
75.9543745508
 30
0.0
 10
37.5884787096
 20
76.3359049611
 30
0.0
 10
37.2920792698
 20
76.5436995665
 30
0.0
 10
37.1420274684
 20
76.6303300546
 30
0.0
  0
SPLINE
  5
310
100
AcDbEntity
  8
00_COMPONENTS_1
100
AcDbSpline
 62
7
  6
CONTINUOUS
 70
0
 71
3
 72
9
 73
5
 74
0
 42
0.0000001
 43
0.0000001
 44
0.0000000001
 40
0.0
 40
0.0
 40
0.0
 40
0.0
 40
0.2486284151
 40
1.0
 40
1.0
 40
1.0
 40
1.0
 10
38.6920091355
 20
14.1042048796
 30
0.0
 10
38.7106943314
 20
14.1149927188
 30
0.0
 10
38.7844832702
 20
14.1607128465
 30
0.0
 10
38.8524439001
 20
14.2157634821
 30
0.0
 10
38.8992139779
 20
14.2611952553
 30
0.0
  0
SPLINE
  5
311
100
AcDbEntity
  8
00_COMPONENTS_1
100
AcDbSpline
 62
7
  6
CONTINUOUS
 70
0
 71
3
 72
9
 73
5
 74
0
 42
0.0000001
 43
0.0000001
 44
0.0000000001
 40
0.0
 40
0.0
 40
0.0
 40
0.0
 40
0.2451231295
 40
1.0
 40
1.0
 40
1.0
 40
1.0
 10
27.5125032907
 20
58.8411463405
 30
0.0
 10
27.4912942594
 20
58.8543120239
 30
0.0
 10
27.4054211723
 20
58.9090665931
 30
0.0
 10
27.3221443574
 20
58.9678724131
 30
0.0
 10
27.2608013566
 20
59.0142077288
 30
0.0
  0
SPLINE
  5
312
100
AcDbEntity
  8
00_COMPONENTS_1
100
AcDbSpline
 62
7
  6
CONTINUOUS
 70
0
 71
3
 72
15
 73
11
 74
0
 42
0.0000001
 43
0.0000001
 44
0.0000000001
 40
0.0
 40
0.0
 40
0.0
 40
0.0
 40
0.1192481251
 40
0.2449168838
 40
0.3748162218
 40
0.5064365171
 40
0.6371855331
 40
0.764494582
 40
0.8860937212
 40
1.0
 40
1.0
 40
1.0
 40
1.0
 10
27.2608013566
 20
59.0142077288
 30
0.0
 10
27.1322214475
 20
59.1113303119
 30
0.0
 10
26.881274459
 20
59.3285920614
 30
0.0
 10
26.5377761823
 20
59.7020370071
 30
0.0
 10
26.2249720672
 20
60.1225800642
 30
0.0
 10
25.9521001374
 20
60.5780244632
 30
0.0
 10
25.7271194929
 20
61.0550780083
 30
0.0
 10
25.5564349823
 20
61.5399131187
 30
0.0
 10
25.4451518862
 20
62.0184167022
 30
0.0
 10
25.4115016205
 20
62.3359988641
 30
0.0
 10
25.4066267786
 20
62.4898416984
 30
0.0
  0
SPLINE
  5
313
100
AcDbEntity
  8
00_COMPONENTS_1
100
AcDbSpline
 62
7
  6
CONTINUOUS
 70
0
 71
3
 72
12
 73
8
 74
0
 42
0.0000001
 43
0.0000001
 44
0.0000000001
 40
0.0
 40
0.0
 40
0.0
 40
0.0
 40
0.2895552427
 40
0.5486519846
 40
0.7816312595
 40
0.8918385311
 40
1.0
 40
1.0
 40
1.0
 40
1.0
 10
25.3334992107
 20
62.5430368601
 30
0.0
 10
25.1975904605
 20
62.6215020385
 30
0.0
 10
24.9272502508
 20
62.7500877569
 30
0.0
 10
24.5120556981
 20
62.8505319336
 30
0.0
 10
24.1805100822
 20
62.8416413063
 30
0.0
 10
23.9437971684
 20
62.7761798534
 30
0.0
 10
23.8360030799
 20
62.7256827747
 30
0.0
 10
23.7852354664
 20
62.6963722526
 30
0.0
  0
SPLINE
  5
314
100
AcDbEntity
  8
00_COMPONENTS_1
100
AcDbSpline
 62
7
  6
CONTINUOUS
 70
0
 71
3
 72
15
 73
11
 74
0
 42
0.0000001
 43
0.0000001
 44
0.0000000001
 40
0.0
 40
0.0
 40
0.0
 40
0.0
 40
0.1141474765
 40
0.2373368178
 40
0.3669776594
 40
0.5000010819
 40
0.633024354
 40
0.7626647561
 40
0.8858534048
 40
1.0
 40
1.0
 40
1.0
 40
1.0
 10
27.5231098101
 20
58.7505411063
 30
0.0
 10
27.5231098101
 20
58.9236143213
 30
0.0
 10
27.4913861552
 20
59.2838034863
 30
0.0
 10
27.3650342898
 20
59.8271800311
 30
0.0
 10
27.1625300857
 20
60.3775647781
 30
0.0
 10
26.8915935558
 20
60.9142762902
 30
0.0
 10
26.5622539943
 20
61.4172678478
 30
0.0
 10
26.1868577921
 20
61.8678305518
 30
0.0
 10
25.7794556276
 20
62.2489380928
 30
0.0
 10
25.4833847022
 20
62.4565023889
 30
0.0
 10
25.3334992107
 20
62.5430368601
 30
0.0
  0
SPLINE
  5
315
100
AcDbEntity
  8
00_COMPONENTS_1
100
AcDbSpline
 62
7
  6
CONTINUOUS
 70
0
 71
3
 72
9
 73
5
 74
0
 42
0.0000001
 43
0.0000001
 44
0.0000000001
 40
0.0
 40
0.0
 40
0.0
 40
0.0
 40
0.4772644028
 40
1.0
 40
1.0
 40
1.0
 40
1.0
 10
27.5231098101
 20
15.9739794728
 30
0.0
 10
27.5231098101
 20
16.2109514336
 30
0.0
 10
27.4637151988
 20
16.7079344554
 30
0.0
 10
27.317247347
 20
17.1848471458
 30
0.0
 10
27.2223607959
 20
17.4264303046
 30
0.0
  0
SPLINE
  5
316
100
AcDbEntity
  8
00_COMPONENTS_1
100
AcDbSpline
 62
7
  6
CONTINUOUS
 70
0
 71
3
 72
11
 73
7
 74
0
 42
0.0000001
 43
0.0000001
 44
0.0000000001
 40
0.0
 40
0.0
 40
0.0
 40
0.0
 40
0.2895396729
 40
0.5491163863
 40
0.7822545095
 40
1.0
 40
1.0
 40
1.0
 40
1.0
 10
56.8176624972
 20
51.2484361032
 30
0.0
 10
56.7781951255
 20
51.2256497416
 30
0.0
 10
56.6996162986
 20
51.1883174827
 30
0.0
 10
56.5788881314
 20
51.1590946376
 30
0.0
 10
56.4655512356
 20
51.1619407461
 30
0.0
 10
56.3973764802
 20
51.186768559
 30
0.0
 10
56.3676953111
 20
51.2039046182
 30
0.0
  0
SPLINE
  5
317
100
AcDbEntity
  8
00_COMPONENTS_1
100
AcDbSpline
 62
7
  6
CONTINUOUS
 70
0
 71
3
 72
13
 73
9
 74
0
 42
0.0000001
 43
0.0000001
 44
0.0000000001
 40
0.0
 40
0.0
 40
0.0
 40
0.0
 40
0.114176888
 40
0.2375715548
 40
0.5000017735
 40
0.762431024
 40
0.8858245003
 40
1.0
 40
1.0
 40
1.0
 40
1.0
 10
57.4540559506
 20
52.3507080171
 30
0.0
 10
57.4540559506
 20
52.3004376285
 30
0.0
 10
57.4447906927
 20
52.1957395312
 30
0.0
 10
57.3948589924
 20
51.9807915487
 30
0.0
 10
57.2785164436
 20
51.7172069828
 30
0.0
 10
57.1084182113
 20
51.4846586598
 30
0.0
 10
56.9472351767
 20
51.3339431745
 30
0.0
 10
56.8611974664
 20
51.2735708794
 30
0.0
 10
56.8176624972
 20
51.2484361032
 30
0.0
  0
SPLINE
  5
318
100
AcDbEntity
  8
00_COMPONENTS_1
100
AcDbSpline
 62
7
  6
CONTINUOUS
 70
0
 71
3
 72
11
 73
7
 74
0
 42
0.0000001
 43
0.0000001
 44
0.0000000001
 40
0.0
 40
0.0
 40
0.0
 40
0.0
 40
0.2181040376
 40
0.453339948
 40
0.713068224
 40
1.0
 40
1.0
 40
1.0
 40
1.0
 10
61.3228360787
 20
86.7254446221
 30
0.0
 10
61.3895273163
 20
86.7765400981
 30
0.0
 10
61.5118223602
 20
86.905335192
 30
0.0
 10
61.640741489
 20
87.1509735918
 30
0.0
 10
61.717528938
 20
87.4443485629
 30
0.0
 10
61.7328821203
 20
87.6554803883
 30
0.0
 10
61.7328821203
 20
87.7660078489
 30
0.0
  0
SPLINE
  5
319
100
AcDbEntity
  8
00_COMPONENTS_1
100
AcDbSpline
 62
7
  6
CONTINUOUS
 70
0
 71
3
 72
9
 73
5
 74
0
 42
0.0000001
 43
0.0000001
 44
0.0000000001
 40
0.0
 40
0.0
 40
0.0
 40
0.0
 40
0.2405068467
 40
1.0
 40
1.0
 40
1.0
 40
1.0
 10
61.7328821203
 20
87.7660078489
 30
0.0
 10
61.7328821203
 20
87.8043016566
 30
0.0
 10
61.72883759
 20
87.9635142317
 30
0.0
 10
61.7094196059
 20
88.1221944638
 30
0.0
 10
61.687718511
 20
88.2411588103
 30
0.0
  0
SPLINE
  5
31A
100
AcDbEntity
  8
00_COMPONENTS_1
100
AcDbSpline
 62
7
  6
CONTINUOUS
 70
0
 71
3
 72
15
 73
11
 74
0
 42
0.0000001
 43
0.0000001
 44
0.0000000001
 40
0.0
 40
0.0
 40
0.0
 40
0.0
 40
0.1209068489
 40
0.2529621474
 40
0.3914370138
 40
0.5308893323
 40
0.6656815635
 40
0.7907870487
 40
0.9026379148
 40
1.0
 40
1.0
 40
1.0
 40
1.0
 10
58.373290939
 20
52.8814254171
 30
0.0
 10
58.373290939
 20
52.7246382134
 30
0.0
 10
58.3366015004
 20
52.3962492479
 30
0.0
 10
58.1954649454
 20
51.9067179828
 30
0.0
 10
57.9734060853
 20
51.4215930385
 30
0.0
 10
57.6836697311
 20
50.9694892397
 30
0.0
 10
57.3430607668
 20
50.5768314861
 30
0.0
 10
56.9710487483
 20
50.266252395
 30
0.0
 10
56.5886432585
 20
50.0557789366
 30
0.0
 10
56.3213262443
 20
49.9869329384
 30
0.0
 10
56.1954095722
 20
49.9776922917
 30
0.0
  0
SPLINE
  5
31B
100
AcDbEntity
  8
00_COMPONENTS_1
100
AcDbSpline
 62
7
  6
CONTINUOUS
 70
0
 71
3
 72
9
 73
5
 74
0
 42
0.0000001
 43
0.0000001
 44
0.0000000001
 40
0.0
 40
0.0
 40
0.0
 40
0.0
 40
0.4800332168
 40
1.0
 40
1.0
 40
1.0
 40
1.0
 10
27.5019813031
 20
16.0711094242
 30
0.0
 10
27.3155665207
 20
16.1879013441
 30
0.0
 10
26.9522493849
 20
16.4719566685
 30
0.0
 10
26.640441542
 20
16.8103166884
 30
0.0
 10
26.4916535699
 20
16.996432335
 30
0.0
  0
SPLINE
  5
31C
100
AcDbEntity
  8
00_COMPONENTS_1
100
AcDbSpline
 62
7
  6
CONTINUOUS
 70
0
 71
3
 72
9
 73
5
 74
0
 42
0.0000001
 43
0.0000001
 44
0.0000000001
 40
0.0
 40
0.0
 40
0.0
 40
0.0
 40
0.5279155743
 40
1.0
 40
1.0
 40
1.0
 40
1.0
 10
55.3809355134
 20
53.679148932
 30
0.0
 10
55.3654369019
 20
53.6541413938
 30
0.0
 10
55.3412358249
 20
53.6031001475
 30
0.0
 10
55.3327379623
 20
53.5470937106
 30
0.0
 10
55.3327379623
 20
53.5207843805
 30
0.0
  0
SPLINE
  5
31D
100
AcDbEntity
  8
00_COMPONENTS_1
100
AcDbSpline
 62
7
  6
CONTINUOUS
 70
0
 71
3
 72
9
 73
5
 74
0
 42
0.0000001
 43
0.0000001
 44
0.0000000001
 40
0.0
 40
0.0
 40
0.0
 40
0.0
 40
0.2524888959
 40
1.0
 40
1.0
 40
1.0
 40
1.0
 10
38.4524658659
 20
14.0032615683
 30
0.0
 10
38.4735437745
 20
14.0092388232
 30
0.0
 10
38.5562985218
 20
14.0353948448
 30
0.0
 10
38.6358358425
 20
14.0717734054
 30
0.0
 10
38.6920091355
 20
14.1042048796
 30
0.0
  0
SPLINE
  5
31E
100
AcDbEntity
  8
00_COMPONENTS_1
100
AcDbSpline
 62
7
  6
CONTINUOUS
 70
0
 71
3
 72
9
 73
5
 74
0
 42
0.0000001
 43
0.0000001
 44
0.0000000001
 40
0.0
 40
0.0
 40
0.0
 40
0.0
 40
0.2451537126
 40
1.0
 40
1.0
 40
1.0
 40
1.0
 10
56.6679328506
 20
53.3626230931
 30
0.0
 10
56.6663840944
 20
53.3461317479
 30
0.0
 10
56.6592322862
 20
53.2789423687
 30
0.0
 10
56.6488266746
 20
53.2121069848
 30
0.0
 10
56.6393255243
 20
53.1619982963
 30
0.0
  0
SPLINE
  5
31F
100
AcDbEntity
  8
00_COMPONENTS_1
100
AcDbSpline
 62
7
  6
CONTINUOUS
 70
0
 71
3
 72
14
 73
10
 74
0
 42
0.0000001
 43
0.0000001
 44
0.0000000001
 40
0.0
 40
0.0
 40
0.0
 40
0.0
 40
0.3057422253
 40
0.4454969255
 40
0.574775505
 40
0.6933987738
 40
0.8021677852
 40
0.9032260758
 40
1.0
 40
1.0
 40
1.0
 40
1.0
 10
56.1587562111
 20
53.2300841021
 30
0.0
 10
56.2957681643
 20
53.3831627253
 30
0.0
 10
56.51658932
 20
53.5896473574
 30
0.0
 10
56.8414258964
 20
53.8000727954
 30
0.0
 10
57.0778888586
 20
53.9115416405
 30
0.0
 10
57.3091528961
 20
53.9787614621
 30
0.0
 10
57.5304884161
 20
53.9994004697
 30
0.0
 10
57.7366209514
 20
53.9721347006
 30
0.0
 10
57.8613180679
 20
53.921047689
 30
0.0
 10
57.9176378772
 20
53.8885445842
 30
0.0
  0
SPLINE
  5
320
100
AcDbEntity
  8
00_COMPONENTS_1
100
AcDbSpline
 62
7
  6
CONTINUOUS
 70
0
 71
3
 72
9
 73
5
 74
0
 42
0.0000001
 43
0.0000001
 44
0.0000000001
 40
0.0
 40
0.0
 40
0.0
 40
0.0
 40
0.4757014583
 40
1.0
 40
1.0
 40
1.0
 40
1.0
 10
56.1105586599
 20
53.0717195506
 30
0.0
 10
56.1105586599
 20
53.0890275577
 30
0.0
 10
56.1140361421
 20
53.1255120313
 30
0.0
 10
56.1249390791
 20
53.1605133065
 30
0.0
 10
56.132182182
 20
53.1781609069
 30
0.0
  0
SPLINE
  5
321
100
AcDbEntity
  8
00_COMPONENTS_1
100
AcDbSpline
 62
7
  6
CONTINUOUS
 70
0
 71
3
 72
11
 73
7
 74
0
 42
0.0000001
 43
0.0000001
 44
0.0000000001
 40
0.0
 40
0.0
 40
0.0
 40
0.0
 40
0.2897042895
 40
0.5490907647
 40
0.7822174449
 40
1.0
 40
1.0
 40
1.0
 40
1.0
 10
58.0904494041
 20
52.7181277556
 30
0.0
 10
58.0904494041
 20
52.8093308272
 30
0.0
 10
58.0766217533
 20
52.982779557
 30
0.0
 10
58.0063772737
 20
53.2210887779
 30
0.0
 10
57.8881088316
 20
53.4144626677
 30
0.0
 10
57.7770187188
 20
53.507855109
 30
0.0
 10
57.717642736
 20
53.5421350432
 30
0.0
  0
SPLINE
  5
322
100
AcDbEntity
  8
00_COMPONENTS_1
100
AcDbSpline
 62
7
  6
CONTINUOUS
 70
0
 71
3
 72
15
 73
11
 74
0
 42
0.0000001
 43
0.0000001
 44
0.0000000001
 40
0.0
 40
0.0
 40
0.0
 40
0.0
 40
0.1141229605
 40
0.2373462928
 40
0.366971064
 40
0.4999983279
 40
0.633025824
 40
0.762651271
 40
0.8858756957
 40
1.0
 40
1.0
 40
1.0
 40
1.0
 10
56.8176624972
 20
50.5135839278
 30
0.0
 10
56.9047706916
 20
50.5638755671
 30
0.0
 10
57.0768635524
 20
50.6845589018
 30
0.0
 10
57.3137032474
 20
50.9060618517
 30
0.0
 10
57.5319150023
 20
51.1679972029
 30
0.0
 10
57.7233664054
 20
51.460365071
 30
0.0
 10
57.8808374784
 20
51.7723520658
 30
0.0
 10
57.9985735846
 20
52.0922987834
 30
0.0
 10
58.071980734
 20
52.4081622899
 30
0.0
 10
58.0904494041
 20
52.6175428423
 30
0.0
 10
58.0904494041
 20
52.7181277556
 30
0.0
  0
SPLINE
  5
323
100
AcDbEntity
  8
00_COMPONENTS_1
100
AcDbSpline
 62
7
  6
CONTINUOUS
 70
0
 71
3
 72
15
 73
11
 74
0
 42
0.0000001
 43
0.0000001
 44
0.0000000001
 40
0.0
 40
0.0
 40
0.0
 40
0.0
 40
0.115270465
 40
0.240014038
 40
0.3712708272
 40
0.5055506913
 40
0.6390481339
 40
0.7680268621
 40
0.8892050314
 40
1.0
 40
1.0
 40
1.0
 40
1.0
 10
23.1438886114
 20
61.2788284466
 30
0.0
 10
23.1438886114
 20
61.0960272723
 30
0.0
 10
23.1792959109
 20
60.7150325081
 30
0.0
 10
23.319326623
 20
60.1414355543
 30
0.0
 10
23.5429617556
 20
59.5625796998
 30
0.0
 10
23.8407647039
 20
59.0025582417
 30
0.0
 10
24.200524253
 20
58.4845414126
 30
0.0
 10
24.6073455191
 20
58.0298295821
 30
0.0
 10
25.0444137537
 20
57.6574188991
 30
0.0
 10
25.3602655806
 20
57.464409512
 30
0.0
 10
25.5187088889
 20
57.388465336
 30
0.0
  0
SPLINE
  5
324
100
AcDbEntity
  8
00_COMPONENTS_1
100
AcDbSpline
 62
7
  6
CONTINUOUS
 70
0
 71
3
 72
11
 73
7
 74
0
 42
0.0000001
 43
0.0000001
 44
0.0000000001
 40
0.0
 40
0.0
 40
0.0
 40
0.0
 40
0.284606958
 40
0.5422596311
 40
0.7774784279
 40
1.0
 40
1.0
 40
1.0
 40
1.0
 10
25.5187088889
 20
57.388465336
 30
0.0
 10
25.6398761216
 20
57.3303881237
 30
0.0
 10
25.8801469987
 20
57.2374921245
 30
0.0
 10
26.2448808944
 20
57.1751562422
 30
0.0
 10
26.5855517035
 20
57.2012789988
 30
0.0
 10
26.7907687116
 20
57.2804930166
 30
0.0
 10
26.881762442
 20
57.332998282
 30
0.0
  0
SPLINE
  5
325
100
AcDbEntity
  8
00_COMPONENTS_1
100
AcDbSpline
 62
7
  6
CONTINUOUS
 70
0
 71
3
 72
12
 73
8
 74
0
 42
0.0000001
 43
0.0000001
 44
0.0000000001
 40
0.0
 40
0.0
 40
0.0
 40
0.0
 40
0.1081609636
 40
0.2183678068
 40
0.4513466778
 40
0.710443771
 40
1.0
 40
1.0
 40
1.0
 40
1.0
 10
35.5920458012
 20
76.783835585
 30
0.0
 10
35.5412207343
 20
76.7544918923
 30
0.0
 10
35.4434811661
 20
76.6863112156
 30
0.0
 10
35.2682350509
 20
76.5138472083
 30
0.0
 10
35.0945671108
 20
76.2308435523
 30
0.0
 10
34.9738232036
 20
75.8205852236
 30
0.0
 10
34.9499873204
 20
75.5218307895
 30
0.0
 10
34.9499873204
 20
75.3647189005
 30
0.0
  0
SPLINE
  5
326
100
AcDbEntity
  8
00_COMPONENTS_1
100
AcDbSpline
 62
7
  6
CONTINUOUS
 70
0
 71
3
 72
9
 73
5
 74
0
 42
0.0000001
 43
0.0000001
 44
0.0000000001
 40
0.0
 40
0.0
 40
0.0
 40
0.0
 40
0.5227731277
 40
1.0
 40
1.0
 40
1.0
 40
1.0
 10
24.2217334718
 20
15.7018270495
 30
0.0
 10
24.3839952424
 20
15.4977009802
 30
0.0
 10
24.7249229458
 20
15.1303135081
 30
0.0
 10
25.1273472482
 20
14.8287902579
 30
0.0
 10
25.3334992107
 20
14.7097710594
 30
0.0
  0
SPLINE
  5
327
100
AcDbEntity
  8
00_COMPONENTS_1
100
AcDbSpline
 62
7
  6
CONTINUOUS
 70
0
 71
3
 72
12
 73
8
 74
0
 42
0.0000001
 43
0.0000001
 44
0.0000000001
 40
0.0
 40
0.0
 40
0.0
 40
0.0
 40
0.2895552427
 40
0.5486519846
 40
0.7816312595
 40
0.8918385311
 40
1.0
 40
1.0
 40
1.0
 40
1.0
 10
25.3334992107
 20
14.7097710594
 30
0.0
 10
25.469407961
 20
14.631305881
 30
0.0
 10
25.7397481707
 20
14.5027201625
 30
0.0
 10
26.1549427233
 20
14.4022759859
 30
0.0
 10
26.4864883393
 20
14.4111666132
 30
0.0
 10
26.723201253
 20
14.4766280661
 30
0.0
 10
26.8309953416
 20
14.5271251448
 30
0.0
 10
26.8817629551
 20
14.5564356669
 30
0.0
  0
SPLINE
  5
328
100
AcDbEntity
  8
00_COMPONENTS_1
100
AcDbSpline
 62
7
  6
CONTINUOUS
 70
0
 71
3
 72
11
 73
7
 74
0
 42
0.0000001
 43
0.0000001
 44
0.0000000001
 40
0.0
 40
0.0
 40
0.0
 40
0.0
 40
0.21778357
 40
0.4509748072
 40
0.7108239081
 40
1.0
 40
1.0
 40
1.0
 40
1.0
 10
56.1519863792
 20
49.9868188612
 30
0.0
 10
56.1453825326
 20
49.990615851
 30
0.0
 10
56.1330340475
 20
50.0009941564
 30
0.0
 10
56.1198894219
 20
50.0225011074
 30
0.0
 10
56.1121307626
 20
50.0489902928
 30
0.0
 10
56.1105591104
 20
50.0682539343
 30
0.0
 10
56.1105586599
 20
50.0783686989
 30
0.0
  0
SPLINE
  5
329
100
AcDbEntity
  8
00_COMPONENTS_1
100
AcDbSpline
 62
7
  6
CONTINUOUS
 70
0
 71
3
 72
11
 73
7
 74
0
 42
0.0000001
 43
0.0000001
 44
0.0000000001
 40
0.0
 40
0.0
 40
0.0
 40
0.0
 40
0.2281990546
 40
0.4783995259
 40
0.7398409163
 40
1.0
 40
1.0
 40
1.0
 40
1.0
 10
56.1812690437
 20
51.6158685401
 30
0.0
 10
56.1812690437
 20
51.68632501
 30
0.0
 10
56.1993465259
 20
51.8341969467
 30
0.0
 10
56.2679081137
 20
52.0531077137
 30
0.0
 10
56.3746373139
 20
52.2672011463
 30
0.0
 10
56.4681405003
 20
52.3992961754
 30
0.0
 10
56.5198467491
 20
52.4607651088
 30
0.0
  0
SPLINE
  5
32A
100
AcDbEntity
  8
00_COMPONENTS_1
100
AcDbSpline
 62
7
  6
CONTINUOUS
 70
0
 71
3
 72
13
 73
9
 74
0
 42
0.0000001
 43
0.0000001
 44
0.0000000001
 40
0.0
 40
0.0
 40
0.0
 40
0.0
 40
0.3066291587
 40
0.5764405293
 40
0.6952417054
 40
0.8038040158
 40
0.9041889358
 40
1.0
 40
1.0
 40
1.0
 40
1.0
 10
56.5198467491
 20
52.4607651088
 30
0.0
 10
56.5768957554
 20
52.5285855687
 30
0.0
 10
56.6961275934
 20
52.6466355256
 30
0.0
 10
56.8694682307
 20
52.7537237837
 30
0.0
 10
57.0071071111
 20
52.7974128977
 30
0.0
 10
57.1019205469
 20
52.8083599796
 30
0.0
 10
57.1902834868
 20
52.7980524439
 30
0.0
 10
57.2436431705
 20
52.7765094967
 30
0.0
 10
57.2676333343
 20
52.7626778198
 30
0.0
  0
SPLINE
  5
32B
100
AcDbEntity
  8
00_COMPONENTS_1
100
AcDbSpline
 62
7
  6
CONTINUOUS
 70
0
 71
3
 72
15
 73
11
 74
0
 42
0.0000001
 43
0.0000001
 44
0.0000000001
 40
0.0
 40
0.0
 40
0.0
 40
0.0
 40
0.1152664703
 40
0.2400046085
 40
0.3712558111
 40
0.5055313964
 40
0.6390273167
 40
0.7680084595
 40
0.8891936304
 40
1.0
 40
1.0
 40
1.0
 40
1.0
 10
34.9499873204
 20
75.3647189005
 30
0.0
 10
34.9499873204
 20
75.1817474066
 30
0.0
 10
34.9854212627
 20
74.800399482
 30
0.0
 10
35.1255606532
 20
74.2262667374
 30
0.0
 10
35.3493720387
 20
73.6468626539
 30
0.0
 10
35.6474144856
 20
73.0862953516
 30
0.0
 10
36.0074710098
 20
72.5677499642
 30
0.0
 10
36.4146391986
 20
72.1125416843
 30
0.0
 10
36.8520953303
 20
71.7396812481
 30
0.0
 10
37.1682338196
 20
71.5464023725
 30
0.0
 10
37.3268262762
 20
71.4703346586
 30
0.0
  0
SPLINE
  5
32C
100
AcDbEntity
  8
00_COMPONENTS_1
100
AcDbSpline
 62
7
  6
CONTINUOUS
 70
0
 71
3
 72
11
 73
7
 74
0
 42
0.0000001
 43
0.0000001
 44
0.0000000001
 40
0.0
 40
0.0
 40
0.0
 40
0.0
 40
0.2895690785
 40
0.5491141563
 40
0.7822458379
 40
1.0
 40
1.0
 40
1.0
 40
1.0
 10
55.7566141232
 20
51.8610376263
 30
0.0
 10
55.7566141232
 20
51.8154581027
 30
0.0
 10
55.7635646881
 20
51.7287357674
 30
0.0
 10
55.7986351375
 20
51.6095709131
 30
0.0
 10
55.8577653411
 20
51.5128392819
 30
0.0
 10
55.9133572551
 20
51.4662119491
 30
0.0
 10
55.9430376017
 20
51.4490687771
 30
0.0
  0
SPLINE
  5
32D
100
AcDbEntity
  8
00_COMPONENTS_1
100
AcDbSpline
 62
7
  6
CONTINUOUS
 70
0
 71
3
 72
11
 73
7
 74
0
 42
0.0000001
 43
0.0000001
 44
0.0000000001
 40
0.0
 40
0.0
 40
0.0
 40
0.0
 40
0.2846246432
 40
0.5422828999
 40
0.777494361
 40
1.0
 40
1.0
 40
1.0
 40
1.0
 10
37.3268262762
 20
71.4703346586
 30
0.0
 10
37.4481781367
 20
71.4121291247
 30
0.0
 10
37.6888172996
 20
71.3190184901
 30
0.0
 10
38.0541250775
 20
71.2564971642
 30
0.0
 10
38.3953358756
 20
71.2826021775
 30
0.0
 10
38.6008767993
 20
71.3619255018
 30
0.0
 10
38.6920086453
 20
71.4145104797
 30
0.0
  0
SPLINE
  5
32E
100
AcDbEntity
  8
00_COMPONENTS_1
100
AcDbSpline
 62
7
  6
CONTINUOUS
 70
0
 71
3
 72
11
 73
7
 74
0
 42
0.0000001
 43
0.0000001
 44
0.0000000001
 40
0.0
 40
0.0
 40
0.0
 40
0.0
 40
0.260122791
 40
0.5215672263
 40
0.7717954133
 40
1.0
 40
1.0
 40
1.0
 40
1.0
 10
56.0963306587
 20
52.7075365014
 30
0.0
 10
56.0444992393
 20
52.6459648406
 30
0.0
 10
55.9507548149
 20
52.5136388149
 30
0.0
 10
55.8435895269
 20
52.2991980463
 30
0.0
 10
55.7747707789
 20
52.0798400934
 30
0.0
 10
55.7566141232
 20
51.9316452944
 30
0.0
 10
55.7566141232
 20
51.8610376263
 30
0.0
  0
SPLINE
  5
32F
100
AcDbEntity
  8
00_COMPONENTS_1
100
AcDbSpline
 62
7
  6
CONTINUOUS
 70
0
 71
3
 72
14
 73
10
 74
0
 42
0.0000001
 43
0.0000001
 44
0.0000000001
 40
0.0
 40
0.0
 40
0.0
 40
0.0
 40
0.0967739436
 40
0.1978322471
 40
0.3066012715
 40
0.4252245456
 40
0.5545031342
 40
0.6942578212
 40
1.0
 40
1.0
 40
1.0
 40
1.0
 10
57.1398171808
 20
54.3376094166
 30
0.0
 10
57.0834973645
 20
54.3701125356
 30
0.0
 10
56.9588002112
 20
54.4211995175
 30
0.0
 10
56.7526676528
 20
54.4484653209
 30
0.0
 10
56.5313321112
 20
54.427826272
 30
0.0
 10
56.3000680598
 20
54.3606064414
 30
0.0
 10
56.063605104
 20
54.2491375767
 30
0.0
 10
55.7387685701
 20
54.0387121371
 30
0.0
 10
55.5179474459
 20
53.8322275322
 30
0.0
 10
55.3809355134
 20
53.679148932
 30
0.0
  0
SPLINE
  5
330
100
AcDbEntity
  8
00_COMPONENTS_1
100
AcDbSpline
 62
7
  6
CONTINUOUS
 70
0
 71
3
 72
9
 73
5
 74
0
 42
0.0000001
 43
0.0000001
 44
0.0000000001
 40
0.0
 40
0.0
 40
0.0
 40
0.0
 40
0.2388805615
 40
1.0
 40
1.0
 40
1.0
 40
1.0
 10
55.3523922028
 20
53.502782336
 30
0.0
 10
55.3347452883
 20
53.4909546494
 30
0.0
 10
55.2625557261
 20
53.4389428059
 30
0.0
 10
55.1969766388
 20
53.3780166677
 30
0.0
 10
55.1508895476
 20
53.3284427209
 30
0.0
  0
SPLINE
  5
331
100
AcDbEntity
  8
00_COMPONENTS_1
100
AcDbSpline
 62
7
  6
CONTINUOUS
 70
0
 71
3
 72
11
 73
7
 74
0
 42
0.0000001
 43
0.0000001
 44
0.0000000001
 40
0.0
 40
0.0
 40
0.0
 40
0.0
 40
0.2177442246
 40
0.4508817658
 40
0.7104588047
 40
1.0
 40
1.0
 40
1.0
 40
1.0
 10
56.3676953111
 20
51.2039046182
 30
0.0
 10
56.3380131382
 20
51.2210412569
 30
0.0
 10
56.2824215384
 20
51.2676693588
 30
0.0
 10
56.2232856796
 20
51.3644024095
 30
0.0
 10
56.1882278266
 20
51.4835724152
 30
0.0
 10
56.1812690437
 20
51.5702935671
 30
0.0
 10
56.1812690437
 20
51.6158685401
 30
0.0
  0
SPLINE
  5
332
100
AcDbEntity
  8
00_COMPONENTS_1
100
AcDbSpline
 62
7
  6
CONTINUOUS
 70
0
 71
3
 72
9
 73
5
 74
0
 42
0.0000001
 43
0.0000001
 44
0.0000000001
 40
0.0
 40
0.0
 40
0.0
 40
0.0
 40
0.2594042167
 40
1.0
 40
1.0
 40
1.0
 40
1.0
 10
54.8288112901
 20
84.2811905178
 30
0.0
 10
54.8362229959
 20
84.240559907
 30
0.0
 10
54.8616160056
 20
84.0833859975
 30
0.0
 10
54.8739748993
 20
83.9239536459
 30
0.0
 10
54.8739748993
 20
83.8060395563
 30
0.0
  0
SPLINE
  5
333
100
AcDbEntity
  8
00_COMPONENTS_1
100
AcDbSpline
 62
7
  6
CONTINUOUS
 70
0
 71
3
 72
11
 73
7
 74
0
 42
0.0000001
 43
0.0000001
 44
0.0000000001
 40
0.0
 40
0.0
 40
0.0
 40
0.0
 40
0.286931776
 40
0.546660052
 40
0.7818959624
 40
1.0
 40
1.0
 40
1.0
 40
1.0
 10
54.8739748993
 20
83.8060395563
 30
0.0
 10
54.8739748993
 20
83.6955120958
 30
0.0
 10
54.858621717
 20
83.4843802703
 30
0.0
 10
54.781834268
 20
83.1910052993
 30
0.0
 10
54.6529151392
 20
82.9453668994
 30
0.0
 10
54.5306200954
 20
82.8165718055
 30
0.0
 10
54.4639288577
 20
82.7654763296
 30
0.0
  0
SPLINE
  5
334
100
AcDbEntity
  8
00_COMPONENTS_1
100
AcDbSpline
 62
7
  6
CONTINUOUS
 70
0
 71
3
 72
12
 73
8
 74
0
 42
0.0000001
 43
0.0000001
 44
0.0000000001
 40
0.0
 40
0.0
 40
0.0
 40
0.0
 40
0.1081609636
 40
0.2183678068
 40
0.4513466778
 40
0.710443771
 40
1.0
 40
1.0
 40
1.0
 40
1.0
 10
23.7852354664
 20
62.6963722526
 30
0.0
 10
23.7344667315
 20
62.667061083
 30
0.0
 10
23.636835493
 20
62.5989559743
 30
0.0
 10
23.4617836119
 20
62.4266831176
 30
0.0
 10
23.2883081567
 20
62.1439931288
 30
0.0
 10
23.1676980761
 20
61.7341895101
 30
0.0
 10
23.1438886114
 20
61.4357662006
 30
0.0
 10
23.1438886114
 20
61.2788284466
 30
0.0
  0
SPLINE
  5
335
100
AcDbEntity
  8
00_COMPONENTS_1
100
AcDbSpline
 62
7
  6
CONTINUOUS
 70
0
 71
3
 72
12
 73
8
 74
0
 42
0.0000001
 43
0.0000001
 44
0.0000000001
 40
0.0
 40
0.0
 40
0.0
 40
0.0
 40
0.2496316211
 40
0.3744628915
 40
0.4998506167
 40
0.7506206114
 40
1.0
 40
1.0
 40
1.0
 40
1.0
 10
56.0951918282
 20
52.7097163228
 30
0.0
 10
56.0193320324
 20
52.7535130055
 30
0.0
 10
55.9064530953
 20
52.8207813292
 30
0.0
 10
55.7553661633
 20
52.9098700043
 30
0.0
 10
55.6030148681
 20
52.9975820551
 30
0.0
 10
55.4125334112
 20
53.1066659013
 30
0.0
 10
55.2619845295
 20
53.1968776114
 30
0.0
 10
55.1865194953
 20
53.2411764701
 30
0.0
  0
SPLINE
  5
336
100
AcDbEntity
  8
00_COMPONENTS_1
100
AcDbSpline
 62
7
  6
CONTINUOUS
 70
0
 71
3
 72
11
 73
7
 74
0
 42
0.0000001
 43
0.0000001
 44
0.0000000001
 40
0.0
 40
0.0
 40
0.0
 40
0.0
 40
0.2891761207
 40
0.5490246487
 40
0.7822158049
 40
1.0
 40
1.0
 40
1.0
 40
1.0
 10
55.3327379623
 20
50.5274335289
 30
0.0
 10
55.3327384127
 20
50.5173187626
 30
0.0
 10
55.3343100315
 20
50.4980551361
 30
0.0
 10
55.3420686934
 20
50.4715659696
 30
0.0
 10
55.3552133139
 20
50.4500590196
 30
0.0
 10
55.3675618155
 20
50.4396806925
 30
0.0
 10
55.3741656909
 20
50.4358837077
 30
0.0
  0
ELLIPSE
  5
337
100
AcDbEntity
  8
00_COMPONENTS_1
100
AcDbEllipse
 62
7
  6
CONTINUOUS
 10
39.6468568993
 20
75.5278941761
 30
0.0
 11
-1.5309084123
 21
2.608953509
 31
0.0
 40
0.582040398
 41
0.9396562427
 42
2.1653783964
  0
ELLIPSE
  5
338
100
AcDbEntity
  8
00_COMPONENTS_1
100
AcDbEllipse
 62
7
  6
CONTINUOUS
 10
27.9382122756
 20
18.754548999
 30
0.0
 11
-1.4993953508
 21
2.6272205238
 31
0.0
 40
0.5740218783
 41
-4.4413997779
 42
-4.1983818857
  0
ELLIPSE
  5
339
100
AcDbEntity
  8
00_COMPONENTS_1
100
AcDbEllipse
 62
7
  6
CONTINUOUS
 10
27.9382122756
 20
61.5311106324
 30
0.0
 11
-1.4993953508
 21
2.6272205238
 31
0.0
 40
0.5740218783
 41
1.0553708468
 42
2.1137772614
  0
ENDSEC
  0
SECTION
  2
OBJECTS
  0
DICTIONARY
  5
C
100
AcDbDictionary
280
0
281
1
  3
ACAD_GROUP
350
D
  3
ACAD_MLINESTYLE
350
17
  3
ACAD_LAYOUT
350
1A
  3
ACAD_PLOTSETTINGS
350
19
  3
ACAD_PLOTSTYLENAME
350
E
  0
DICTIONARY
  5
D
102
{ACAD_REACTORS
330
C
102
}
100
AcDbDictionary
280
0
281
1
  0
ACDBDICTIONARYWDFLT
  5
E
102
{ACAD_REACTORS
330
C
102
}
100
AcDbDictionary
281
1
  3
Normal
350
F
100
AcDbDictionaryWithDefault
340
F
  0
DICTIONARY
  5
17
102
{ACAD_REACTORS
330
C
102
}
100
AcDbDictionary
280
0
281
1
  3
Standard
350
18
  0
DICTIONARY
  5
19
102
{ACAD_REACTORS
330
C
102
}
100
AcDbDictionary
281
1
  0
DICTIONARY
  5
1A
102
{ACAD_REACTORS
330
C
102
}
100
AcDbDictionary
281
1
  3
Model
350
33A
  3
Layout1
350
33B
  0
ACDBPLACEHOLDER
  5
F
102
{ACAD_REACTORS
330
E
102
}
  0
MLINESTYLE
  5
18
102
{ACAD_REACTORS
330
17
102
}
100
AcDbMlineStyle
  2
STANDARD
 70
0
  3

 62
256
 51
90.0
 52
90.0
 71
2
 49
0.5
 62
256
  6
BYLAYER
 49
-0.5
 62
256
  6
BYLAYER
  0
LAYOUT
  5
33A
102
{ACAD_REACTORS
330
1A
102
}
100
AcDbPlotSettings
  1

  2
none_device
  4

  6

 40
0.0
 41
0.0
 42
0.0
 43
0.0
 44
210.0
 45
297.0
 46
0.0
 47
0.0
 48
0.0
 49
0.0
140
0.0
141
0.0
142
1.0
143
1.0
 70
1024
 72
1
 73
0
 74
0
  7

 75
0
147
1.0
148
0.0
149
0.0
100
AcDbLayout
  1
Model
 70
0
 71
0
 10
0.0
 20
0.0
 11
210.0
 21
297.0
 12
0.0
 22
0.0
 32
0.0
 14
0.0
 24
0.0
 34
0.0
 15
0.0
 25
0.0
 35
0.0
146
0.0
 13
0.0
 23
0.0
 33
0.0
 16
1.0
 26
0.0
 36
0.0
 17
0.0
 27
1.0
 37
0.0
 76
0
330
211
345
0
346
0
  0
LAYOUT
  5
33B
102
{ACAD_REACTORS
330
1A
102
}
100
AcDbPlotSettings
  1

  2
none_device
  4

  6

 40
0.0
 41
0.0
 42
0.0
 43
0.0
 44
210.0
 45
297.0
 46
0.0
 47
0.0
 48
0.0
 49
0.0
140
0.0
141
0.0
142
1.0
143
1.0
 70
0
 72
1
 73
0
 74
0
  7

 75
0
147
1.0
148
0.0
149
0.0
100
AcDbLayout
  1
Layout1
 70
0
 71
1
 10
0.0
 20
0.0
 11
210.0
 21
297.0
 12
0.0
 22
0.0
 32
0.0
 14
0.0
 24
0.0
 34
0.0
 15
0.0
 25
0.0
 35
0.0
146
0.0
 13
0.0
 23
0.0
 33
0.0
 16
1.0
 26
0.0
 36
0.0
 17
0.0
 27
1.0
 37
0.0
 76
0
330
212
345
0
346
0
  0
ENDSEC
  0
EOF
