999
DXF file: C:\Users\sesa63760\Dev\_Creo\CAD\MCADID0000921_3D-CAD\drw0001_7.dxf
999
Pro/ENGINEER 2019471 by Parametric Technology Corporation
  0
SECTION
  2
HEADER
  9
$ACADVER
  1
AC1024
  9
$DWGCODEPAGE
  3
ANSI_1252
  9
$EXTMAX
 10
191.1697474747
 20
270.3686428571
 30
0.0
  9
$EXTMIN
 10
0.0
 20
0.0
 30
0.0
  9
$LIMMIN
 10
0.0
 20
0.0
  9
$LIMMAX
 10
191.1697474747
 20
270.3686428571
  9
$VIEWCTR
 10
95.5848737374
 20
135.1843214286
  9
$VIEWSIZE
 40
270.3686428571
  9
$CLAYER
  8
0
  9
$LTSCALE
 40
17.6240300529
  9
$CELTYPE
  6
BYLAYER
  9
$DIMSCALE
 40
1.0
  9
$DIMASZ
 40
2.2758303271
  9
$DIMEXO
 40
1.0
  9
$DIMDLI
 40
12.176602582
  9
$DIMEXE
 40
1.0
  9
$DIMCEN
 40
2.8839321905
  9
$DIMLFAC
 40
1.0
  9
$DIMBLK
  1
_FILLED
  9
$DIMALT
 70
0
  9
$DIMALTF
 40
0.0393700787
  9
$DIMTXT
 40
3.1861624579
  9
$DIMTOL
 70
1
  9
$DIMLIM
 70
0
  9
$DIMTFAC
 40
1.0
  9
$DIMTP
 40
0.01
  9
$DIMTM
 40
0.01
  9
$DIMGAP
 40
0.625
  9
$DIMDSEP
 70
46
  9
$AUNITS
 70
0
  9
$PDMODE
 70
3
  9
$PDSIZE
 40
0.3125
  9
$HANDSEED
  5
328
  9
$TILEMODE
 70
1
  9
$MEASUREMENT
 70
1
  9
$INSUNITS
 70
4
  0
ENDSEC
  0
SECTION
  2
CLASSES
  0
CLASS
  1
ACDBDICTIONARYWDFLT
  2
AcDbDictionaryWithDefault
  3
AutoCAD 2000
 90
0
 91
1
280
0
281
0
  0
CLASS
  1
ACDBPLACEHOLDER
  2
AcDbPlaceHolder
  3
AutoCAD 2000
 90
0
 91
1
280
0
281
0
  0
CLASS
  1
LAYOUT
  2
AcDbLayout
  3
AutoCAD 2000
 90
0
 91
0
280
0
281
0
  0
ENDSEC
  0
SECTION
  2
TABLES
  0
TABLE
  2
VPORT
  5
8
100
AcDbSymbolTable
 70
2
  0
VPORT
  5
1F4
100
AcDbSymbolTableRecord
100
AcDbViewportTableRecord
  2
*ACTIVE
 70
0
 10
0.0
 20
0.0
 11
1.0
 21
1.0
 12
95.5848737374
 22
135.1843214286
 13
0.0
 23
0.0
 14
1.0
 24
1.0
 15
0.0
 25
0.0
 16
0.0
 26
0.0
 36
1.0
 17
0.0
 27
0.0
 37
0.0
 40
270.3686428571
 41
0.7070707071
 42
50.0
 43
0.0
 44
0.0
 50
0.0
 51
0.0
 71
0
 72
100
 73
1
 74
1
 75
0
 76
0
 77
0
 78
0
  0
ENDTAB
  0
TABLE
  2
LTYPE
  5
5
100
AcDbSymbolTable
 70
6
  0
LTYPE
  5
14
100
AcDbSymbolTableRecord
100
AcDbLinetypeTableRecord
  2
BYBLOCK
 70
0
  3

 72
65
 73
0
 40
0.0
  0
LTYPE
  5
15
100
AcDbSymbolTableRecord
100
AcDbLinetypeTableRecord
  2
BYLAYER
 70
0
  3

 72
65
 73
0
 40
0.0
  0
LTYPE
  5
16
100
AcDbSymbolTableRecord
100
AcDbLinetypeTableRecord
  2
CONTINUOUS
 70
64
  3
Solid line
 72
65
 73
0
 40
0.0
  0
LTYPE
  5
1F5
100
AcDbSymbolTableRecord
100
AcDbLinetypeTableRecord
  2
CENTER
 70
64
  3
____ _ ____ _ ____ _ ____ _ ____ _ ____ _ ____
 72
65
 73
4
 40
0.6
 49
0.375
 74
0
 49
-0.075
 74
0
 49
0.075
 74
0
 49
-0.075
 74
0
  0
LTYPE
  5
1F6
100
AcDbSymbolTableRecord
100
AcDbLinetypeTableRecord
  2
HIDDEN
 70
64
  3
- - - - - - - - - - - - - - - - - - - -
 72
65
 73
2
 40
0.2
 49
0.1
 74
0
 49
-0.1
 74
0
  0
LTYPE
  5
1F7
100
AcDbSymbolTableRecord
100
AcDbLinetypeTableRecord
  2
PHANTOM
 70
64
  3
_____ _ _ _____ _ _ _____ _ _ _____
 72
65
 73
6
 40
0.8
 49
0.45
 74
0
 49
-0.05
 74
0
 49
0.1
 74
0
 49
-0.05
 74
0
 49
0.1
 74
0
 49
-0.05
 74
0
  0
LTYPE
  5
1F8
100
AcDbSymbolTableRecord
100
AcDbLinetypeTableRecord
  2
DOT
 70
64
  3
. . . . . . . . . . . . . . . . . . . .
 72
65
 73
2
 40
0.2
 49
0.1
 74
0
 49
-0.1
 74
0
  0
LTYPE
  5
1F9
100
AcDbSymbolTableRecord
100
AcDbLinetypeTableRecord
  2
DASHED
 70
64
  3
- - - - - - - - - - - - - - - - - - - -
 72
65
 73
2
 40
0.2
 49
0.1
 74
0
 49
-0.1
 74
0
  0
ENDTAB
  0
TABLE
  2
LAYER
  5
2
100
AcDbSymbolTable
 70
36
  0
LAYER
  5
10
100
AcDbSymbolTableRecord
100
AcDbLayerTableRecord
  2
0
 70
0
 62
7
  6
CONTINUOUS
370
-3
390
F
  0
LAYER
  5
1FA
100
AcDbSymbolTableRecord
100
AcDbLayerTableRecord
  2
DEFAULT_1
 70
0
 62
7
  6
CENTER
370
-3
390
F
  0
LAYER
  5
1FB
100
AcDbSymbolTableRecord
100
AcDbLayerTableRecord
  2
DEFAULT_2
 70
0
 62
8
  6
HIDDEN
370
-3
390
F
  0
LAYER
  5
1FC
100
AcDbSymbolTableRecord
100
AcDbLayerTableRecord
  2
DEFAULT_3
 70
0
 62
7
  6
PHANTOM
370
-3
390
F
  0
LAYER
  5
1FD
100
AcDbSymbolTableRecord
100
AcDbLayerTableRecord
  2
00_COMPONENTS
 70
0
 62
7
  6
CONTINUOUS
370
-3
390
F
  0
LAYER
  5
1FE
100
AcDbSymbolTableRecord
100
AcDbLayerTableRecord
  2
01_1_DEFAULT_DATUMS
 70
0
 62
7
  6
CONTINUOUS
370
-3
390
F
  0
LAYER
  5
1FF
100
AcDbSymbolTableRecord
100
AcDbLayerTableRecord
  2
01_PLANES
 70
0
 62
7
  6
CONTINUOUS
370
-3
390
F
  0
LAYER
  5
200
100
AcDbSymbolTableRecord
100
AcDbLayerTableRecord
  2
02_COORD_SYS
 70
0
 62
7
  6
CONTINUOUS
370
-3
390
F
  0
LAYER
  5
201
100
AcDbSymbolTableRecord
100
AcDbLayerTableRecord
  2
03_AXES
 70
0
 62
7
  6
CONTINUOUS
370
-3
390
F
  0
LAYER
  5
202
100
AcDbSymbolTableRecord
100
AcDbLayerTableRecord
  2
04_POINTS
 70
0
 62
7
  6
CONTINUOUS
370
-3
390
F
  0
LAYER
  5
203
100
AcDbSymbolTableRecord
100
AcDbLayerTableRecord
  2
05_CURVES
 70
0
 62
7
  6
CONTINUOUS
370
-3
390
F
  0
LAYER
  5
204
100
AcDbSymbolTableRecord
100
AcDbLayerTableRecord
  2
06_SURFS
 70
0
 62
7
  6
CONTINUOUS
370
-3
390
F
  0
LAYER
  5
205
100
AcDbSymbolTableRecord
100
AcDbLayerTableRecord
  2
07_COSMETICS
 70
0
 62
7
  6
CONTINUOUS
370
-3
390
F
  0
LAYER
  5
206
100
AcDbSymbolTableRecord
100
AcDbLayerTableRecord
  2
10_NOTES
 70
0
 62
7
  6
CONTINUOUS
370
-3
390
F
  0
LAYER
  5
207
100
AcDbSymbolTableRecord
100
AcDbLayerTableRecord
  2
11_NOTES_PUB
 70
0
 62
7
  6
CONTINUOUS
370
-3
390
F
  0
LAYER
  5
208
100
AcDbSymbolTableRecord
100
AcDbLayerTableRecord
  2
13_REF_GTOL
 70
0
 62
7
  6
CONTINUOUS
370
-3
390
F
  0
LAYER
  5
209
100
AcDbSymbolTableRecord
100
AcDbLayerTableRecord
  2
16_MISC
 70
0
 62
7
  6
CONTINUOUS
370
-3
390
F
  0
LAYER
  5
20A
100
AcDbSymbolTableRecord
100
AcDbLayerTableRecord
  2
17_NO_PRINT
 70
0
 62
7
  6
CONTINUOUS
370
-3
390
F
  0
LAYER
  5
20B
100
AcDbSymbolTableRecord
100
AcDbLayerTableRecord
  2
18_DATUM_CAMS_JOINTS
 70
0
 62
7
  6
CONTINUOUS
370
-3
390
F
  0
LAYER
  5
20C
100
AcDbSymbolTableRecord
100
AcDbLayerTableRecord
  2
19_DATUM_FUNCTIONAL
 70
0
 62
7
  6
CONTINUOUS
370
-3
390
F
  0
LAYER
  5
20D
100
AcDbSymbolTableRecord
100
AcDbLayerTableRecord
  2
20_DATUM_KINEMATIC_SCHEME
 70
0
 62
7
  6
CONTINUOUS
370
-3
390
F
  0
ENDTAB
  0
TABLE
  2
STYLE
  5
3
100
AcDbSymbolTable
 70
1
  0
STYLE
  5
11
100
AcDbSymbolTableRecord
100
AcDbTextStyleTableRecord
  2
STANDARD
 70
0
 40
0.0
 41
0.8
 50
0.0
 71
0
 42
0.2
  3
txt
  4

  0
STYLE
  5
20E
100
AcDbSymbolTableRecord
100
AcDbTextStyleTableRecord
  2
TEXTSTYLE_1
 70
0
 40
0.0
 41
0.8
 50
0.0
 71
0
 42
0.2
  3
gdt
  4

  0
ENDTAB
  0
TABLE
  2
VIEW
  5
6
100
AcDbSymbolTable
 70
0
  0
ENDTAB
  0
TABLE
  2
UCS
  5
7
100
AcDbSymbolTable
 70
0
  0
ENDTAB
  0
TABLE
  2
APPID
  5
9
100
AcDbSymbolTable
 70
1
  0
APPID
  5
20F
100
AcDbSymbolTableRecord
100
AcDbRegAppTableRecord
  2
ACAD
 70
0
  0
ENDTAB
  0
TABLE
  2
BLOCK_RECORD
  5
1
100
AcDbSymbolTable
 70
0
  0
BLOCK_RECORD
  5
210
100
AcDbSymbolTableRecord
100
AcDbBlockTableRecord
  2
*Model_Space
  0
BLOCK_RECORD
  5
211
100
AcDbSymbolTableRecord
100
AcDbBlockTableRecord
  2
*Paper_Space
  0
BLOCK_RECORD
  5
212
100
AcDbSymbolTableRecord
100
AcDbBlockTableRecord
  2
_FILLED
  0
ENDTAB
  0
TABLE
  2
DIMSTYLE
  5
A
100
AcDbSymbolTable
 70
1
100
AcDbDimStyleTable
 71
0
  0
DIMSTYLE
105
213
100
AcDbSymbolTableRecord
100
AcDbDimStyleTableRecord
  2
STANDARD
 70
0
  3

  4

 40
1.0
 41
2.2758303271
 42
1.0
 43
0.38
 44
1.0
 45
0.0
 46
0.0
 47
0.01
 48
0.01
140
3.1861624579
141
0.09
142
0.0
143
25.4
144
1.0
145
0.0
146
1.0
147
0.625
 71
1
 72
0
 73
0
 74
0
 75
0
 76
0
 77
1
 78
8
 79
2
170
0
171
1
172
0
173
0
174
0
175
0
176
0
177
0
178
0
270
2
179
2
271
2
272
2
273
2
274
2
275
0
280
0
281
0
282
0
283
1
284
8
285
0
286
0
287
3
288
0
340
11
278
46
341
212
342
212
343
212
344
212
  0
ENDTAB
  0
ENDSEC
  0
SECTION
  2
BLOCKS
  0
BLOCK
  5
20
100
AcDbEntity
  8
0
100
AcDbBlockBegin
  2
*Model_Space
 70
0
 10
0.0
 20
0.0
 30
0.0
  3
*Model_Space
  1

  0
ENDBLK
  5
21
100
AcDbEntity
  8
0
100
AcDbBlockEnd
  0
BLOCK
  5
1C
100
AcDbEntity
  8
0
100
AcDbBlockBegin
  2
*Paper_Space
 70
0
 10
0.0
 20
0.0
 30
0.0
  3
*Paper_Space
  1

  0
ENDBLK
  5
1D
100
AcDbEntity
  8
0
100
AcDbBlockEnd
  0
BLOCK
  5
214
100
AcDbEntity
  8
0
100
AcDbBlockBegin
  2
_FILLED
 70
64
 10
0.0
 20
0.0
  3
_FILLED
  1

  0
SOLID
  5
215
100
AcDbEntity
  8
0
  6
BYBLOCK
 62
0
100
AcDbTrace
 10
0.0
 20
0.0
 11
-1.0
 21
0.25
 12
-1.0
 22
-0.25
 13
-1.0
 23
-0.25
  0
ENDBLK
  5
216
100
AcDbEntity
  8
0
  6
BYBLOCK
 62
0
100
AcDbBlockEnd
  0
ENDSEC
  0
SECTION
  2
ENTITIES
  0
LINE
  5
217
100
AcDbEntity
  8
0
100
AcDbLine
 62
7
  6
CONTINUOUS
 10
103.627056428
 20
20.5453059869
 11
85.7120994785
 21
20.5453059869
  0
LINE
  5
218
100
AcDbEntity
  8
0
100
AcDbLine
 62
7
  6
CONTINUOUS
 10
92.1707997855
 20
24.6016974087
 11
99.1847119876
 21
24.6016974087
  0
LINE
  5
219
100
AcDbEntity
  8
0
100
AcDbLine
 62
7
  6
CONTINUOUS
 10
111.733660222
 20
25.2133026614
 11
79.6218515511
 21
25.2133026614
  0
LINE
  5
21A
100
AcDbEntity
  8
0
100
AcDbLine
 62
7
  6
CONTINUOUS
 10
117.1658021225
 20
25.3066586531
 11
112.6623707579
 21
25.3066586531
  0
LINE
  5
21B
100
AcDbEntity
  8
0
100
AcDbLine
 62
7
  6
CONTINUOUS
 10
78.4961661392
 20
25.3066586531
 11
72.1658021225
 21
25.3066586531
  0
LINE
  5
21C
100
AcDbEntity
  8
0
100
AcDbLine
 62
7
  6
CONTINUOUS
 10
103.0658021225
 20
31.7816785714
 11
96.6658021225
 21
31.7816785714
  0
LINE
  5
21D
100
AcDbEntity
  8
0
100
AcDbLine
 62
7
  6
CONTINUOUS
 10
105.2943862456
 20
31.8734651945
 11
103.0658021225
 21
31.8734651945
  0
LINE
  5
21E
100
AcDbEntity
  8
0
100
AcDbLine
 62
7
  6
CONTINUOUS
 10
96.6658021225
 20
31.8734651945
 11
84.0372179994
 21
31.8734651945
  0
LINE
  5
21F
100
AcDbEntity
  8
0
100
AcDbLine
 62
7
  6
CONTINUOUS
 10
117.1658021225
 20
32.2322637056
 11
105.2943862456
 21
32.2322637056
  0
LINE
  5
220
100
AcDbEntity
  8
0
100
AcDbLine
 62
7
  6
CONTINUOUS
 10
84.0372179994
 20
32.2322637056
 11
72.1658021225
 21
32.2322637056
  0
LINE
  5
221
100
AcDbEntity
  8
0
100
AcDbLine
 62
7
  6
CONTINUOUS
 10
113.5658025571
 20
43.5816785714
 11
86.165801688
 21
43.5816785714
  0
LINE
  5
222
100
AcDbEntity
  8
0
100
AcDbLine
 62
7
  6
CONTINUOUS
 10
114.0658025571
 20
44.0816785714
 11
85.665801688
 21
44.0816785714
  0
LINE
  5
223
100
AcDbEntity
  8
0
100
AcDbLine
 62
7
  6
CONTINUOUS
 10
85.665801688
 20
47.4826036126
 11
114.0658025571
 21
47.4826036126
  0
LINE
  5
224
100
AcDbEntity
  8
0
100
AcDbLine
 62
7
  6
CONTINUOUS
 10
72.1658021225
 20
49.0380785714
 11
117.1658021225
 21
49.0380785714
  0
LINE
  5
225
100
AcDbEntity
  8
0
100
AcDbLine
 62
7
  6
CONTINUOUS
 10
117.1658021225
 20
49.8338898002
 11
72.1658021225
 21
49.8338898002
  0
LINE
  5
226
100
AcDbEntity
  8
0
100
AcDbLine
 62
7
  6
CONTINUOUS
 10
72.1658021225
 20
53.8471327375
 11
117.1658021225
 21
53.8471327375
  0
LINE
  5
227
100
AcDbEntity
  8
0
100
AcDbLine
 62
7
  6
CONTINUOUS
 10
117.1658021225
 20
54.6741166536
 11
72.1658021225
 21
54.6741166536
  0
LINE
  5
228
100
AcDbEntity
  8
0
100
AcDbLine
 62
7
  6
CONTINUOUS
 10
117.1658021225
 20
74.5296226467
 11
109.280920142
 21
74.5296226467
  0
LINE
  5
229
100
AcDbEntity
  8
0
100
AcDbLine
 62
7
  6
CONTINUOUS
 10
106.950684103
 20
74.5296226467
 11
95.780920142
 21
74.5296226467
  0
LINE
  5
22A
100
AcDbEntity
  8
0
100
AcDbLine
 62
7
  6
CONTINUOUS
 10
93.450684103
 20
74.5296226467
 11
82.280920142
 21
74.5296226467
  0
LINE
  5
22B
100
AcDbEntity
  8
0
100
AcDbLine
 62
7
  6
CONTINUOUS
 10
79.950684103
 20
74.5296226467
 11
72.1658021225
 21
74.5296226467
  0
LINE
  5
22C
100
AcDbEntity
  8
0
100
AcDbLine
 62
7
  6
CONTINUOUS
 10
72.1658021225
 20
74.8380785714
 11
117.1658021225
 21
74.8380785714
  0
LINE
  5
22D
100
AcDbEntity
  8
0
100
AcDbLine
 62
7
  6
CONTINUOUS
 10
117.1658021225
 20
75.6380785714
 11
72.1658021225
 21
75.6380785714
  0
LINE
  5
22E
100
AcDbEntity
  8
0
100
AcDbLine
 62
7
  6
CONTINUOUS
 10
86.2658021225
 20
83.5380785714
 11
89.9658021225
 21
83.5380785714
  0
LINE
  5
22F
100
AcDbEntity
  8
0
100
AcDbLine
 62
7
  6
CONTINUOUS
 10
99.7658021225
 20
83.5380785714
 11
103.4658021225
 21
83.5380785714
  0
LINE
  5
230
100
AcDbEntity
  8
0
100
AcDbLine
 62
7
  6
CONTINUOUS
 10
103.2658021225
 20
83.9717057684
 11
99.9658021225
 21
83.9717057684
  0
LINE
  5
231
100
AcDbEntity
  8
0
100
AcDbLine
 62
7
  6
CONTINUOUS
 10
89.7658021225
 20
83.9717057684
 11
86.4658021225
 21
83.9717057684
  0
LINE
  5
232
100
AcDbEntity
  8
0
100
AcDbLine
 62
7
  6
CONTINUOUS
 10
75.6158021225
 20
87.6880785714
 11
86.2658021225
 21
87.6880785714
  0
LINE
  5
233
100
AcDbEntity
  8
0
100
AcDbLine
 62
7
  6
CONTINUOUS
 10
89.9658021225
 20
87.6880785714
 11
99.7658021225
 21
87.6880785714
  0
LINE
  5
234
100
AcDbEntity
  8
0
100
AcDbLine
 62
7
  6
CONTINUOUS
 10
103.4658021225
 20
87.6880785714
 11
114.1158021225
 21
87.6880785714
  0
LINE
  5
235
100
AcDbEntity
  8
0
100
AcDbLine
 62
7
  6
CONTINUOUS
 10
86.4658021225
 20
88.8380785714
 11
87.3658021225
 21
88.8380785714
  0
LINE
  5
236
100
AcDbEntity
  8
0
100
AcDbLine
 62
7
  6
CONTINUOUS
 10
88.8658021225
 20
88.8380785714
 11
89.7658021225
 21
88.8380785714
  0
LINE
  5
237
100
AcDbEntity
  8
0
100
AcDbLine
 62
7
  6
CONTINUOUS
 10
99.9658021225
 20
88.8380785714
 11
100.8658021225
 21
88.8380785714
  0
LINE
  5
238
100
AcDbEntity
  8
0
100
AcDbLine
 62
7
  6
CONTINUOUS
 10
102.3658021225
 20
88.8380785714
 11
103.2658021225
 21
88.8380785714
  0
LINE
  5
239
100
AcDbEntity
  8
0
100
AcDbLine
 62
7
  6
CONTINUOUS
 10
117.1658021225
 20
92.0880785714
 11
114.1080145119
 21
92.0880785714
  0
LINE
  5
23A
100
AcDbEntity
  8
0
100
AcDbLine
 62
7
  6
CONTINUOUS
 10
102.3658021225
 20
92.0880785714
 11
100.8658021225
 21
92.0880785714
  0
LINE
  5
23B
100
AcDbEntity
  8
0
100
AcDbLine
 62
7
  6
CONTINUOUS
 10
88.8658021225
 20
92.0880785714
 11
87.3658021225
 21
92.0880785714
  0
LINE
  5
23C
100
AcDbEntity
  8
0
100
AcDbLine
 62
7
  6
CONTINUOUS
 10
75.6235897332
 20
92.0880785714
 11
72.1658021225
 21
92.0880785714
  0
LINE
  5
23D
100
AcDbEntity
  8
0
100
AcDbLine
 62
7
  6
CONTINUOUS
 10
117.1658021225
 20
92.4880785714
 11
114.1073065473
 21
92.4880785714
  0
LINE
  5
23E
100
AcDbEntity
  8
0
100
AcDbLine
 62
7
  6
CONTINUOUS
 10
102.3658021225
 20
92.4880785714
 11
100.8658021225
 21
92.4880785714
  0
LINE
  5
23F
100
AcDbEntity
  8
0
100
AcDbLine
 62
7
  6
CONTINUOUS
 10
88.8658021225
 20
92.4880785714
 11
87.3658021225
 21
92.4880785714
  0
LINE
  5
240
100
AcDbEntity
  8
0
100
AcDbLine
 62
7
  6
CONTINUOUS
 10
75.6242976978
 20
92.4880785714
 11
72.1658021225
 21
92.4880785714
  0
LINE
  5
241
100
AcDbEntity
  8
0
100
AcDbLine
 62
7
  6
CONTINUOUS
 10
114.1058021225
 20
93.3380785714
 11
103.9108021225
 21
93.3380785714
  0
LINE
  5
242
100
AcDbEntity
  8
0
100
AcDbLine
 62
7
  6
CONTINUOUS
 10
99.2108021225
 20
93.3380785714
 11
90.5208021225
 21
93.3380785714
  0
LINE
  5
243
100
AcDbEntity
  8
0
100
AcDbLine
 62
7
  6
CONTINUOUS
 10
85.8208021225
 20
93.3380785714
 11
75.6258021225
 21
93.3380785714
  0
LINE
  5
244
100
AcDbEntity
  8
0
100
AcDbLine
 62
7
  6
CONTINUOUS
 10
103.4108021225
 20
94.7739769563
 11
102.3658021225
 21
94.7739769563
  0
LINE
  5
245
100
AcDbEntity
  8
0
100
AcDbLine
 62
7
  6
CONTINUOUS
 10
100.8658021225
 20
94.7739769563
 11
99.7108021225
 21
94.7739769563
  0
LINE
  5
246
100
AcDbEntity
  8
0
100
AcDbLine
 62
7
  6
CONTINUOUS
 10
90.0208021225
 20
94.7739769563
 11
88.8658021225
 21
94.7739769563
  0
LINE
  5
247
100
AcDbEntity
  8
0
100
AcDbLine
 62
7
  6
CONTINUOUS
 10
87.3658021225
 20
94.7739769563
 11
86.3208021225
 21
94.7739769563
  0
LINE
  5
248
100
AcDbEntity
  8
0
100
AcDbLine
 62
7
  6
CONTINUOUS
 10
96.9266389929
 20
103.1944277149
 11
106.3049652522
 21
103.1944277149
  0
LINE
  5
249
100
AcDbEntity
  8
0
100
AcDbLine
 62
7
  6
CONTINUOUS
 10
72.1658021225
 20
22.8091185504
 11
72.1658021225
 21
251.6711785714
  0
LINE
  5
24A
100
AcDbEntity
  8
0
100
AcDbLine
 62
7
  6
CONTINUOUS
 10
72.7070493365
 20
251.6711785714
 11
72.7070493365
 21
233.8047443631
  0
LINE
  5
24B
100
AcDbEntity
  8
0
100
AcDbLine
 62
7
  6
CONTINUOUS
 10
73.69319701
 20
35.6284875738
 11
73.69319701
 21
49.0380785714
  0
LINE
  5
24C
100
AcDbEntity
  8
0
100
AcDbLine
 62
7
  6
CONTINUOUS
 10
73.8123870179
 20
234.0659856121
 11
73.8123870179
 21
243.5115670532
  0
LINE
  5
24D
100
AcDbEntity
  8
0
100
AcDbLine
 62
7
  6
CONTINUOUS
 10
74.0462652862
 20
21.6925007743
 11
74.0462652862
 21
21.4404431778
  0
LINE
  5
24E
100
AcDbEntity
  8
0
100
AcDbLine
 62
7
  6
CONTINUOUS
 10
74.3258021225
 20
162.5211819331
 11
74.3258021225
 21
243.6711785714
  0
LINE
  5
24F
100
AcDbEntity
  8
0
100
AcDbLine
 62
7
  6
CONTINUOUS
 10
77.1658021225
 20
130.3380785714
 11
77.1658021225
 21
131.5380785714
  0
LINE
  5
250
100
AcDbEntity
  8
0
100
AcDbLine
 62
7
  6
CONTINUOUS
 10
79.0558021225
 20
160.2711785714
 11
79.0558021225
 21
156.9380785714
  0
LINE
  5
251
100
AcDbEntity
  8
0
100
AcDbLine
 62
7
  6
CONTINUOUS
 10
79.9506841029
 20
74.8380785714
 11
79.9506841029
 21
74.5296226467
  0
LINE
  5
252
100
AcDbEntity
  8
0
100
AcDbLine
 62
7
  6
CONTINUOUS
 10
80.6658021225
 20
156.9380785714
 11
80.6658021225
 21
159.9380785714
  0
LINE
  5
253
100
AcDbEntity
  8
0
100
AcDbLine
 62
7
  6
CONTINUOUS
 10
75.6258021225
 20
93.3380785714
 11
75.6158021225
 21
87.6880785714
  0
LINE
  5
254
100
AcDbEntity
  8
0
100
AcDbLine
 62
7
  6
CONTINUOUS
 10
82.2809201422
 20
74.5296226467
 11
82.2809201422
 21
74.8380785714
  0
LINE
  5
255
100
AcDbEntity
  8
0
100
AcDbLine
 62
7
  6
CONTINUOUS
 10
83.9458021225
 20
183.9711785714
 11
83.9458021225
 21
217.235868828
  0
LINE
  5
256
100
AcDbEntity
  8
0
100
AcDbLine
 62
7
  6
CONTINUOUS
 10
84.0372179994
 20
32.7318549351
 11
84.0372179994
 21
31.8734651945
  0
LINE
  5
257
100
AcDbEntity
  8
0
100
AcDbLine
 62
7
  6
CONTINUOUS
 10
84.7358021225
 20
215.2628153456
 11
84.7358021225
 21
183.9711785714
  0
LINE
  5
258
100
AcDbEntity
  8
0
100
AcDbLine
 62
7
  6
CONTINUOUS
 10
85.665801688
 20
44.0816785714
 11
85.665801688
 21
47.4826036126
  0
LINE
  5
259
100
AcDbEntity
  8
0
100
AcDbLine
 62
7
  6
CONTINUOUS
 10
86.2658021225
 20
87.6880785714
 11
86.2658021225
 21
83.5380785714
  0
LINE
  5
25A
100
AcDbEntity
  8
0
100
AcDbLine
 62
7
  6
CONTINUOUS
 10
86.3208021225
 20
94.7739769563
 11
86.3208021225
 21
93.8380785714
  0
LINE
  5
25B
100
AcDbEntity
  8
0
100
AcDbLine
 62
7
  6
CONTINUOUS
 10
86.4658021225
 20
83.9717057684
 11
86.4658021225
 21
88.8380785714
  0
LINE
  5
25C
100
AcDbEntity
  8
0
100
AcDbLine
 62
7
  6
CONTINUOUS
 10
87.3658021225
 20
88.8380785714
 11
87.3658021225
 21
94.7739769563
  0
LINE
  5
25D
100
AcDbEntity
  8
0
100
AcDbLine
 62
7
  6
CONTINUOUS
 10
88.8658021225
 20
94.7739769563
 11
88.8658021225
 21
88.8380785714
  0
LINE
  5
25E
100
AcDbEntity
  8
0
100
AcDbLine
 62
7
  6
CONTINUOUS
 10
113.1993396761
 20
124.9337456337
 11
110.0658021225
 21
124.9294405542
  0
LINE
  5
25F
100
AcDbEntity
  8
0
100
AcDbLine
 62
7
  6
CONTINUOUS
 10
104.5157997438
 20
122.9375080713
 11
102.0158021225
 21
122.9369430241
  0
LINE
  5
260
100
AcDbEntity
  8
0
100
AcDbLine
 62
7
  6
CONTINUOUS
 10
117.1658021225
 20
122.9988294524
 11
119.6658024951
 21
122.9988287518
  0
LINE
  5
261
100
AcDbEntity
  8
0
100
AcDbLine
 62
7
  6
CONTINUOUS
 10
104.8157225266
 20
123.2307018712
 11
102.0158021225
 21
123.2307018712
  0
LINE
  5
262
100
AcDbEntity
  8
0
100
AcDbLine
 62
7
  6
CONTINUOUS
 10
101.2158021225
 20
123.2307018712
 11
98.4158817185
 21
123.2307018712
  0
LINE
  5
263
100
AcDbEntity
  8
0
100
AcDbLine
 62
7
  6
CONTINUOUS
 10
119.6658024951
 20
123.705933554
 11
117.1658021225
 21
123.7059320568
  0
LINE
  5
264
100
AcDbEntity
  8
0
100
AcDbLine
 62
7
  6
CONTINUOUS
 10
102.0158021225
 20
123.9380785714
 11
101.2158021225
 21
123.9380785714
  0
LINE
  5
265
100
AcDbEntity
  8
0
100
AcDbLine
 62
7
  6
CONTINUOUS
 10
98.3662365659
 20
125.4375080713
 11
104.8653676792
 21
125.4375080713
  0
LINE
  5
266
100
AcDbEntity
  8
0
100
AcDbLine
 62
7
  6
CONTINUOUS
 10
113.9113385035
 20
125.6153847226
 11
110.0658021225
 21
125.6153847226
  0
LINE
  5
267
100
AcDbEntity
  8
0
100
AcDbLine
 62
7
  6
CONTINUOUS
 10
109.2658021225
 20
125.6153847226
 11
105.4202657415
 21
125.6153847226
  0
LINE
  5
268
100
AcDbEntity
  8
0
100
AcDbLine
 62
7
  6
CONTINUOUS
 10
110.0658021225
 20
125.9380785714
 11
109.2658021225
 21
125.9380785714
  0
LINE
  5
269
100
AcDbEntity
  8
0
100
AcDbLine
 62
7
  6
CONTINUOUS
 10
105.0653409539
 20
126.2375080713
 11
98.1662632912
 21
126.2375080713
  0
LINE
  5
26A
100
AcDbEntity
  8
0
100
AcDbLine
 62
7
  6
CONTINUOUS
 10
98.1662632912
 20
127.0375080713
 11
105.0653409539
 21
127.0375080713
  0
LINE
  5
26B
100
AcDbEntity
  8
0
100
AcDbLine
 62
7
  6
CONTINUOUS
 10
105.3829729855
 20
127.3380785714
 11
96.5158021225
 21
127.3380785714
  0
LINE
  5
26C
100
AcDbEntity
  8
0
100
AcDbLine
 62
7
  6
CONTINUOUS
 10
105.3658267645
 20
128.1312658561
 11
113.9657774806
 21
128.1312658561
  0
LINE
  5
26D
100
AcDbEntity
  8
0
100
AcDbLine
 62
7
  6
CONTINUOUS
 10
101.2158021225
 20
122.9369430241
 11
98.7158045013
 21
122.9375080713
  0
LINE
  5
26E
100
AcDbEntity
  8
0
100
AcDbLine
 62
7
  6
CONTINUOUS
 10
109.2658021225
 20
124.9294405542
 11
106.132264569
 21
124.9337456337
  0
LINE
  5
26F
100
AcDbEntity
  8
0
100
AcDbLine
 62
7
  6
CONTINUOUS
 10
89.6658021225
 20
159.9380785714
 11
89.6658021225
 21
156.9380785714
  0
LINE
  5
270
100
AcDbEntity
  8
0
100
AcDbLine
 62
7
  6
CONTINUOUS
 10
89.7658021225
 20
88.8380785714
 11
89.7658021225
 21
83.9717057684
  0
LINE
  5
271
100
AcDbEntity
  8
0
100
AcDbLine
 62
7
  6
CONTINUOUS
 10
89.9658021225
 20
83.5380785714
 11
89.9658021225
 21
87.6880785714
  0
LINE
  5
272
100
AcDbEntity
  8
0
100
AcDbLine
 62
7
  6
CONTINUOUS
 10
90.0208021225
 20
93.8380785714
 11
90.0208021225
 21
94.7739769563
  0
LINE
  5
273
100
AcDbEntity
  8
0
100
AcDbLine
 62
7
  6
CONTINUOUS
 10
90.2658021225
 20
156.9380785714
 11
90.2658021225
 21
160.2711785714
  0
LINE
  5
274
100
AcDbEntity
  8
0
100
AcDbLine
 62
7
  6
CONTINUOUS
 10
93.115801688
 20
47.4826036126
 11
93.115801688
 21
49.0380785714
  0
LINE
  5
275
100
AcDbEntity
  8
0
100
AcDbLine
 62
7
  6
CONTINUOUS
 10
93.4506841029
 20
74.8380785714
 11
93.4506841029
 21
74.5296226467
  0
LINE
  5
276
100
AcDbEntity
  8
0
100
AcDbLine
 62
7
  6
CONTINUOUS
 10
95.2958021225
 20
183.9711785714
 11
95.2958021225
 21
215.2628153456
  0
LINE
  5
277
100
AcDbEntity
  8
0
100
AcDbLine
 62
7
  6
CONTINUOUS
 10
95.7809201422
 20
74.5296226467
 11
95.7809201422
 21
74.8380785714
  0
LINE
  5
278
100
AcDbEntity
  8
0
100
AcDbLine
 62
7
  6
CONTINUOUS
 10
96.5158021225
 20
127.3380785714
 11
96.5158021225
 21
112.1093888857
  0
LINE
  5
279
100
AcDbEntity
  8
0
100
AcDbLine
 62
7
  6
CONTINUOUS
 10
96.6658021225
 20
43.5816785714
 11
96.6658021225
 21
31.7816785714
  0
LINE
  5
27A
100
AcDbEntity
  8
0
100
AcDbLine
 62
7
  6
CONTINUOUS
 10
96.7858021225
 20
215.2628153456
 11
96.7858021225
 21
183.9711785714
  0
LINE
  5
27B
100
AcDbEntity
  8
0
100
AcDbLine
 62
7
  6
CONTINUOUS
 10
114.5657740422
 20
129.4312658561
 11
104.7658302029
 21
129.4312658561
  0
LINE
  5
27C
100
AcDbEntity
  8
0
100
AcDbLine
 62
7
  6
CONTINUOUS
 10
117.1658021225
 20
130.3380785714
 11
72.1658021225
 21
130.3380785714
  0
LINE
  5
27D
100
AcDbEntity
  8
0
100
AcDbLine
 62
7
  6
CONTINUOUS
 10
72.1658021225
 20
131.5380785714
 11
117.1658021225
 21
131.5380785714
  0
LINE
  5
27E
100
AcDbEntity
  8
0
100
AcDbLine
 62
7
  6
CONTINUOUS
 10
117.1658021225
 20
132.1380785714
 11
114.0158021225
 21
132.1380785714
  0
LINE
  5
27F
100
AcDbEntity
  8
0
100
AcDbLine
 62
7
  6
CONTINUOUS
 10
105.3158021225
 20
132.1380785714
 11
104.3658019649
 21
132.1380785714
  0
LINE
  5
280
100
AcDbEntity
  8
0
100
AcDbLine
 62
7
  6
CONTINUOUS
 10
98.8658022801
 20
132.1380785714
 11
72.1658021225
 21
132.1380785714
  0
LINE
  5
281
100
AcDbEntity
  8
0
100
AcDbLine
 62
7
  6
CONTINUOUS
 10
117.1658021225
 20
132.1912134311
 11
119.6658024951
 21
132.1912149282
  0
LINE
  5
282
100
AcDbEntity
  8
0
100
AcDbLine
 62
7
  6
CONTINUOUS
 10
98.8662281927
 20
132.9375180713
 11
104.3653760524
 21
132.9375180713
  0
LINE
  5
283
100
AcDbEntity
  8
0
100
AcDbLine
 62
7
  6
CONTINUOUS
 10
99.6658022801
 20
133.0586330713
 11
103.5658019649
 21
133.0586330713
  0
LINE
  5
284
100
AcDbEntity
  8
0
100
AcDbLine
 62
7
  6
CONTINUOUS
 10
105.3158021225
 20
133.2312658561
 11
114.0158021225
 21
133.2312658561
  0
LINE
  5
285
100
AcDbEntity
  8
0
100
AcDbLine
 62
7
  6
CONTINUOUS
 10
105.5158021225
 20
133.4312658561
 11
113.8158021225
 21
133.4312658561
  0
LINE
  5
286
100
AcDbEntity
  8
0
100
AcDbLine
 62
7
  6
CONTINUOUS
 10
100.0452713813
 20
133.4375080712
 11
103.1863328638
 21
133.4375080712
  0
LINE
  5
287
100
AcDbEntity
  8
0
100
AcDbLine
 62
7
  6
CONTINUOUS
 10
98.4158817185
 20
123.2307018712
 11
98.3658022801
 21
125.4375080713
  0
LINE
  5
288
100
AcDbEntity
  8
0
100
AcDbLine
 62
7
  6
CONTINUOUS
 10
97.5558021225
 20
160.2711785714
 11
97.5558021225
 21
156.9380785714
  0
LINE
  5
289
100
AcDbEntity
  8
0
100
AcDbLine
 62
7
  6
CONTINUOUS
 10
98.1658022801
 20
126.2375080713
 11
98.1658022801
 21
127.0375080713
  0
LINE
  5
28A
100
AcDbEntity
  8
0
100
AcDbLine
 62
7
  6
CONTINUOUS
 10
98.575899369
 20
125.4375080713
 11
98.575899369
 21
126.2375080713
  0
LINE
  5
28B
100
AcDbEntity
  8
0
100
AcDbLine
 62
7
  6
CONTINUOUS
 10
98.8658022801
 20
131.5380785714
 11
98.8658022801
 21
132.9375080713
  0
LINE
  5
28C
100
AcDbEntity
  8
0
100
AcDbLine
 62
7
  6
CONTINUOUS
 10
99.6658022801
 20
132.9375280713
 11
99.6658022801
 21
133.0586330713
  0
LINE
  5
28D
100
AcDbEntity
  8
0
100
AcDbLine
 62
7
  6
CONTINUOUS
 10
99.6658021225
 20
156.9380785714
 11
99.6658021225
 21
159.9380785714
  0
LINE
  5
28E
100
AcDbEntity
  8
0
100
AcDbLine
 62
7
  6
CONTINUOUS
 10
99.7108021225
 20
94.7739769563
 11
99.7108021225
 21
93.8380785714
  0
LINE
  5
28F
100
AcDbEntity
  8
0
100
AcDbLine
 62
7
  6
CONTINUOUS
 10
99.7658021225
 20
87.6880785714
 11
99.7658021225
 21
83.5380785714
  0
LINE
  5
290
100
AcDbEntity
  8
0
100
AcDbLine
 62
7
  6
CONTINUOUS
 10
99.9658021225
 20
83.9717057684
 11
99.9658021225
 21
88.8380785714
  0
LINE
  5
291
100
AcDbEntity
  8
0
100
AcDbLine
 62
7
  6
CONTINUOUS
 10
100.0446772801
 20
127.0375080713
 11
100.0446772801
 21
127.3380785714
  0
LINE
  5
292
100
AcDbEntity
  8
0
100
AcDbLine
 62
7
  6
CONTINUOUS
 10
100.8658021225
 20
88.8380785714
 11
100.8658021225
 21
94.7739769563
  0
LINE
  5
293
100
AcDbEntity
  8
0
100
AcDbLine
 62
7
  6
CONTINUOUS
 10
101.2158021225
 20
123.9380785714
 11
101.2158021225
 21
122.9375080713
  0
LINE
  5
294
100
AcDbEntity
  8
0
100
AcDbLine
 62
7
  6
CONTINUOUS
 10
102.0158021225
 20
122.9375080713
 11
102.0158021225
 21
123.9380785714
  0
LINE
  5
295
100
AcDbEntity
  8
0
100
AcDbLine
 62
7
  6
CONTINUOUS
 10
102.3658021225
 20
94.7739769563
 11
102.3658021225
 21
88.8380785714
  0
LINE
  5
296
100
AcDbEntity
  8
0
100
AcDbLine
 62
7
  6
CONTINUOUS
 10
102.6636807389
 20
20.199644585
 11
102.6636807389
 21
20.4996564942
  0
LINE
  5
297
100
AcDbEntity
  8
0
100
AcDbLine
 62
7
  6
CONTINUOUS
 10
103.0658021225
 20
31.7816785714
 11
103.0658021225
 21
43.5816785714
  0
LINE
  5
298
100
AcDbEntity
  8
0
100
AcDbLine
 62
7
  6
CONTINUOUS
 10
103.1869269649
 20
127.0375080713
 11
103.1869269649
 21
127.3380785714
  0
LINE
  5
299
100
AcDbEntity
  8
0
100
AcDbLine
 62
7
  6
CONTINUOUS
 10
103.2658021225
 20
88.8380785714
 11
103.2658021225
 21
83.9717057684
  0
LINE
  5
29A
100
AcDbEntity
  8
0
100
AcDbLine
 62
7
  6
CONTINUOUS
 10
103.4108021225
 20
93.8380785714
 11
103.4108021225
 21
94.7739769563
  0
LINE
  5
29B
100
AcDbEntity
  8
0
100
AcDbLine
 62
7
  6
CONTINUOUS
 10
103.4658021225
 20
83.5380785714
 11
103.4658021225
 21
87.6880785714
  0
LINE
  5
29C
100
AcDbEntity
  8
0
100
AcDbLine
 62
7
  6
CONTINUOUS
 10
103.5658019649
 20
132.9375280713
 11
103.5658019649
 21
133.0586330713
  0
LINE
  5
29D
100
AcDbEntity
  8
0
100
AcDbLine
 62
7
  6
CONTINUOUS
 10
104.3658019649
 20
131.5380785714
 11
104.3658019649
 21
132.9375080713
  0
LINE
  5
29E
100
AcDbEntity
  8
0
100
AcDbLine
 62
7
  6
CONTINUOUS
 10
104.655704876
 20
125.4375080713
 11
104.655704876
 21
126.2375080713
  0
LINE
  5
29F
100
AcDbEntity
  8
0
100
AcDbLine
 62
7
  6
CONTINUOUS
 10
104.7658021225
 20
129.4312658561
 11
104.7658021225
 21
130.3380785714
  0
LINE
  5
2A0
100
AcDbEntity
  8
0
100
AcDbLine
 62
7
  6
CONTINUOUS
 10
100.0446772801
 20
133.4375080712
 11
99.6658022801
 21
133.0586330713
  0
LINE
  5
2A1
100
AcDbEntity
  8
0
100
AcDbLine
 62
7
  6
CONTINUOUS
 10
107.5658021225
 20
140.1312658561
 11
107.1658021225
 21
139.7312658561
  0
LINE
  5
2A2
100
AcDbEntity
  8
0
100
AcDbLine
 62
7
  6
CONTINUOUS
 10
107.1658021225
 20
139.7312658561
 11
112.1658021225
 21
139.7312658561
  0
LINE
  5
2A3
100
AcDbEntity
  8
0
100
AcDbLine
 62
7
  6
CONTINUOUS
 10
107.5658272196
 20
140.1312658561
 11
111.7657770255
 21
140.1312658561
  0
LINE
  5
2A4
100
AcDbEntity
  8
0
100
AcDbLine
 62
7
  6
CONTINUOUS
 10
103.186926965
 20
133.4375080712
 11
103.5658019649
 21
133.0586330713
  0
LINE
  5
2A5
100
AcDbEntity
  8
0
100
AcDbLine
 62
7
  6
CONTINUOUS
 10
105.4202657415
 20
125.6153847226
 11
105.3658021225
 21
128.1312658561
  0
LINE
  5
2A6
100
AcDbEntity
  8
0
100
AcDbLine
 62
7
  6
CONTINUOUS
 10
105.0658019649
 20
126.2375080713
 11
105.0658019649
 21
127.0375080713
  0
LINE
  5
2A7
100
AcDbEntity
  8
0
100
AcDbLine
 62
7
  6
CONTINUOUS
 10
105.2943862456
 20
31.8734651945
 11
105.2943862456
 21
32.6785953688
  0
LINE
  5
2A8
100
AcDbEntity
  8
0
100
AcDbLine
 62
7
  6
CONTINUOUS
 10
105.3158021225
 20
131.5380785714
 11
105.3158021225
 21
133.2312658561
  0
LINE
  5
2A9
100
AcDbEntity
  8
0
100
AcDbLine
 62
7
  6
CONTINUOUS
 10
105.7158021225
 20
128.1312658561
 11
105.7158021225
 21
129.4312658561
  0
LINE
  5
2AA
100
AcDbEntity
  8
0
100
AcDbLine
 62
7
  6
CONTINUOUS
 10
106.6158025571
 20
47.4826036126
 11
106.6158025571
 21
49.0380785714
  0
LINE
  5
2AB
100
AcDbEntity
  8
0
100
AcDbLine
 62
7
  6
CONTINUOUS
 10
106.7158021225
 20
112.1093888857
 11
106.7158021225
 21
124.9314817773
  0
LINE
  5
2AC
100
AcDbEntity
  8
0
100
AcDbLine
 62
7
  6
CONTINUOUS
 10
106.9506841029
 20
74.8380785714
 11
106.9506841029
 21
74.5296226467
  0
LINE
  5
2AD
100
AcDbEntity
  8
0
100
AcDbLine
 62
7
  6
CONTINUOUS
 10
107.1658021225
 20
133.4312658561
 11
107.1658021225
 21
139.7312658561
  0
LINE
  5
2AE
100
AcDbEntity
  8
0
100
AcDbLine
 62
7
  6
CONTINUOUS
 10
107.3458021225
 20
183.9711785714
 11
107.3458021225
 21
215.2628153456
  0
LINE
  5
2AF
100
AcDbEntity
  8
0
100
AcDbLine
 62
7
  6
CONTINUOUS
 10
108.6658021225
 20
159.9380785714
 11
108.6658021225
 21
156.9380785714
  0
LINE
  5
2B0
100
AcDbEntity
  8
0
100
AcDbLine
 62
7
  6
CONTINUOUS
 10
108.7158021225
 20
215.2628153456
 11
108.7158021225
 21
183.9711785714
  0
LINE
  5
2B1
100
AcDbEntity
  8
0
100
AcDbLine
 62
7
  6
CONTINUOUS
 10
108.7658021225
 20
156.9380785714
 11
108.7658021225
 21
160.2711785714
  0
LINE
  5
2B2
100
AcDbEntity
  8
0
100
AcDbLine
 62
7
  6
CONTINUOUS
 10
109.2658021225
 20
125.9380785714
 11
109.2658021225
 21
124.9337456337
  0
LINE
  5
2B3
100
AcDbEntity
  8
0
100
AcDbLine
 62
7
  6
CONTINUOUS
 10
109.2809201422
 20
74.5296226467
 11
109.2809201422
 21
74.8380785714
  0
LINE
  5
2B4
100
AcDbEntity
  8
0
100
AcDbLine
 62
7
  6
CONTINUOUS
 10
110.0658021225
 20
124.9337456337
 11
110.0658021225
 21
125.9380785714
  0
LINE
  5
2B5
100
AcDbEntity
  8
0
100
AcDbLine
 62
7
  6
CONTINUOUS
 10
112.1658021225
 20
131.5380785714
 11
112.1658021225
 21
130.3380785714
  0
LINE
  5
2B6
100
AcDbEntity
  8
0
100
AcDbLine
 62
7
  6
CONTINUOUS
 10
112.1658021225
 20
133.4312658561
 11
112.1658021225
 21
139.7312658561
  0
LINE
  5
2B7
100
AcDbEntity
  8
0
100
AcDbLine
 62
7
  6
CONTINUOUS
 10
104.8157225266
 20
123.2307018712
 11
104.8658019649
 21
125.4375080713
  0
LINE
  5
2B8
100
AcDbEntity
  8
0
100
AcDbLine
 62
7
  6
CONTINUOUS
 10
111.7658021226
 20
140.1312658561
 11
112.1658021225
 21
139.7312658561
  0
LINE
  5
2B9
100
AcDbEntity
  8
0
100
AcDbLine
 62
7
  6
CONTINUOUS
 10
114.1158021225
 20
87.6880785714
 11
114.1058021225
 21
93.3380785714
  0
LINE
  5
2BA
100
AcDbEntity
  8
0
100
AcDbLine
 62
7
  6
CONTINUOUS
 10
113.6158021225
 20
128.1312658561
 11
113.6158021225
 21
129.4312658561
  0
LINE
  5
2BB
100
AcDbEntity
  8
0
100
AcDbLine
 62
7
  6
CONTINUOUS
 10
114.0158021225
 20
131.5380785714
 11
114.0158021225
 21
133.2312658561
  0
LINE
  5
2BC
100
AcDbEntity
  8
0
100
AcDbLine
 62
7
  6
CONTINUOUS
 10
114.0658025571
 20
44.0816785714
 11
114.0658025571
 21
47.4826036126
  0
LINE
  5
2BD
100
AcDbEntity
  8
0
100
AcDbLine
 62
7
  6
CONTINUOUS
 10
114.5658021225
 20
129.4312658561
 11
114.5658021225
 21
130.3380785714
  0
LINE
  5
2BE
100
AcDbEntity
  8
0
100
AcDbLine
 62
7
  6
CONTINUOUS
 10
115.0058021225
 20
162.521154395
 11
115.0058021225
 21
183.9711785714
  0
LINE
  5
2BF
100
AcDbEntity
  8
0
100
AcDbLine
 62
7
  6
CONTINUOUS
 10
115.0058021225
 20
211.3442964553
 11
115.0058021225
 21
243.6711785714
  0
LINE
  5
2C0
100
AcDbEntity
  8
0
100
AcDbLine
 62
7
  6
CONTINUOUS
 10
115.0658021225
 20
177.896153756
 11
115.0658021225
 21
211.3442964553
  0
LINE
  5
2C1
100
AcDbEntity
  8
0
100
AcDbLine
 62
7
  6
CONTINUOUS
 10
115.365908329
 20
243.5115670532
 11
115.365908329
 21
234.0659856121
  0
LINE
  5
2C2
100
AcDbEntity
  8
0
100
AcDbLine
 62
7
  6
CONTINUOUS
 10
115.6384072351
 20
49.0380785714
 11
115.6384072351
 21
35.6284875738
  0
LINE
  5
2C3
100
AcDbEntity
  8
0
100
AcDbLine
 62
7
  6
CONTINUOUS
 10
116.6806284506
 20
251.6711785714
 11
116.6806284506
 21
233.7567189362
  0
LINE
  5
2C4
100
AcDbEntity
  8
0
100
AcDbLine
 62
7
  6
CONTINUOUS
 10
117.1658021225
 20
22.9490987311
 11
117.1658021225
 21
251.6711785714
  0
LINE
  5
2C5
100
AcDbEntity
  8
0
100
AcDbLine
 62
7
  6
CONTINUOUS
 10
119.6658024951
 20
132.1912149282
 11
119.6658024951
 21
122.9988287518
  0
LINE
  5
2C6
100
AcDbEntity
  8
0
100
AcDbLine
 62
7
  6
CONTINUOUS
 10
113.9113385035
 20
125.6153847226
 11
113.9658021225
 21
128.1312658561
  0
LINE
  5
2C7
100
AcDbEntity
  8
0
100
AcDbLine
 62
7
  6
CONTINUOUS
 10
72.1658021225
 20
155.7380785714
 11
117.1658021225
 21
155.7380785714
  0
LINE
  5
2C8
100
AcDbEntity
  8
0
100
AcDbLine
 62
7
  6
CONTINUOUS
 10
117.1658021225
 20
156.9380785714
 11
72.1658021225
 21
156.9380785714
  0
LINE
  5
2C9
100
AcDbEntity
  8
0
100
AcDbLine
 62
7
  6
CONTINUOUS
 10
108.6658021225
 20
157.7380785714
 11
99.6658021225
 21
157.7380785714
  0
LINE
  5
2CA
100
AcDbEntity
  8
0
100
AcDbLine
 62
7
  6
CONTINUOUS
 10
89.6658021225
 20
157.7380785714
 11
80.6658021225
 21
157.7380785714
  0
LINE
  5
2CB
100
AcDbEntity
  8
0
100
AcDbLine
 62
7
  6
CONTINUOUS
 10
108.6658021225
 20
159.9380785714
 11
99.6658021225
 21
159.9380785714
  0
LINE
  5
2CC
100
AcDbEntity
  8
0
100
AcDbLine
 62
7
  6
CONTINUOUS
 10
89.6658021225
 20
159.9380785714
 11
80.6658021225
 21
159.9380785714
  0
LINE
  5
2CD
100
AcDbEntity
  8
0
100
AcDbLine
 62
7
  6
CONTINUOUS
 10
108.7658021225
 20
160.2711785714
 11
97.5558021225
 21
160.2711785714
  0
LINE
  5
2CE
100
AcDbEntity
  8
0
100
AcDbLine
 62
7
  6
CONTINUOUS
 10
90.2658021225
 20
160.2711785714
 11
79.0558021225
 21
160.2711785714
  0
LINE
  5
2CF
100
AcDbEntity
  8
0
100
AcDbLine
 62
7
  6
CONTINUOUS
 10
117.1658021225
 20
162.5211819331
 11
115.0058021225
 21
162.5211819331
  0
LINE
  5
2D0
100
AcDbEntity
  8
0
100
AcDbLine
 62
7
  6
CONTINUOUS
 10
74.3258021225
 20
162.5211819331
 11
72.1658021225
 21
162.5211819331
  0
LINE
  5
2D1
100
AcDbEntity
  8
0
100
AcDbLine
 62
7
  6
CONTINUOUS
 10
115.0058021225
 20
177.896153756
 11
115.0658021225
 21
177.896153756
  0
LINE
  5
2D2
100
AcDbEntity
  8
0
100
AcDbLine
 62
7
  6
CONTINUOUS
 10
83.9458021225
 20
183.9711785714
 11
115.0058021225
 21
183.9711785714
  0
LINE
  5
2D3
100
AcDbEntity
  8
0
100
AcDbLine
 62
7
  6
CONTINUOUS
 10
115.0658021225
 20
186.3993264537
 11
108.7158021225
 21
186.3993264537
  0
LINE
  5
2D4
100
AcDbEntity
  8
0
100
AcDbLine
 62
7
  6
CONTINUOUS
 10
107.3458021225
 20
186.3993264537
 11
96.7858021225
 21
186.3993264537
  0
LINE
  5
2D5
100
AcDbEntity
  8
0
100
AcDbLine
 62
7
  6
CONTINUOUS
 10
95.2958021225
 20
186.3993264537
 11
84.7358021225
 21
186.3993264537
  0
LINE
  5
2D6
100
AcDbEntity
  8
0
100
AcDbLine
 62
7
  6
CONTINUOUS
 10
108.7158021225
 20
201.3411785714
 11
107.3458021225
 21
201.3411785714
  0
LINE
  5
2D7
100
AcDbEntity
  8
0
100
AcDbLine
 62
7
  6
CONTINUOUS
 10
96.7858021225
 20
201.3411785714
 11
95.2958021225
 21
201.3411785714
  0
LINE
  5
2D8
100
AcDbEntity
  8
0
100
AcDbLine
 62
7
  6
CONTINUOUS
 10
84.7358021225
 20
201.3411785714
 11
83.9458021225
 21
201.3411785714
  0
LINE
  5
2D9
100
AcDbEntity
  8
0
100
AcDbLine
 62
7
  6
CONTINUOUS
 10
115.0658021225
 20
204.2211785714
 11
108.7158021225
 21
204.2211785714
  0
LINE
  5
2DA
100
AcDbEntity
  8
0
100
AcDbLine
 62
7
  6
CONTINUOUS
 10
107.3458021225
 20
204.2211785714
 11
96.7858021225
 21
204.2211785714
  0
LINE
  5
2DB
100
AcDbEntity
  8
0
100
AcDbLine
 62
7
  6
CONTINUOUS
 10
95.2958021225
 20
204.2211785714
 11
84.7358021225
 21
204.2211785714
  0
LINE
  5
2DC
100
AcDbEntity
  8
0
100
AcDbLine
 62
7
  6
CONTINUOUS
 10
115.0658021225
 20
204.8468038242
 11
108.7158021225
 21
204.8468038242
  0
LINE
  5
2DD
100
AcDbEntity
  8
0
100
AcDbLine
 62
7
  6
CONTINUOUS
 10
107.3458021225
 20
204.8468038242
 11
96.7858021225
 21
204.8468038242
  0
LINE
  5
2DE
100
AcDbEntity
  8
0
100
AcDbLine
 62
7
  6
CONTINUOUS
 10
95.2958021225
 20
204.8468038242
 11
84.7358021225
 21
204.8468038242
  0
LINE
  5
2DF
100
AcDbEntity
  8
0
100
AcDbLine
 62
7
  6
CONTINUOUS
 10
108.7158021225
 20
205.8611785714
 11
107.3458021225
 21
205.8611785714
  0
LINE
  5
2E0
100
AcDbEntity
  8
0
100
AcDbLine
 62
7
  6
CONTINUOUS
 10
96.7858021225
 20
205.8611785714
 11
95.2958021225
 21
205.8611785714
  0
LINE
  5
2E1
100
AcDbEntity
  8
0
100
AcDbLine
 62
7
  6
CONTINUOUS
 10
84.7358021225
 20
205.8611785714
 11
83.9458021225
 21
205.8611785714
  0
LINE
  5
2E2
100
AcDbEntity
  8
0
100
AcDbLine
 62
7
  6
CONTINUOUS
 10
115.0658021225
 20
208.252490292
 11
108.7158021225
 21
208.252490292
  0
LINE
  5
2E3
100
AcDbEntity
  8
0
100
AcDbLine
 62
7
  6
CONTINUOUS
 10
107.3458021225
 20
208.252490292
 11
96.7858021225
 21
208.252490292
  0
LINE
  5
2E4
100
AcDbEntity
  8
0
100
AcDbLine
 62
7
  6
CONTINUOUS
 10
95.2958021225
 20
208.252490292
 11
84.7358021225
 21
208.252490292
  0
LINE
  5
2E5
100
AcDbEntity
  8
0
100
AcDbLine
 62
7
  6
CONTINUOUS
 10
115.0658021225
 20
211.3442964553
 11
115.0058021225
 21
211.3442964553
  0
LINE
  5
2E6
100
AcDbEntity
  8
0
100
AcDbLine
 62
7
  6
CONTINUOUS
 10
83.9458021225
 20
211.6711785714
 11
74.3258021225
 21
211.6711785714
  0
LINE
  5
2E7
100
AcDbEntity
  8
0
100
AcDbLine
 62
7
  6
CONTINUOUS
 10
115.0058021225
 20
215.2628153456
 11
108.7158021225
 21
215.2628153456
  0
LINE
  5
2E8
100
AcDbEntity
  8
0
100
AcDbLine
 62
7
  6
CONTINUOUS
 10
107.3458021225
 20
215.2628153456
 11
96.7858021225
 21
215.2628153456
  0
LINE
  5
2E9
100
AcDbEntity
  8
0
100
AcDbLine
 62
7
  6
CONTINUOUS
 10
95.2958021225
 20
215.2628153456
 11
84.7358021225
 21
215.2628153456
  0
LINE
  5
2EA
100
AcDbEntity
  8
0
100
AcDbLine
 62
7
  6
CONTINUOUS
 10
115.0058021225
 20
217.235868828
 11
83.9458021225
 21
217.235868828
  0
LINE
  5
2EB
100
AcDbEntity
  8
0
100
AcDbLine
 62
7
  6
CONTINUOUS
 10
72.1658021225
 20
233.6711785714
 11
72.4705189135
 21
233.6711785714
  0
LINE
  5
2EC
100
AcDbEntity
  8
0
100
AcDbLine
 62
7
  6
CONTINUOUS
 10
116.8371422138
 20
233.6711785714
 11
117.1658021225
 21
233.6711785714
  0
LINE
  5
2ED
100
AcDbEntity
  8
0
100
AcDbLine
 62
7
  6
CONTINUOUS
 10
115.365908329
 20
234.0659856121
 11
115.0058021225
 21
234.0659856121
  0
LINE
  5
2EE
100
AcDbEntity
  8
0
100
AcDbLine
 62
7
  6
CONTINUOUS
 10
74.3258021225
 20
234.0659856121
 11
73.8123870179
 21
234.0659856121
  0
LINE
  5
2EF
100
AcDbEntity
  8
0
100
AcDbLine
 62
7
  6
CONTINUOUS
 10
115.0058021225
 20
238.6711785714
 11
74.3258021225
 21
238.6711785714
  0
LINE
  5
2F0
100
AcDbEntity
  8
0
100
AcDbLine
 62
7
  6
CONTINUOUS
 10
115.365908329
 20
243.5115670532
 11
115.0058021225
 21
243.5115670532
  0
LINE
  5
2F1
100
AcDbEntity
  8
0
100
AcDbLine
 62
7
  6
CONTINUOUS
 10
74.3258021225
 20
243.5115670532
 11
73.8123870179
 21
243.5115670532
  0
LINE
  5
2F2
100
AcDbEntity
  8
0
100
AcDbLine
 62
7
  6
CONTINUOUS
 10
115.0058021225
 20
243.6711785714
 11
74.3258021225
 21
243.6711785714
  0
LINE
  5
2F3
100
AcDbEntity
  8
0
100
AcDbLine
 62
7
  6
CONTINUOUS
 10
72.1658021225
 20
251.6711785714
 11
117.1658021225
 21
251.6711785714
  0
ARC
  5
2F4
100
AcDbEntity
  8
0
100
AcDbCircle
 62
7
  6
CONTINUOUS
 10
82.3396148455
 20
58.7102319407
 40
33.6836205746
100
AcDbArc
 50
253.0544309172
 51
261.1946893465
  0
ARC
  5
2F5
100
AcDbEntity
  8
0
100
AcDbCircle
 62
7
  6
CONTINUOUS
 10
67.5880752054
 20
-4.7945867102
 40
27.0182348118
100
AcDbArc
 50
75.24150481
 51
76.1706559743
  0
ARC
  5
2F6
100
AcDbEntity
  8
0
100
AcDbCircle
 62
7
  6
CONTINUOUS
 10
79.492290851
 20
43.1289341944
 40
22.1174110652
100
AcDbArc
 50
252.3387498068
 51
268.3536827913
  0
ARC
  5
2F7
100
AcDbEntity
  8
0
100
AcDbCircle
 62
7
  6
CONTINUOUS
 10
79.023344022
 20
40.0876597867
 40
19.3
100
AcDbArc
 50
256.3564505566
 51
264.3894953907
  0
ARC
  5
2F8
100
AcDbEntity
  8
0
100
AcDbCircle
 62
7
  6
CONTINUOUS
 10
73.5452142562
 20
35.5192423614
 40
1.3804812065
100
AcDbArc
 50
182.2550390328
 51
233.7722679279
  0
ARC
  5
2F9
100
AcDbEntity
  8
0
100
AcDbCircle
 62
7
  6
CONTINUOUS
 10
73.016879173
 20
22.8746657949
 40
0.8535974386
100
AcDbArc
 50
184.4040445678
 51
254.0364838845
  0
ARC
  5
2FA
100
AcDbEntity
  8
0
100
AcDbCircle
 62
7
  6
CONTINUOUS
 10
72.7625184748
 20
27.0424560108
 40
0.6033486755
100
AcDbArc
 50
188.5032495827
 51
246.5154426616
  0
ARC
  5
2FB
100
AcDbEntity
  8
0
100
AcDbCircle
 62
7
  6
CONTINUOUS
 10
85.7957530391
 20
93.8631276548
 40
0.5256462656
100
AcDbArc
 50
272.7314005803
 51
357.2685994199
  0
ARC
  5
2FC
100
AcDbEntity
  8
0
100
AcDbCircle
 62
7
  6
CONTINUOUS
 10
90.5421636309
 20
93.8594400798
 40
0.5217989426
100
AcDbArc
 50
182.3462416316
 51
267.6537583686
  0
ARC
  5
2FD
100
AcDbEntity
  8
0
100
AcDbCircle
 62
7
  6
CONTINUOUS
 10
86.165801688
 20
44.0816785714
 40
0.5
100
AcDbArc
 50
180.0
 51
270.0
  0
ARC
  5
2FE
100
AcDbEntity
  8
0
100
AcDbCircle
 62
7
  6
CONTINUOUS
 10
109.6679257172
 20
52.5738856184
 40
19.4650080786
100
AcDbArc
 50
275.0141640798
 51
290.1809764748
  0
ARC
  5
2FF
100
AcDbEntity
  8
0
100
AcDbCircle
 62
7
  6
CONTINUOUS
 10
110.6748880476
 20
40.1327507413
 40
19.0095397346
100
AcDbArc
 50
275.9725652741
 51
287.7898303723
  0
ARC
  5
300
100
AcDbEntity
  8
0
100
AcDbCircle
 62
7
  6
CONTINUOUS
 10
110.6658021225
 20
40.1731886344
 40
15.0
100
AcDbArc
 50
275.7391704773
 51
294.1809880881
  0
ARC
  5
301
100
AcDbEntity
  8
0
100
AcDbCircle
 62
7
  6
CONTINUOUS
 10
115.829980542
 20
35.5211085328
 40
1.3370026331
100
AcDbArc
 50
294.4371805484
 51
357.5915475014
  0
ARC
  5
302
100
AcDbEntity
  8
0
100
AcDbCircle
 62
7
  6
CONTINUOUS
 10
116.1788049805
 20
22.9714591109
 40
0.9872503963
100
AcDbArc
 50
287.9341277337
 51
358.7021884673
  0
ARC
  5
303
100
AcDbEntity
  8
0
100
AcDbCircle
 62
7
  6
CONTINUOUS
 10
116.5707830204
 20
27.0341213699
 40
0.5950251306
100
AcDbArc
 50
293.7163367651
 51
359.7420884687
  0
ARC
  5
304
100
AcDbEntity
  8
0
100
AcDbCircle
 62
7
  6
CONTINUOUS
 10
103.9254594164
 20
93.8527358653
 40
0.5148659694
100
AcDbArc
 50
181.6313266044
 51
268.3686733953
  0
ARC
  5
305
100
AcDbEntity
  8
0
100
AcDbCircle
 62
7
  6
CONTINUOUS
 10
113.5658025571
 20
44.0816785714
 40
0.5
100
AcDbArc
 50
270.0
 51
360.0
  0
ARC
  5
306
100
AcDbEntity
  8
0
100
AcDbCircle
 62
7
  6
CONTINUOUS
 10
99.2333636713
 20
93.8155170226
 40
0.4779712315
100
AcDbArc
 50
267.2944772464
 51
2.7055227547
  0
ARC
  5
307
100
AcDbEntity
  8
0
100
AcDbCircle
 62
7
  6
CONTINUOUS
 10
95.6777558866
 20
225.6097621485
 40
201.0386537364
100
AcDbArc
 50
270.9995700134
 51
274.7043576989
  0
ARC
  5
308
100
AcDbEntity
  8
0
100
AcDbCircle
 62
7
  6
CONTINUOUS
 10
95.6777558866
 20
225.6097621485
 40
201.0386537364
100
AcDbArc
 50
264.7216710535
 51
269.0004299858
  0
ARC
  5
309
100
AcDbEntity
  8
0
100
AcDbCircle
 62
7
  6
CONTINUOUS
 10
95.6777558866
 20
225.6097621485
 40
201.0386537364
100
AcDbArc
 50
269.4320566746
 51
270.6371867175
  0
ARC
  5
30A
100
AcDbEntity
  8
0
100
AcDbCircle
 62
7
  6
CONTINUOUS
 10
94.6658021225
 20
199.3211785713
 40
179.2999999999
100
AcDbArc
 50
264.3894953907
 51
272.5565911215
  0
ARC
  5
30B
100
AcDbEntity
  8
0
100
AcDbCircle
 62
7
  6
CONTINUOUS
 10
94.6695779532
 20
199.3950376569
 40
179.0739039634
100
AcDbArc
 50
264.9340283791
 51
275.763579628
  0
ARC
  5
30C
100
AcDbEntity
  8
0
100
AcDbCircle
 62
7
  6
CONTINUOUS
 10
95.0663600275
 20
192.5774765681
 40
160.2256681343
100
AcDbArc
 50
273.6597963031
 51
275.8399107616
  0
ARC
  5
30D
100
AcDbEntity
  8
0
100
AcDbCircle
 62
7
  6
CONTINUOUS
 10
95.0663600275
 20
192.5774765681
 40
160.2256681343
100
AcDbArc
 50
262.8163581175
 51
266.0530796446
  0
ARC
  5
30E
100
AcDbEntity
  8
0
100
AcDbCircle
 62
7
  6
CONTINUOUS
 10
94.6658021226
 20
156.2887307881
 40
122.4693613021
100
AcDbArc
 50
273.9291350543
 51
279.8602212435
  0
ARC
  5
30F
100
AcDbEntity
  8
0
100
AcDbCircle
 62
7
  6
CONTINUOUS
 10
94.6658021226
 20
156.2887307881
 40
122.4693613021
100
AcDbArc
 50
260.13977876
 51
270.9260826183
  0
ARC
  5
310
100
AcDbEntity
  8
0
100
AcDbCircle
 62
7
  6
CONTINUOUS
 10
93.497543935
 20
138.5188918283
 40
98.0177151938
100
AcDbArc
 50
76.315083024
 51
77.108456486
  0
ARC
  5
311
100
AcDbEntity
  8
0
100
AcDbCircle
 62
7
  6
CONTINUOUS
 10
102.1514138335
 20
115.7112419786
 40
86.465356472
100
AcDbArc
 50
250.1063286177
 51
251.7196806904
  0
ARC
  5
312
100
AcDbEntity
  8
0
100
AcDbCircle
 62
7
  6
CONTINUOUS
 10
101.6157695585
 20
145.5313346671
 40
22.571256558
100
AcDbArc
 50
268.9743855676
 51
271.027426076
  0
ARC
  5
313
100
AcDbEntity
  8
0
100
AcDbCircle
 62
7
  6
CONTINUOUS
 10
101.6157890206
 20
144.9832454557
 40
21.9910298235
100
AcDbArc
 50
268.9516223567
 51
271.0490950894
  0
ARC
  5
314
100
AcDbEntity
  8
0
100
AcDbCircle
 62
7
  6
CONTINUOUS
 10
106.1549169876
 20
125.670081904
 40
0.7366846238
100
AcDbArc
 50
184.2580014798
 51
268.2379263057
  0
ARC
  5
315
100
AcDbEntity
  8
0
100
AcDbCircle
 62
7
  6
CONTINUOUS
 10
113.1766872575
 20
125.670081904
 40
0.7366846238
100
AcDbArc
 50
271.7620736943
 51
355.7419985202
  0
ARC
  5
316
100
AcDbEntity
  8
0
100
AcDbCircle
 62
7
  6
CONTINUOUS
 10
98.7158045013
 20
123.2375080713
 40
0.3
100
AcDbArc
 50
181.3000000038
 51
270.0
  0
ARC
  5
317
100
AcDbEntity
  8
0
100
AcDbCircle
 62
7
  6
CONTINUOUS
 10
104.5157997438
 20
123.2375080713
 40
0.3
100
AcDbArc
 50
270.0
 51
358.6999999962
  0
ARC
  5
318
100
AcDbEntity
  8
0
100
AcDbCircle
 62
7
  6
CONTINUOUS
 10
113.8158021225
 20
133.2312658561
 40
0.2
100
AcDbArc
 50
0.0
 51
90.0
  0
ARC
  5
319
100
AcDbEntity
  8
0
100
AcDbCircle
 62
7
  6
CONTINUOUS
 10
105.5158021225
 20
133.2312658561
 40
0.2
100
AcDbArc
 50
90.0
 51
180.0
  0
SPLINE
  5
31A
100
AcDbEntity
  8
0
100
AcDbSpline
 62
7
  6
CONTINUOUS
 70
0
 71
3
 72
14
 73
10
 74
0
 42
0.0000001
 43
0.0000001
 44
0.0000000001
 40
0.0
 40
0.0
 40
0.0
 40
0.0
 40
0.0608215335
 40
0.1328916329
 40
0.2235322958
 40
0.3359354582
 40
0.470592004
 40
0.626956926
 40
1.0
 40
1.0
 40
1.0
 40
1.0
 10
96.5193666423
 20
124.1073660635
 30
0.0
 10
96.5193666423
 20
124.0648448352
 30
0.0
 10
96.5434380066
 20
123.9713232159
 30
0.0
 10
96.6404538322
 20
123.8454941423
 30
0.0
 10
96.7933559295
 20
123.726823019
 30
0.0
 10
97.00123293
 20
123.6135515712
 30
0.0
 10
97.2621911502
 20
123.5055828881
 30
0.0
 10
97.7039912127
 20
123.3619132119
 30
0.0
 10
98.065832218
 20
123.2801766501
 30
0.0
 10
98.3220365725
 20
123.2314332903
 30
0.0
  0
SPLINE
  5
31B
100
AcDbEntity
  8
0
100
AcDbSpline
 62
7
  6
CONTINUOUS
 70
0
 71
3
 72
14
 73
10
 74
0
 42
0.0000001
 43
0.0000001
 44
0.0000000001
 40
0.0
 40
0.0
 40
0.0
 40
0.0
 40
0.3730153873
 40
0.5293716223
 40
0.6640160161
 40
0.7764094394
 40
0.8670510725
 40
0.9391438757
 40
1.0
 40
1.0
 40
1.0
 40
1.0
 10
104.9129957645
 20
123.2320866898
 30
0.0
 10
105.1687388954
 20
123.2808287372
 30
0.0
 10
105.5299231102
 20
123.3625561421
 30
0.0
 10
105.9709053881
 20
123.5061322005
 30
0.0
 10
106.2313635537
 20
123.6140253522
 30
0.0
 10
106.4388265189
 20
123.7272057087
 30
0.0
 10
106.591405981
 20
123.8457845038
 30
0.0
 10
106.6882155597
 20
123.9714856328
 30
0.0
 10
106.7122375486
 20
124.0648912171
 30
0.0
 10
106.7122375486
 20
124.1073658274
 30
0.0
  0
SPLINE
  5
31C
100
AcDbEntity
  8
0
100
AcDbSpline
 62
7
  6
CONTINUOUS
 70
0
 71
3
 72
12
 73
8
 74
0
 42
0.0000001
 43
0.0000001
 44
0.0000000001
 40
0.0
 40
0.0
 40
0.0
 40
0.0
 40
0.1393479974
 40
0.2342762258
 40
0.348326938
 40
0.6360351017
 40
1.0
 40
1.0
 40
1.0
 40
1.0
 10
106.7122375486
 20
124.1073658274
 30
0.0
 10
106.6909260249
 20
124.0144105192
 30
0.0
 10
106.5778657626
 20
123.8818491163
 30
0.0
 10
106.3840791729
 20
123.7468634346
 30
0.0
 10
106.0810586628
 20
123.5888172139
 30
0.0
 10
105.5840404449
 20
123.4179646927
 30
0.0
 10
105.1489414206
 20
123.3173250261
 30
0.0
 10
104.9044427408
 20
123.2697179555
 30
0.0
  0
SPLINE
  5
31D
100
AcDbEntity
  8
0
100
AcDbSpline
 62
7
  6
CONTINUOUS
 70
0
 71
3
 72
12
 73
8
 74
0
 42
0.0000001
 43
0.0000001
 44
0.0000000001
 40
0.0
 40
0.0
 40
0.0
 40
0.0
 40
0.3639640257
 40
0.6516742957
 40
0.7657284663
 40
0.8606579932
 40
1.0
 40
1.0
 40
1.0
 40
1.0
 10
98.3274412754
 20
123.2696631756
 30
0.0
 10
98.0829078544
 20
123.3172701209
 30
0.0
 10
97.6477442542
 20
123.4179109811
 30
0.0
 10
97.1506497524
 20
123.5887751414
 30
0.0
 10
96.8475753212
 20
123.7468305679
 30
0.0
 10
96.6537548081
 20
123.8818239461
 30
0.0
 10
96.5406800623
 20
124.0144017771
 30
0.0
 10
96.5193666423
 20
124.1073660635
 30
0.0
  0
SPLINE
  5
31E
100
AcDbEntity
  8
0
100
AcDbSpline
 62
7
  6
CONTINUOUS
 70
0
 71
3
 72
11
 73
7
 74
0
 42
0.0000001
 43
0.0000001
 44
0.0000000001
 40
0.0
 40
0.0
 40
0.0
 40
0.0
 40
0.2478292864
 40
0.4970739662
 40
0.7482434126
 40
1.0
 40
1.0
 40
1.0
 40
1.0
 10
72.4703461855
 20
233.6711785714
 30
0.0
 10
72.4834724861
 20
233.6914433116
 30
0.0
 10
72.5122660576
 20
233.730592656
 30
0.0
 10
72.5646486512
 20
233.7819014199
 30
0.0
 10
72.6319718435
 20
233.81624659
 30
0.0
 10
72.6838380715
 20
233.812670214
 30
0.0
 10
72.7070493365
 20
233.8047443631
 30
0.0
  0
SPLINE
  5
31F
100
AcDbEntity
  8
0
100
AcDbSpline
 62
7
  6
CONTINUOUS
 70
0
 71
3
 72
9
 73
5
 74
0
 42
0.0000001
 43
0.0000001
 44
0.0000000001
 40
0.0
 40
0.0
 40
0.0
 40
0.0
 40
0.2544175829
 40
1.0
 40
1.0
 40
1.0
 40
1.0
 10
116.6868081876
 20
233.7540246062
 30
0.0
 10
116.7016641475
 20
233.755459461
 30
0.0
 10
116.7613906947
 20
233.7462883164
 30
0.0
 10
116.8088968179
 20
233.7045742078
 30
0.0
 10
116.8371422138
 20
233.6711785714
 30
0.0
  0
ELLIPSE
  5
320
100
AcDbEntity
  8
0
100
AcDbEllipse
 62
7
  6
CONTINUOUS
 10
108.1158021225
 20
74.4519476078
 30
0.0
 11
4.6
 21
0.0
 31
0.0
 40
0.0174550649
 41
7.5979055742
 42
8.1100576938
  0
ELLIPSE
  5
321
100
AcDbEntity
  8
0
100
AcDbEllipse
 62
7
  6
CONTINUOUS
 10
81.1158021225
 20
74.4519476078
 30
0.0
 11
4.6
 21
-0.0
 31
0.0
 40
0.0174550649
 41
1.314720267
 42
1.8268723866
  0
ELLIPSE
  5
322
100
AcDbEntity
  8
0
100
AcDbEllipse
 62
7
  6
CONTINUOUS
 10
94.6158021225
 20
74.4519476078
 30
0.0
 11
4.6
 21
-0.0
 31
0.0
 40
0.0174550649
 41
1.314720267
 42
1.8268723866
  0
ELLIPSE
  5
323
100
AcDbEntity
  8
0
100
AcDbEllipse
 62
7
  6
CONTINUOUS
 10
101.6158021225
 20
112.1093888857
 30
0.0
 11
0.0
 21
-22.6715985612
 31
0.0
 40
0.2249510543
 41
-1.5707963268
 42
-1.1666635429
  0
ELLIPSE
  5
324
100
AcDbEntity
  8
0
100
AcDbEllipse
 62
7
  6
CONTINUOUS
 10
101.6158021225
 20
112.1093888857
 30
0.0
 11
0.0
 21
-22.6715985612
 31
0.0
 40
0.2249510543
 41
1.1666635429
 42
1.5707963268
  0
ELLIPSE
  5
325
100
AcDbEntity
  8
0
100
AcDbEllipse
 62
7
  6
CONTINUOUS
 10
94.5891476734
 20
-998.945470145
 30
0.0
 11
0.0
 21
1235.400513618
 31
0.0
 40
0.2705550726
 41
0.0622005831
 42
0.0655143182
  0
ENDSEC
  0
SECTION
  2
OBJECTS
  0
DICTIONARY
  5
C
100
AcDbDictionary
280
0
281
1
  3
ACAD_GROUP
350
D
  3
ACAD_MLINESTYLE
350
17
  3
ACAD_LAYOUT
350
1A
  3
ACAD_PLOTSETTINGS
350
19
  3
ACAD_PLOTSTYLENAME
350
E
  0
DICTIONARY
  5
D
102
{ACAD_REACTORS
330
C
102
}
100
AcDbDictionary
280
0
281
1
  0
ACDBDICTIONARYWDFLT
  5
E
102
{ACAD_REACTORS
330
C
102
}
100
AcDbDictionary
281
1
  3
Normal
350
F
100
AcDbDictionaryWithDefault
340
F
  0
DICTIONARY
  5
17
102
{ACAD_REACTORS
330
C
102
}
100
AcDbDictionary
280
0
281
1
  3
Standard
350
18
  0
DICTIONARY
  5
19
102
{ACAD_REACTORS
330
C
102
}
100
AcDbDictionary
281
1
  0
DICTIONARY
  5
1A
102
{ACAD_REACTORS
330
C
102
}
100
AcDbDictionary
281
1
  3
Model
350
326
  3
Layout1
350
327
  0
ACDBPLACEHOLDER
  5
F
102
{ACAD_REACTORS
330
E
102
}
  0
MLINESTYLE
  5
18
102
{ACAD_REACTORS
330
17
102
}
100
AcDbMlineStyle
  2
STANDARD
 70
0
  3

 62
256
 51
90.0
 52
90.0
 71
2
 49
0.5
 62
256
  6
BYLAYER
 49
-0.5
 62
256
  6
BYLAYER
  0
LAYOUT
  5
326
102
{ACAD_REACTORS
330
1A
102
}
100
AcDbPlotSettings
  1

  2
none_device
  4

  6

 40
0.0
 41
0.0
 42
0.0
 43
0.0
 44
210.0
 45
297.0
 46
0.0
 47
0.0
 48
0.0
 49
0.0
140
0.0
141
0.0
142
1.0
143
1.0
 70
1024
 72
1
 73
0
 74
0
  7

 75
0
147
1.0
148
0.0
149
0.0
100
AcDbLayout
  1
Model
 70
0
 71
0
 10
0.0
 20
0.0
 11
210.0
 21
297.0
 12
0.0
 22
0.0
 32
0.0
 14
0.0
 24
0.0
 34
0.0
 15
0.0
 25
0.0
 35
0.0
146
0.0
 13
0.0
 23
0.0
 33
0.0
 16
1.0
 26
0.0
 36
0.0
 17
0.0
 27
1.0
 37
0.0
 76
0
330
210
345
0
346
0
  0
LAYOUT
  5
327
102
{ACAD_REACTORS
330
1A
102
}
100
AcDbPlotSettings
  1

  2
none_device
  4

  6

 40
0.0
 41
0.0
 42
0.0
 43
0.0
 44
210.0
 45
297.0
 46
0.0
 47
0.0
 48
0.0
 49
0.0
140
0.0
141
0.0
142
1.0
143
1.0
 70
0
 72
1
 73
0
 74
0
  7

 75
0
147
1.0
148
0.0
149
0.0
100
AcDbLayout
  1
Layout1
 70
0
 71
1
 10
0.0
 20
0.0
 11
210.0
 21
297.0
 12
0.0
 22
0.0
 32
0.0
 14
0.0
 24
0.0
 34
0.0
 15
0.0
 25
0.0
 35
0.0
146
0.0
 13
0.0
 23
0.0
 33
0.0
 16
1.0
 26
0.0
 36
0.0
 17
0.0
 27
1.0
 37
0.0
 76
0
330
211
345
0
346
0
  0
ENDSEC
  0
EOF
