999
DXF file: C:\Users\sesa63760\Dev\_Creo\CAD\MCADPD0004381_3D-CAD\drw0001_2.dxf
999
Pro/ENGINEER 2019471 by Parametric Technology Corporation
  0
SECTION
  2
HEADER
  9
$ACADVER
  1
AC1024
  9
$DWGCODEPAGE
  3
ANSI_1252
  9
$EXTMAX
 10
55.3764221738
 20
78.3180827887
 30
0.0
  9
$EXTMIN
 10
0.0
 20
0.0
 30
0.0
  9
$LIMMIN
 10
0.0
 20
0.0
  9
$LIMMAX
 10
55.3764221738
 20
78.3180827887
  9
$VIEWCTR
 10
27.6882110869
 20
39.1590413943
  9
$VIEWSIZE
 40
78.3180827887
  9
$CLAYER
  8
0
  9
$LTSCALE
 40
5.1051787299
  9
$CELTYPE
  6
BYLAYER
  9
$DIMSCALE
 40
1.0
  9
$DIMASZ
 40
0.6592431211
  9
$DIMEXO
 40
1.0
  9
$DIMDLI
 40
3.5272143952
  9
$DIMEXE
 40
1.0
  9
$DIMCEN
 40
0.8353928831
  9
$DIMLFAC
 40
1.0
  9
$DIMBLK
  1
_FILLED
  9
$DIMALT
 70
0
  9
$DIMALTF
 40
0.0393700787
  9
$DIMTXT
 40
0.9229403696
  9
$DIMTOL
 70
1
  9
$DIMLIM
 70
0
  9
$DIMTFAC
 40
1.0
  9
$DIMTP
 40
0.01
  9
$DIMTM
 40
0.01
  9
$DIMGAP
 40
0.625
  9
$DIMDSEP
 70
46
  9
$AUNITS
 70
0
  9
$PDMODE
 70
3
  9
$PDSIZE
 40
0.3125
  9
$HANDSEED
  5
308
  9
$TILEMODE
 70
1
  9
$MEASUREMENT
 70
1
  9
$INSUNITS
 70
4
  0
ENDSEC
  0
SECTION
  2
CLASSES
  0
CLASS
  1
ACDBDICTIONARYWDFLT
  2
AcDbDictionaryWithDefault
  3
AutoCAD 2000
 90
0
 91
1
280
0
281
0
  0
CLASS
  1
ACDBPLACEHOLDER
  2
AcDbPlaceHolder
  3
AutoCAD 2000
 90
0
 91
1
280
0
281
0
  0
CLASS
  1
LAYOUT
  2
AcDbLayout
  3
AutoCAD 2000
 90
0
 91
0
280
0
281
0
  0
ENDSEC
  0
SECTION
  2
TABLES
  0
TABLE
  2
VPORT
  5
8
100
AcDbSymbolTable
 70
2
  0
VPORT
  5
1F4
100
AcDbSymbolTableRecord
100
AcDbViewportTableRecord
  2
*ACTIVE
 70
0
 10
0.0
 20
0.0
 11
1.0
 21
1.0
 12
27.6882110869
 22
39.1590413943
 13
0.0
 23
0.0
 14
1.0
 24
1.0
 15
0.0
 25
0.0
 16
0.0
 26
0.0
 36
1.0
 17
0.0
 27
0.0
 37
0.0
 40
78.3180827887
 41
0.7070707071
 42
50.0
 43
0.0
 44
0.0
 50
0.0
 51
0.0
 71
0
 72
100
 73
1
 74
1
 75
0
 76
0
 77
0
 78
0
  0
ENDTAB
  0
TABLE
  2
LTYPE
  5
5
100
AcDbSymbolTable
 70
6
  0
LTYPE
  5
14
100
AcDbSymbolTableRecord
100
AcDbLinetypeTableRecord
  2
BYBLOCK
 70
0
  3

 72
65
 73
0
 40
0.0
  0
LTYPE
  5
15
100
AcDbSymbolTableRecord
100
AcDbLinetypeTableRecord
  2
BYLAYER
 70
0
  3

 72
65
 73
0
 40
0.0
  0
LTYPE
  5
16
100
AcDbSymbolTableRecord
100
AcDbLinetypeTableRecord
  2
CONTINUOUS
 70
64
  3
Solid line
 72
65
 73
0
 40
0.0
  0
LTYPE
  5
1F5
100
AcDbSymbolTableRecord
100
AcDbLinetypeTableRecord
  2
CENTER
 70
64
  3
____ _ ____ _ ____ _ ____ _ ____ _ ____ _ ____
 72
65
 73
4
 40
0.6
 49
0.375
 74
0
 49
-0.075
 74
0
 49
0.075
 74
0
 49
-0.075
 74
0
  0
LTYPE
  5
1F6
100
AcDbSymbolTableRecord
100
AcDbLinetypeTableRecord
  2
HIDDEN
 70
64
  3
- - - - - - - - - - - - - - - - - - - -
 72
65
 73
2
 40
0.2
 49
0.1
 74
0
 49
-0.1
 74
0
  0
LTYPE
  5
1F7
100
AcDbSymbolTableRecord
100
AcDbLinetypeTableRecord
  2
PHANTOM
 70
64
  3
_____ _ _ _____ _ _ _____ _ _ _____
 72
65
 73
6
 40
0.8
 49
0.45
 74
0
 49
-0.05
 74
0
 49
0.1
 74
0
 49
-0.05
 74
0
 49
0.1
 74
0
 49
-0.05
 74
0
  0
LTYPE
  5
1F8
100
AcDbSymbolTableRecord
100
AcDbLinetypeTableRecord
  2
DOT
 70
64
  3
. . . . . . . . . . . . . . . . . . . .
 72
65
 73
2
 40
0.2
 49
0.1
 74
0
 49
-0.1
 74
0
  0
LTYPE
  5
1F9
100
AcDbSymbolTableRecord
100
AcDbLinetypeTableRecord
  2
DASHED
 70
64
  3
- - - - - - - - - - - - - - - - - - - -
 72
65
 73
2
 40
0.2
 49
0.1
 74
0
 49
-0.1
 74
0
  0
ENDTAB
  0
TABLE
  2
LAYER
  5
2
100
AcDbSymbolTable
 70
36
  0
LAYER
  5
10
100
AcDbSymbolTableRecord
100
AcDbLayerTableRecord
  2
0
 70
0
 62
7
  6
CONTINUOUS
370
-3
390
F
  0
LAYER
  5
1FA
100
AcDbSymbolTableRecord
100
AcDbLayerTableRecord
  2
DEFAULT_1
 70
0
 62
7
  6
CENTER
370
-3
390
F
  0
LAYER
  5
1FB
100
AcDbSymbolTableRecord
100
AcDbLayerTableRecord
  2
DEFAULT_2
 70
0
 62
7
  6
HIDDEN
370
-3
390
F
  0
LAYER
  5
1FC
100
AcDbSymbolTableRecord
100
AcDbLayerTableRecord
  2
DEFAULT_3
 70
0
 62
7
  6
PHANTOM
370
-3
390
F
  0
LAYER
  5
1FD
100
AcDbSymbolTableRecord
100
AcDbLayerTableRecord
  2
00_COMPONENTS
 70
0
 62
7
  6
CONTINUOUS
370
-3
390
F
  0
LAYER
  5
1FE
100
AcDbSymbolTableRecord
100
AcDbLayerTableRecord
  2
00_COMPONENTS_1
 70
0
 62
7
  6
CONTINUOUS
370
-3
390
F
  0
LAYER
  5
1FF
100
AcDbSymbolTableRecord
100
AcDbLayerTableRecord
  2
01_1_DEFAULT_DATUMS
 70
0
 62
7
  6
CONTINUOUS
370
-3
390
F
  0
LAYER
  5
200
100
AcDbSymbolTableRecord
100
AcDbLayerTableRecord
  2
01_PLANES
 70
0
 62
7
  6
CONTINUOUS
370
-3
390
F
  0
LAYER
  5
201
100
AcDbSymbolTableRecord
100
AcDbLayerTableRecord
  2
02_COORD_SYS
 70
0
 62
7
  6
CONTINUOUS
370
-3
390
F
  0
LAYER
  5
202
100
AcDbSymbolTableRecord
100
AcDbLayerTableRecord
  2
03_AXES
 70
0
 62
7
  6
CONTINUOUS
370
-3
390
F
  0
LAYER
  5
203
100
AcDbSymbolTableRecord
100
AcDbLayerTableRecord
  2
03_AXES_1
 70
0
 62
7
  6
CONTINUOUS
370
-3
390
F
  0
LAYER
  5
204
100
AcDbSymbolTableRecord
100
AcDbLayerTableRecord
  2
04_POINTS
 70
0
 62
7
  6
CONTINUOUS
370
-3
390
F
  0
LAYER
  5
205
100
AcDbSymbolTableRecord
100
AcDbLayerTableRecord
  2
05_CURVES
 70
0
 62
7
  6
CONTINUOUS
370
-3
390
F
  0
LAYER
  5
206
100
AcDbSymbolTableRecord
100
AcDbLayerTableRecord
  2
06_SURFS
 70
0
 62
7
  6
CONTINUOUS
370
-3
390
F
  0
LAYER
  5
207
100
AcDbSymbolTableRecord
100
AcDbLayerTableRecord
  2
07_COSMETICS
 70
0
 62
7
  6
CONTINUOUS
370
-3
390
F
  0
LAYER
  5
208
100
AcDbSymbolTableRecord
100
AcDbLayerTableRecord
  2
10_NOTES
 70
0
 62
7
  6
CONTINUOUS
370
-3
390
F
  0
LAYER
  5
209
100
AcDbSymbolTableRecord
100
AcDbLayerTableRecord
  2
11_NOTES_PUB
 70
0
 62
7
  6
CONTINUOUS
370
-3
390
F
  0
LAYER
  5
20A
100
AcDbSymbolTableRecord
100
AcDbLayerTableRecord
  2
13_REF_GTOL
 70
0
 62
7
  6
CONTINUOUS
370
-3
390
F
  0
LAYER
  5
20B
100
AcDbSymbolTableRecord
100
AcDbLayerTableRecord
  2
16_MISC
 70
0
 62
7
  6
CONTINUOUS
370
-3
390
F
  0
LAYER
  5
20C
100
AcDbSymbolTableRecord
100
AcDbLayerTableRecord
  2
17_NO_PRINT
 70
0
 62
7
  6
CONTINUOUS
370
-3
390
F
  0
LAYER
  5
20D
100
AcDbSymbolTableRecord
100
AcDbLayerTableRecord
  2
18_DATUM_CAMS_JOINTS
 70
0
 62
7
  6
CONTINUOUS
370
-3
390
F
  0
LAYER
  5
20E
100
AcDbSymbolTableRecord
100
AcDbLayerTableRecord
  2
19_DATUM_FUNCTIONAL
 70
0
 62
7
  6
CONTINUOUS
370
-3
390
F
  0
LAYER
  5
20F
100
AcDbSymbolTableRecord
100
AcDbLayerTableRecord
  2
20_DATUM_KINEMATIC_SCHEME
 70
0
 62
7
  6
CONTINUOUS
370
-3
390
F
  0
LAYER
  5
210
100
AcDbSymbolTableRecord
100
AcDbLayerTableRecord
  2
INTFCLR_11
 70
0
 62
7
  6
CONTINUOUS
370
-3
390
F
  0
LAYER
  5
211
100
AcDbSymbolTableRecord
100
AcDbLayerTableRecord
  2
INTF_BLANK
 70
0
 62
7
  6
CONTINUOUS
370
-3
390
F
  0
LAYER
  5
212
100
AcDbSymbolTableRecord
100
AcDbLayerTableRecord
  2
INTF_YELLOW
 70
0
 62
7
  6
CONTINUOUS
370
-3
390
F
  0
LAYER
  5
213
100
AcDbSymbolTableRecord
100
AcDbLayerTableRecord
  2
_BLACK_HOLE
 70
0
 62
7
  6
CONTINUOUS
370
-3
390
F
  0
ENDTAB
  0
TABLE
  2
STYLE
  5
3
100
AcDbSymbolTable
 70
1
  0
STYLE
  5
11
100
AcDbSymbolTableRecord
100
AcDbTextStyleTableRecord
  2
STANDARD
 70
0
 40
0.0
 41
1.0
 50
0.0
 71
0
 42
0.2
  3
ARIAL.TTF
  4

  0
STYLE
  5
214
100
AcDbSymbolTableRecord
100
AcDbTextStyleTableRecord
  2
TEXTSTYLE_1
 70
0
 40
0.0
 41
0.8
 50
0.0
 71
0
 42
0.2
  3
gdt
  4

  0
ENDTAB
  0
TABLE
  2
VIEW
  5
6
100
AcDbSymbolTable
 70
0
  0
ENDTAB
  0
TABLE
  2
UCS
  5
7
100
AcDbSymbolTable
 70
0
  0
ENDTAB
  0
TABLE
  2
APPID
  5
9
100
AcDbSymbolTable
 70
1
  0
APPID
  5
215
100
AcDbSymbolTableRecord
100
AcDbRegAppTableRecord
  2
ACAD
 70
0
  0
ENDTAB
  0
TABLE
  2
BLOCK_RECORD
  5
1
100
AcDbSymbolTable
 70
0
  0
BLOCK_RECORD
  5
216
100
AcDbSymbolTableRecord
100
AcDbBlockTableRecord
  2
*Model_Space
  0
BLOCK_RECORD
  5
217
100
AcDbSymbolTableRecord
100
AcDbBlockTableRecord
  2
*Paper_Space
  0
BLOCK_RECORD
  5
218
100
AcDbSymbolTableRecord
100
AcDbBlockTableRecord
  2
_FILLED
  0
ENDTAB
  0
TABLE
  2
DIMSTYLE
  5
A
100
AcDbSymbolTable
 70
1
100
AcDbDimStyleTable
 71
0
  0
DIMSTYLE
105
219
100
AcDbSymbolTableRecord
100
AcDbDimStyleTableRecord
  2
STANDARD
 70
0
  3

  4

 40
1.0
 41
0.6592431211
 42
1.0
 43
0.38
 44
1.0
 45
0.0
 46
0.0
 47
0.01
 48
0.01
140
0.9229403696
141
0.09
142
0.0
143
25.4
144
1.0
145
0.0
146
1.0
147
0.625
 71
1
 72
0
 73
0
 74
0
 75
0
 76
0
 77
1
 78
8
 79
2
170
0
171
1
172
0
173
0
174
0
175
0
176
0
177
0
178
0
270
2
179
2
271
2
272
2
273
2
274
2
275
0
280
0
281
0
282
0
283
1
284
8
285
0
286
0
287
3
288
0
340
11
278
46
341
218
342
218
343
218
344
218
  0
ENDTAB
  0
ENDSEC
  0
SECTION
  2
BLOCKS
  0
BLOCK
  5
20
100
AcDbEntity
  8
0
100
AcDbBlockBegin
  2
*Model_Space
 70
0
 10
0.0
 20
0.0
 30
0.0
  3
*Model_Space
  1

  0
ENDBLK
  5
21
100
AcDbEntity
  8
0
100
AcDbBlockEnd
  0
BLOCK
  5
1C
100
AcDbEntity
  8
0
100
AcDbBlockBegin
  2
*Paper_Space
 70
0
 10
0.0
 20
0.0
 30
0.0
  3
*Paper_Space
  1

  0
ENDBLK
  5
1D
100
AcDbEntity
  8
0
100
AcDbBlockEnd
  0
BLOCK
  5
21A
100
AcDbEntity
  8
0
100
AcDbBlockBegin
  2
_FILLED
 70
64
 10
0.0
 20
0.0
  3
_FILLED
  1

  0
SOLID
  5
21B
100
AcDbEntity
  8
0
  6
BYBLOCK
 62
0
100
AcDbTrace
 10
0.0
 20
0.0
 11
-1.0
 21
0.25
 12
-1.0
 22
-0.25
 13
-1.0
 23
-0.25
  0
ENDBLK
  5
21C
100
AcDbEntity
  8
0
  6
BYBLOCK
 62
0
100
AcDbBlockEnd
  0
ENDSEC
  0
SECTION
  2
ENTITIES
  0
LINE
  5
21D
100
AcDbEntity
  8
00_COMPONENTS_1
100
AcDbLine
 62
7
  6
BYLAYER
 10
19.0716533527
 20
15.3522942711
 11
37.0716533527
 21
15.3522942711
  0
LINE
  5
21E
100
AcDbEntity
  8
00_COMPONENTS_1
100
AcDbLine
 62
7
  6
BYLAYER
 10
6.0716533527
 20
15.6782068183
 11
6.0716533527
 21
62.6782068183
  0
LINE
  5
21F
100
AcDbEntity
  8
00_COMPONENTS_1
100
AcDbLine
 62
7
  6
BYLAYER
 10
6.0716533527
 20
15.6782068183
 11
8.4466533527
 21
15.6782068183
  0
LINE
  5
220
100
AcDbEntity
  8
00_COMPONENTS_1
100
AcDbLine
 62
7
  6
BYLAYER
 10
16.4966533527
 20
15.6782068183
 11
18.0966533527
 21
15.6782068183
  0
LINE
  5
221
100
AcDbEntity
  8
00_COMPONENTS_1
100
AcDbLine
 62
7
  6
BYLAYER
 10
38.0466533527
 20
15.6782068183
 11
39.6466533527
 21
15.6782068183
  0
LINE
  5
222
100
AcDbEntity
  8
00_COMPONENTS_1
100
AcDbLine
 62
7
  6
BYLAYER
 10
47.6966533527
 20
15.6782068183
 11
50.0716533527
 21
15.6782068183
  0
LINE
  5
223
100
AcDbEntity
  8
00_COMPONENTS_1
100
AcDbLine
 62
7
  6
BYLAYER
 10
19.0716533527
 20
16.1155932161
 11
37.0716533527
 21
16.1155932161
  0
LINE
  5
224
100
AcDbEntity
  8
00_COMPONENTS_1
100
AcDbLine
 62
7
  6
BYLAYER
 10
18.0966533527
 20
17.2601346415
 11
19.0716533527
 21
17.2601346415
  0
LINE
  5
225
100
AcDbEntity
  8
00_COMPONENTS_1
100
AcDbLine
 62
7
  6
BYLAYER
 10
37.0716533527
 20
17.2601346415
 11
38.0466533527
 21
17.2601346415
  0
LINE
  5
226
100
AcDbEntity
  8
00_COMPONENTS_1
100
AcDbLine
 62
7
  6
BYLAYER
 10
7.1216533527
 20
34.4782068183
 11
7.1216533527
 21
43.8782068183
  0
LINE
  5
227
100
AcDbEntity
  8
00_COMPONENTS_1
100
AcDbLine
 62
7
  6
BYLAYER
 10
7.3216533527
 20
43.3782068183
 11
7.3216533527
 21
34.9782068183
  0
LINE
  5
228
100
AcDbEntity
  8
00_COMPONENTS_1
100
AcDbLine
 62
7
  6
BYLAYER
 10
7.4716533527
 20
57.1782068183
 11
7.4716533527
 21
55.2782068183
  0
LINE
  5
229
100
AcDbEntity
  8
00_COMPONENTS_1
100
AcDbLine
 62
7
  6
BYLAYER
 10
7.4716533527
 20
21.1782068183
 11
7.4716533527
 21
23.0782068183
  0
LINE
  5
22A
100
AcDbEntity
  8
00_COMPONENTS_1
100
AcDbLine
 62
7
  6
BYLAYER
 10
8.4466533527
 20
62.6782068183
 11
8.4466533527
 21
59.6782068183
  0
LINE
  5
22B
100
AcDbEntity
  8
00_COMPONENTS_1
100
AcDbLine
 62
7
  6
BYLAYER
 10
8.4466533527
 20
18.6782068183
 11
8.4466533527
 21
15.6782068183
  0
LINE
  5
22C
100
AcDbEntity
  8
00_COMPONENTS_1
100
AcDbLine
 62
7
  6
BYLAYER
 10
19.0716533527
 20
18.0261860371
 11
37.0716533527
 21
18.0261860371
  0
LINE
  5
22D
100
AcDbEntity
  8
00_COMPONENTS_1
100
AcDbLine
 62
7
  6
BYLAYER
 10
6.0716533527
 20
18.6782068183
 11
9.4716533527
 21
18.6782068183
  0
LINE
  5
22E
100
AcDbEntity
  8
00_COMPONENTS_1
100
AcDbLine
 62
7
  6
BYLAYER
 10
46.6716533527
 20
18.6782068183
 11
50.0716533527
 21
18.6782068183
  0
LINE
  5
22F
100
AcDbEntity
  8
00_COMPONENTS_1
100
AcDbLine
 62
7
  6
BYLAYER
 10
25.7716533527
 20
19.1782068183
 11
30.3716533527
 21
19.1782068183
  0
LINE
  5
230
100
AcDbEntity
  8
00_COMPONENTS_1
100
AcDbLine
 62
7
  6
BYLAYER
 10
9.4716533527
 20
19.4782068183
 11
16.4966533527
 21
19.4782068183
  0
LINE
  5
231
100
AcDbEntity
  8
00_COMPONENTS_1
100
AcDbLine
 62
7
  6
BYLAYER
 10
18.0966533527
 20
19.4782068183
 11
25.7716533527
 21
19.4782068183
  0
LINE
  5
232
100
AcDbEntity
  8
00_COMPONENTS_1
100
AcDbLine
 62
7
  6
BYLAYER
 10
30.3716533527
 20
19.4782068183
 11
38.0466533527
 21
19.4782068183
  0
LINE
  5
233
100
AcDbEntity
  8
00_COMPONENTS_1
100
AcDbLine
 62
7
  6
BYLAYER
 10
39.6466533527
 20
19.4782068183
 11
46.6716533527
 21
19.4782068183
  0
LINE
  5
234
100
AcDbEntity
  8
00_COMPONENTS_1
100
AcDbLine
 62
7
  6
BYLAYER
 10
9.4716533527
 20
59.6782068183
 11
9.4716533527
 21
57.9806164568
  0
LINE
  5
235
100
AcDbEntity
  8
00_COMPONENTS_1
100
AcDbLine
 62
7
  6
BYLAYER
 10
9.4716533527
 20
18.6782068183
 11
9.4716533527
 21
20.3757971797
  0
LINE
  5
236
100
AcDbEntity
  8
00_COMPONENTS_1
100
AcDbLine
 62
7
  6
BYLAYER
 10
9.9216533527
 20
23.5830811137
 11
9.9216533527
 21
24.5282068183
  0
LINE
  5
237
100
AcDbEntity
  8
00_COMPONENTS_1
100
AcDbLine
 62
7
  6
BYLAYER
 10
9.9216533527
 20
25.2282068183
 11
9.9216533527
 21
26.1733325229
  0
LINE
  5
238
100
AcDbEntity
  8
00_COMPONENTS_1
100
AcDbLine
 62
7
  6
BYLAYER
 10
9.9216533527
 20
52.1830811137
 11
9.9216533527
 21
53.1282068183
  0
LINE
  5
239
100
AcDbEntity
  8
00_COMPONENTS_1
100
AcDbLine
 62
7
  6
BYLAYER
 10
9.9216533527
 20
53.8282068183
 11
9.9216533527
 21
54.7733325229
  0
LINE
  5
23A
100
AcDbEntity
  8
00_COMPONENTS_1
100
AcDbLine
 62
7
  6
BYLAYER
 10
10.6216533527
 20
54.7733325229
 11
10.6216533527
 21
53.8282068183
  0
LINE
  5
23B
100
AcDbEntity
  8
00_COMPONENTS_1
100
AcDbLine
 62
7
  6
BYLAYER
 10
10.6216533527
 20
53.1282068183
 11
10.6216533527
 21
52.1830811137
  0
LINE
  5
23C
100
AcDbEntity
  8
00_COMPONENTS_1
100
AcDbLine
 62
7
  6
BYLAYER
 10
10.6216533527
 20
26.1733325229
 11
10.6216533527
 21
25.2282068183
  0
LINE
  5
23D
100
AcDbEntity
  8
00_COMPONENTS_1
100
AcDbLine
 62
7
  6
BYLAYER
 10
10.6216533527
 20
24.5282068183
 11
10.6216533527
 21
23.5830811137
  0
LINE
  5
23E
100
AcDbEntity
  8
00_COMPONENTS_1
100
AcDbLine
 62
7
  6
BYLAYER
 10
10.731178142
 20
38.1782068183
 11
10.731178142
 21
40.1782068183
  0
LINE
  5
23F
100
AcDbEntity
  8
00_COMPONENTS_1
100
AcDbLine
 62
7
  6
BYLAYER
 10
9.4716533527
 20
20.3757971797
 11
25.7716533527
 21
20.3757971797
  0
LINE
  5
240
100
AcDbEntity
  8
00_COMPONENTS_1
100
AcDbLine
 62
7
  6
BYLAYER
 10
30.3716533527
 20
20.3757971797
 11
46.6716533527
 21
20.3757971797
  0
LINE
  5
241
100
AcDbEntity
  8
00_COMPONENTS_1
100
AcDbLine
 62
7
  6
BYLAYER
 10
50.0716533527
 20
21.1782068183
 11
6.0716533527
 21
21.1782068183
  0
LINE
  5
242
100
AcDbEntity
  8
00_COMPONENTS_1
100
AcDbLine
 62
7
  6
BYLAYER
 10
34.5716533527
 20
21.8968160475
 11
21.5716533527
 21
21.8968160475
  0
LINE
  5
243
100
AcDbEntity
  8
00_COMPONENTS_1
100
AcDbLine
 62
7
  6
BYLAYER
 10
11.731178142
 20
37.1782068183
 11
11.731178142
 21
38.2282068183
  0
LINE
  5
244
100
AcDbEntity
  8
00_COMPONENTS_1
100
AcDbLine
 62
7
  6
BYLAYER
 10
11.731178142
 20
40.1282068183
 11
11.731178142
 21
41.1782068183
  0
LINE
  5
245
100
AcDbEntity
  8
00_COMPONENTS_1
100
AcDbLine
 62
7
  6
BYLAYER
 10
16.8216533527
 20
22.2230209618
 11
21.5716533527
 21
22.2230209618
  0
LINE
  5
246
100
AcDbEntity
  8
00_COMPONENTS_1
100
AcDbLine
 62
7
  6
BYLAYER
 10
34.5716533527
 20
22.2230209618
 11
39.3216533527
 21
22.2230209618
  0
LINE
  5
247
100
AcDbEntity
  8
00_COMPONENTS_1
100
AcDbLine
 62
7
  6
BYLAYER
 10
16.8216533527
 20
22.7431855549
 11
18.8216533527
 21
22.7431855549
  0
LINE
  5
248
100
AcDbEntity
  8
00_COMPONENTS_1
100
AcDbLine
 62
7
  6
BYLAYER
 10
37.3216533527
 20
22.7431855549
 11
39.3216533527
 21
22.7431855549
  0
LINE
  5
249
100
AcDbEntity
  8
00_COMPONENTS_1
100
AcDbLine
 62
7
  6
BYLAYER
 10
48.6716533527
 20
23.0782068183
 11
47.2216533527
 21
23.0782068183
  0
LINE
  5
24A
100
AcDbEntity
  8
00_COMPONENTS_1
100
AcDbLine
 62
7
  6
BYLAYER
 10
44.5216533527
 20
23.0782068183
 11
37.3216533527
 21
23.0782068183
  0
LINE
  5
24B
100
AcDbEntity
  8
00_COMPONENTS_1
100
AcDbLine
 62
7
  6
BYLAYER
 10
18.8216533527
 20
23.0782068183
 11
11.6216533527
 21
23.0782068183
  0
LINE
  5
24C
100
AcDbEntity
  8
00_COMPONENTS_1
100
AcDbLine
 62
7
  6
BYLAYER
 10
8.9216533527
 20
23.0782068183
 11
7.4716533527
 21
23.0782068183
  0
LINE
  5
24D
100
AcDbEntity
  8
00_COMPONENTS_1
100
AcDbLine
 62
7
  6
BYLAYER
 10
13.3216533527
 20
34.9782068183
 11
13.3216533527
 21
37.1782068183
  0
LINE
  5
24E
100
AcDbEntity
  8
00_COMPONENTS_1
100
AcDbLine
 62
7
  6
BYLAYER
 10
13.3216533527
 20
41.2782068183
 11
13.3216533527
 21
43.3782068183
  0
LINE
  5
24F
100
AcDbEntity
  8
00_COMPONENTS_1
100
AcDbLine
 62
7
  6
BYLAYER
 10
13.731178142
 20
37.1782068183
 11
13.731178142
 21
41.1782068183
  0
LINE
  5
250
100
AcDbEntity
  8
00_COMPONENTS_1
100
AcDbLine
 62
7
  6
BYLAYER
 10
14.5716533527
 20
43.8782068183
 11
14.5716533527
 21
34.4782068183
  0
LINE
  5
251
100
AcDbEntity
  8
00_COMPONENTS_1
100
AcDbLine
 62
7
  6
BYLAYER
 10
15.2716533527
 20
57.1782068183
 11
15.2716533527
 21
59.1782068183
  0
LINE
  5
252
100
AcDbEntity
  8
00_COMPONENTS_1
100
AcDbLine
 62
7
  6
BYLAYER
 10
48.0942644298
 20
24.5282068183
 11
46.2216533527
 21
24.5282068183
  0
LINE
  5
253
100
AcDbEntity
  8
00_COMPONENTS_1
100
AcDbLine
 62
7
  6
BYLAYER
 10
45.5216533527
 20
24.5282068183
 11
43.6490422756
 21
24.5282068183
  0
LINE
  5
254
100
AcDbEntity
  8
00_COMPONENTS_1
100
AcDbLine
 62
7
  6
BYLAYER
 10
12.4942644298
 20
24.5282068183
 11
10.6216533527
 21
24.5282068183
  0
LINE
  5
255
100
AcDbEntity
  8
00_COMPONENTS_1
100
AcDbLine
 62
7
  6
BYLAYER
 10
9.9216533527
 20
24.5282068183
 11
8.0490422756
 21
24.5282068183
  0
LINE
  5
256
100
AcDbEntity
  8
00_COMPONENTS_1
100
AcDbLine
 62
7
  6
BYLAYER
 10
8.0490422756
 20
25.2282068183
 11
9.9216533527
 21
25.2282068183
  0
LINE
  5
257
100
AcDbEntity
  8
00_COMPONENTS_1
100
AcDbLine
 62
7
  6
BYLAYER
 10
10.6216533527
 20
25.2282068183
 11
12.4942644298
 21
25.2282068183
  0
LINE
  5
258
100
AcDbEntity
  8
00_COMPONENTS_1
100
AcDbLine
 62
7
  6
BYLAYER
 10
43.6490422756
 20
25.2282068183
 11
45.5216533527
 21
25.2282068183
  0
LINE
  5
259
100
AcDbEntity
  8
00_COMPONENTS_1
100
AcDbLine
 62
7
  6
BYLAYER
 10
46.2216533527
 20
25.2282068183
 11
48.0942644298
 21
25.2282068183
  0
LINE
  5
25A
100
AcDbEntity
  8
00_COMPONENTS_1
100
AcDbLine
 62
7
  6
BYLAYER
 10
16.4966533527
 20
62.6782068183
 11
16.4966533527
 21
59.1782068183
  0
LINE
  5
25B
100
AcDbEntity
  8
00_COMPONENTS_1
100
AcDbLine
 62
7
  6
BYLAYER
 10
16.4966533527
 20
19.4782068183
 11
16.4966533527
 21
15.6782068183
  0
LINE
  5
25C
100
AcDbEntity
  8
00_COMPONENTS_1
100
AcDbLine
 62
7
  6
BYLAYER
 10
16.8216533527
 20
22.2230209618
 11
16.8216533527
 21
22.7431855549
  0
LINE
  5
25D
100
AcDbEntity
  8
00_COMPONENTS_1
100
AcDbLine
 62
7
  6
BYLAYER
 10
18.0966533527
 20
62.6782068183
 11
18.0966533527
 21
59.1782068183
  0
LINE
  5
25E
100
AcDbEntity
  8
00_COMPONENTS_1
100
AcDbLine
 62
7
  6
BYLAYER
 10
18.0966533527
 20
19.4782068183
 11
18.0966533527
 21
15.6782068183
  0
LINE
  5
25F
100
AcDbEntity
  8
00_COMPONENTS_1
100
AcDbLine
 62
7
  6
BYLAYER
 10
18.8216533527
 20
22.7431855549
 11
18.8216533527
 21
46.6782068183
  0
LINE
  5
260
100
AcDbEntity
  8
00_COMPONENTS_1
100
AcDbLine
 62
7
  6
BYLAYER
 10
18.8216533527
 20
55.6132280816
 11
18.8216533527
 21
56.1333926747
  0
LINE
  5
261
100
AcDbEntity
  8
00_COMPONENTS_1
100
AcDbLine
 62
7
  6
BYLAYER
 10
19.0716533527
 20
18.0261860371
 11
19.0716533527
 21
15.3522942711
  0
LINE
  5
262
100
AcDbEntity
  8
00_COMPONENTS_1
100
AcDbLine
 62
7
  6
BYLAYER
 10
19.8716533527
 20
57.1782068183
 11
19.8716533527
 21
59.1782068183
  0
LINE
  5
263
100
AcDbEntity
  8
00_COMPONENTS_1
100
AcDbLine
 62
7
  6
BYLAYER
 10
20.5716533527
 20
34.1282068183
 11
20.5716533527
 21
43.7782068183
  0
LINE
  5
264
100
AcDbEntity
  8
00_COMPONENTS_1
100
AcDbLine
 62
7
  6
BYLAYER
 10
20.631178142
 20
34.5049428427
 11
20.631178142
 21
43.1782068183
  0
LINE
  5
265
100
AcDbEntity
  8
00_COMPONENTS_1
100
AcDbLine
 62
7
  6
BYLAYER
 10
21.0716533527
 20
46.6782068183
 11
21.0716533527
 21
55.6132280816
  0
LINE
  5
266
100
AcDbEntity
  8
00_COMPONENTS_1
100
AcDbLine
 62
7
  6
BYLAYER
 10
21.5716533527
 20
21.8968160475
 11
21.5716533527
 21
34.1282068183
  0
LINE
  5
267
100
AcDbEntity
  8
00_COMPONENTS_1
100
AcDbLine
 62
7
  6
BYLAYER
 10
23.5716533527
 20
56.1333926747
 11
23.5716533527
 21
47.6782068183
  0
LINE
  5
268
100
AcDbEntity
  8
00_COMPONENTS_1
100
AcDbLine
 62
7
  6
BYLAYER
 10
35.3661072409
 20
34.1282068183
 11
20.5716533527
 21
34.1282068183
  0
LINE
  5
269
100
AcDbEntity
  8
00_COMPONENTS_1
100
AcDbLine
 62
7
  6
BYLAYER
 10
14.5716533527
 20
34.4782068183
 11
7.1216533527
 21
34.4782068183
  0
LINE
  5
26A
100
AcDbEntity
  8
00_COMPONENTS_1
100
AcDbLine
 62
7
  6
BYLAYER
 10
20.631178142
 20
34.5049428427
 11
26.8716533527
 21
34.5049428427
  0
LINE
  5
26B
100
AcDbEntity
  8
00_COMPONENTS_1
100
AcDbLine
 62
7
  6
BYLAYER
 10
28.831178142
 20
34.5049428427
 11
35.0716533527
 21
34.5049428427
  0
LINE
  5
26C
100
AcDbEntity
  8
00_COMPONENTS_1
100
AcDbLine
 62
7
  6
BYLAYER
 10
7.3216533527
 20
34.9782068183
 11
13.3216533527
 21
34.9782068183
  0
LINE
  5
26D
100
AcDbEntity
  8
00_COMPONENTS_1
100
AcDbLine
 62
7
  6
BYLAYER
 10
24.331178142
 20
35.1782068183
 11
24.331178142
 21
41.7782068183
  0
LINE
  5
26E
100
AcDbEntity
  8
00_COMPONENTS_1
100
AcDbLine
 62
7
  6
BYLAYER
 10
24.8716533527
 20
47.6782068183
 11
24.8716533527
 21
44.7782068183
  0
LINE
  5
26F
100
AcDbEntity
  8
00_COMPONENTS_1
100
AcDbLine
 62
7
  6
BYLAYER
 10
24.8716533527
 20
55.5302370367
 11
24.8716533527
 21
56.2728466209
  0
LINE
  5
270
100
AcDbEntity
  8
00_COMPONENTS_1
100
AcDbLine
 62
7
  6
BYLAYER
 10
25.0716533527
 20
56.0782068183
 11
25.0716533527
 21
55.5302370367
  0
LINE
  5
271
100
AcDbEntity
  8
00_COMPONENTS_1
100
AcDbLine
 62
7
  6
BYLAYER
 10
25.3716533527
 20
47.9782068183
 11
25.3716533527
 21
55.5302370367
  0
LINE
  5
272
100
AcDbEntity
  8
00_COMPONENTS_1
100
AcDbLine
 62
7
  6
BYLAYER
 10
25.5716533527
 20
47.9782068183
 11
25.5716533527
 21
56.0782068183
  0
LINE
  5
273
100
AcDbEntity
  8
00_COMPONENTS_1
100
AcDbLine
 62
7
  6
BYLAYER
 10
25.7716533527
 20
21.1782068183
 11
25.7716533527
 21
19.1782068183
  0
LINE
  5
274
100
AcDbEntity
  8
00_COMPONENTS_1
100
AcDbLine
 62
7
  6
BYLAYER
 10
25.7716533527
 20
58.8782068183
 11
25.7716533527
 21
62.6782068183
  0
LINE
  5
275
100
AcDbEntity
  8
00_COMPONENTS_1
100
AcDbLine
 62
7
  6
BYLAYER
 10
30.931178142
 20
35.1782068183
 11
28.831178142
 21
35.1782068183
  0
LINE
  5
276
100
AcDbEntity
  8
00_COMPONENTS_1
100
AcDbLine
 62
7
  6
BYLAYER
 10
26.431178142
 20
35.1782068183
 11
24.331178142
 21
35.1782068183
  0
LINE
  5
277
100
AcDbEntity
  8
00_COMPONENTS_1
100
AcDbLine
 62
7
  6
BYLAYER
 10
30.931178142
 20
36.2282068183
 11
28.831178142
 21
36.2282068183
  0
LINE
  5
278
100
AcDbEntity
  8
00_COMPONENTS_1
100
AcDbLine
 62
7
  6
BYLAYER
 10
26.431178142
 20
36.2282068183
 11
24.331178142
 21
36.2282068183
  0
LINE
  5
279
100
AcDbEntity
  8
00_COMPONENTS_1
100
AcDbLine
 62
7
  6
BYLAYER
 10
26.3216533527
 20
44.7782068183
 11
26.3216533527
 21
43.7782068183
  0
LINE
  5
27A
100
AcDbEntity
  8
00_COMPONENTS_1
100
AcDbLine
 62
7
  6
BYLAYER
 10
26.431178142
 20
34.5049428427
 11
26.431178142
 21
38.0782068183
  0
LINE
  5
27B
100
AcDbEntity
  8
00_COMPONENTS_1
100
AcDbLine
 62
7
  6
BYLAYER
 10
26.431178142
 20
39.2782068183
 11
26.431178142
 21
43.1782068183
  0
LINE
  5
27C
100
AcDbEntity
  8
00_COMPONENTS_1
100
AcDbLine
 62
7
  6
BYLAYER
 10
26.8216533527
 20
61.5782068183
 11
26.8216533527
 21
57.0782068183
  0
LINE
  5
27D
100
AcDbEntity
  8
00_COMPONENTS_1
100
AcDbLine
 62
7
  6
BYLAYER
 10
26.8716533527
 20
34.5049428427
 11
26.8716533527
 21
38.0782068183
  0
LINE
  5
27E
100
AcDbEntity
  8
00_COMPONENTS_1
100
AcDbLine
 62
7
  6
BYLAYER
 10
26.8716533527
 20
39.3282068183
 11
26.8716533527
 21
43.1782068183
  0
LINE
  5
27F
100
AcDbEntity
  8
00_COMPONENTS_1
100
AcDbLine
 62
7
  6
BYLAYER
 10
13.731178142
 20
37.1782068183
 11
11.731178142
 21
37.1782068183
  0
LINE
  5
280
100
AcDbEntity
  8
00_COMPONENTS_1
100
AcDbLine
 62
7
  6
BYLAYER
 10
34.631178142
 20
37.6049428427
 11
30.931178142
 21
37.6049428427
  0
LINE
  5
281
100
AcDbEntity
  8
00_COMPONENTS_1
100
AcDbLine
 62
7
  6
BYLAYER
 10
24.331178142
 20
37.6049428427
 11
20.631178142
 21
37.6049428427
  0
LINE
  5
282
100
AcDbEntity
  8
00_COMPONENTS_1
100
AcDbLine
 62
7
  6
BYLAYER
 10
28.831178142
 20
38.0782068183
 11
26.431178142
 21
38.0782068183
  0
LINE
  5
283
100
AcDbEntity
  8
00_COMPONENTS_1
100
AcDbLine
 62
7
  6
BYLAYER
 10
11.731178142
 20
38.1782068183
 11
10.731178142
 21
38.1782068183
  0
LINE
  5
284
100
AcDbEntity
  8
00_COMPONENTS_1
100
AcDbLine
 62
7
  6
BYLAYER
 10
11.731178142
 20
38.2282068183
 11
13.731178142
 21
38.2282068183
  0
LINE
  5
285
100
AcDbEntity
  8
00_COMPONENTS_1
100
AcDbLine
 62
7
  6
BYLAYER
 10
13.731178142
 20
39.2782068183
 11
14.5716533527
 21
39.2782068183
  0
LINE
  5
286
100
AcDbEntity
  8
00_COMPONENTS_1
100
AcDbLine
 62
7
  6
BYLAYER
 10
26.431178142
 20
39.2782068183
 11
28.831178142
 21
39.2782068183
  0
LINE
  5
287
100
AcDbEntity
  8
00_COMPONENTS_1
100
AcDbLine
 62
7
  6
BYLAYER
 10
28.831178142
 20
34.5049428427
 11
28.831178142
 21
38.0782068183
  0
LINE
  5
288
100
AcDbEntity
  8
00_COMPONENTS_1
100
AcDbLine
 62
7
  6
BYLAYER
 10
28.831178142
 20
39.2782068183
 11
28.831178142
 21
43.1782068183
  0
LINE
  5
289
100
AcDbEntity
  8
00_COMPONENTS_1
100
AcDbLine
 62
7
  6
BYLAYER
 10
29.3216533527
 20
57.0782068183
 11
29.3216533527
 21
61.5782068183
  0
LINE
  5
28A
100
AcDbEntity
  8
00_COMPONENTS_1
100
AcDbLine
 62
7
  6
BYLAYER
 10
29.8216533527
 20
43.7782068183
 11
29.8216533527
 21
44.7782068183
  0
LINE
  5
28B
100
AcDbEntity
  8
00_COMPONENTS_1
100
AcDbLine
 62
7
  6
BYLAYER
 10
30.3716533527
 20
21.1782068183
 11
30.3716533527
 21
19.1782068183
  0
LINE
  5
28C
100
AcDbEntity
  8
00_COMPONENTS_1
100
AcDbLine
 62
7
  6
BYLAYER
 10
30.3716533527
 20
58.8782068183
 11
30.3716533527
 21
62.6782068183
  0
LINE
  5
28D
100
AcDbEntity
  8
00_COMPONENTS_1
100
AcDbLine
 62
7
  6
BYLAYER
 10
28.831178142
 20
39.3282068183
 11
26.8716533527
 21
39.3282068183
  0
LINE
  5
28E
100
AcDbEntity
  8
00_COMPONENTS_1
100
AcDbLine
 62
7
  6
BYLAYER
 10
20.631178142
 20
40.0782068183
 11
24.331178142
 21
40.0782068183
  0
LINE
  5
28F
100
AcDbEntity
  8
00_COMPONENTS_1
100
AcDbLine
 62
7
  6
BYLAYER
 10
30.931178142
 20
40.0782068183
 11
34.631178142
 21
40.0782068183
  0
LINE
  5
290
100
AcDbEntity
  8
00_COMPONENTS_1
100
AcDbLine
 62
7
  6
BYLAYER
 10
13.731178142
 20
40.1282068183
 11
11.731178142
 21
40.1282068183
  0
LINE
  5
291
100
AcDbEntity
  8
00_COMPONENTS_1
100
AcDbLine
 62
7
  6
BYLAYER
 10
10.731178142
 20
40.1782068183
 11
11.731178142
 21
40.1782068183
  0
LINE
  5
292
100
AcDbEntity
  8
00_COMPONENTS_1
100
AcDbLine
 62
7
  6
BYLAYER
 10
24.331178142
 20
40.7282068183
 11
26.431178142
 21
40.7282068183
  0
LINE
  5
293
100
AcDbEntity
  8
00_COMPONENTS_1
100
AcDbLine
 62
7
  6
BYLAYER
 10
28.831178142
 20
40.7282068183
 11
30.931178142
 21
40.7282068183
  0
LINE
  5
294
100
AcDbEntity
  8
00_COMPONENTS_1
100
AcDbLine
 62
7
  6
BYLAYER
 10
11.731178142
 20
41.1782068183
 11
13.731178142
 21
41.1782068183
  0
LINE
  5
295
100
AcDbEntity
  8
00_COMPONENTS_1
100
AcDbLine
 62
7
  6
BYLAYER
 10
13.3216533527
 20
41.2782068183
 11
14.5716533527
 21
41.2782068183
  0
LINE
  5
296
100
AcDbEntity
  8
00_COMPONENTS_1
100
AcDbLine
 62
7
  6
BYLAYER
 10
30.5716533527
 20
47.9782068183
 11
30.5716533527
 21
56.0782068183
  0
LINE
  5
297
100
AcDbEntity
  8
00_COMPONENTS_1
100
AcDbLine
 62
7
  6
BYLAYER
 10
30.7716533527
 20
47.9782068183
 11
30.7716533527
 21
55.5302370367
  0
LINE
  5
298
100
AcDbEntity
  8
00_COMPONENTS_1
100
AcDbLine
 62
7
  6
BYLAYER
 10
30.931178142
 20
35.1782068183
 11
30.931178142
 21
41.7782068183
  0
LINE
  5
299
100
AcDbEntity
  8
00_COMPONENTS_1
100
AcDbLine
 62
7
  6
BYLAYER
 10
31.0716533527
 20
56.0782068183
 11
31.0716533527
 21
55.5302370367
  0
LINE
  5
29A
100
AcDbEntity
  8
00_COMPONENTS_1
100
AcDbLine
 62
7
  6
BYLAYER
 10
31.2716533527
 20
56.2728466209
 11
31.2716533527
 21
55.5302370366
  0
LINE
  5
29B
100
AcDbEntity
  8
00_COMPONENTS_1
100
AcDbLine
 62
7
  6
BYLAYER
 10
31.2716533527
 20
44.7782068183
 11
31.2716533527
 21
47.6782068183
  0
LINE
  5
29C
100
AcDbEntity
  8
00_COMPONENTS_1
100
AcDbLine
 62
7
  6
BYLAYER
 10
32.5716533527
 20
47.6782068183
 11
32.5716533527
 21
56.1333926747
  0
LINE
  5
29D
100
AcDbEntity
  8
00_COMPONENTS_1
100
AcDbLine
 62
7
  6
BYLAYER
 10
24.331178142
 20
41.7782068183
 11
26.431178142
 21
41.7782068183
  0
LINE
  5
29E
100
AcDbEntity
  8
00_COMPONENTS_1
100
AcDbLine
 62
7
  6
BYLAYER
 10
28.831178142
 20
41.7782068183
 11
30.931178142
 21
41.7782068183
  0
LINE
  5
29F
100
AcDbEntity
  8
00_COMPONENTS_1
100
AcDbLine
 62
7
  6
BYLAYER
 10
20.631178142
 20
43.1782068183
 11
26.8716533527
 21
43.1782068183
  0
LINE
  5
2A0
100
AcDbEntity
  8
00_COMPONENTS_1
100
AcDbLine
 62
7
  6
BYLAYER
 10
28.831178142
 20
43.1782068183
 11
35.0716533527
 21
43.1782068183
  0
LINE
  5
2A1
100
AcDbEntity
  8
00_COMPONENTS_1
100
AcDbLine
 62
7
  6
BYLAYER
 10
13.3216533527
 20
43.3782068183
 11
7.3216533527
 21
43.3782068183
  0
LINE
  5
2A2
100
AcDbEntity
  8
00_COMPONENTS_1
100
AcDbLine
 62
7
  6
BYLAYER
 10
34.5716533527
 20
34.1282068183
 11
34.5716533527
 21
21.8968160475
  0
LINE
  5
2A3
100
AcDbEntity
  8
00_COMPONENTS_1
100
AcDbLine
 62
7
  6
BYLAYER
 10
34.631178142
 20
34.5049428427
 11
34.631178142
 21
43.1782068183
  0
LINE
  5
2A4
100
AcDbEntity
  8
00_COMPONENTS_1
100
AcDbLine
 62
7
  6
BYLAYER
 10
20.5716533527
 20
43.7782068183
 11
35.3661072409
 21
43.7782068183
  0
LINE
  5
2A5
100
AcDbEntity
  8
00_COMPONENTS_1
100
AcDbLine
 62
7
  6
BYLAYER
 10
7.1216533527
 20
43.8782068183
 11
14.5716533527
 21
43.8782068183
  0
LINE
  5
2A6
100
AcDbEntity
  8
00_COMPONENTS_1
100
AcDbLine
 62
7
  6
BYLAYER
 10
24.8716533527
 20
44.7782068183
 11
26.3216533527
 21
44.7782068183
  0
LINE
  5
2A7
100
AcDbEntity
  8
00_COMPONENTS_1
100
AcDbLine
 62
7
  6
BYLAYER
 10
29.8216533527
 20
44.7782068183
 11
31.2716533527
 21
44.7782068183
  0
LINE
  5
2A8
100
AcDbEntity
  8
00_COMPONENTS_1
100
AcDbLine
 62
7
  6
BYLAYER
 10
35.0716533527
 20
55.6132280816
 11
35.0716533527
 21
46.6782068183
  0
LINE
  5
2A9
100
AcDbEntity
  8
00_COMPONENTS_1
100
AcDbLine
 62
7
  6
BYLAYER
 10
35.0716533527
 20
34.5049428427
 11
35.0716533527
 21
43.1782068183
  0
LINE
  5
2AA
100
AcDbEntity
  8
00_COMPONENTS_1
100
AcDbLine
 62
7
  6
BYLAYER
 10
35.3661072409
 20
43.7782068183
 11
35.3661072409
 21
34.1282068183
  0
LINE
  5
2AB
100
AcDbEntity
  8
00_COMPONENTS_1
100
AcDbLine
 62
7
  6
BYLAYER
 10
36.2716533527
 20
57.1782068183
 11
36.2716533527
 21
59.1782068183
  0
LINE
  5
2AC
100
AcDbEntity
  8
00_COMPONENTS_1
100
AcDbLine
 62
7
  6
BYLAYER
 10
18.8216533527
 20
46.6782068183
 11
21.0716533527
 21
46.6782068183
  0
LINE
  5
2AD
100
AcDbEntity
  8
00_COMPONENTS_1
100
AcDbLine
 62
7
  6
BYLAYER
 10
35.0716533527
 20
46.6782068183
 11
37.3216533527
 21
46.6782068183
  0
LINE
  5
2AE
100
AcDbEntity
  8
00_COMPONENTS_1
100
AcDbLine
 62
7
  6
BYLAYER
 10
23.5716533527
 20
47.6782068183
 11
24.8716533527
 21
47.6782068183
  0
LINE
  5
2AF
100
AcDbEntity
  8
00_COMPONENTS_1
100
AcDbLine
 62
7
  6
BYLAYER
 10
31.2716533527
 20
47.6782068183
 11
32.5716533527
 21
47.6782068183
  0
LINE
  5
2B0
100
AcDbEntity
  8
00_COMPONENTS_1
100
AcDbLine
 62
7
  6
BYLAYER
 10
37.0716533527
 20
15.3522942711
 11
37.0716533527
 21
18.0261860371
  0
LINE
  5
2B1
100
AcDbEntity
  8
00_COMPONENTS_1
100
AcDbLine
 62
7
  6
BYLAYER
 10
37.3216533527
 20
56.1333926747
 11
37.3216533527
 21
55.6132280816
  0
LINE
  5
2B2
100
AcDbEntity
  8
00_COMPONENTS_1
100
AcDbLine
 62
7
  6
BYLAYER
 10
37.3216533527
 20
46.6782068183
 11
37.3216533527
 21
22.7431855549
  0
LINE
  5
2B3
100
AcDbEntity
  8
00_COMPONENTS_1
100
AcDbLine
 62
7
  6
BYLAYER
 10
38.0466533527
 20
62.6782068183
 11
38.0466533527
 21
59.1782068183
  0
LINE
  5
2B4
100
AcDbEntity
  8
00_COMPONENTS_1
100
AcDbLine
 62
7
  6
BYLAYER
 10
38.0466533527
 20
19.4782068183
 11
38.0466533527
 21
15.6782068183
  0
LINE
  5
2B5
100
AcDbEntity
  8
00_COMPONENTS_1
100
AcDbLine
 62
7
  6
BYLAYER
 10
30.7716533527
 20
47.9782068183
 11
25.3716533527
 21
47.9782068183
  0
LINE
  5
2B6
100
AcDbEntity
  8
00_COMPONENTS_1
100
AcDbLine
 62
7
  6
BYLAYER
 10
39.3216533527
 20
22.7431855549
 11
39.3216533527
 21
22.2230209618
  0
LINE
  5
2B7
100
AcDbEntity
  8
00_COMPONENTS_1
100
AcDbLine
 62
7
  6
BYLAYER
 10
39.6466533527
 20
62.6782068183
 11
39.6466533527
 21
59.1782068183
  0
LINE
  5
2B8
100
AcDbEntity
  8
00_COMPONENTS_1
100
AcDbLine
 62
7
  6
BYLAYER
 10
39.6466533527
 20
19.4782068183
 11
39.6466533527
 21
15.6782068183
  0
LINE
  5
2B9
100
AcDbEntity
  8
00_COMPONENTS_1
100
AcDbLine
 62
7
  6
BYLAYER
 10
40.8716533527
 20
57.1782068183
 11
40.8716533527
 21
59.1782068183
  0
LINE
  5
2BA
100
AcDbEntity
  8
00_COMPONENTS_1
100
AcDbLine
 62
7
  6
BYLAYER
 10
30.5716533527
 20
50.9611282184
 11
25.5716533527
 21
50.9611282184
  0
LINE
  5
2BB
100
AcDbEntity
  8
00_COMPONENTS_1
100
AcDbLine
 62
7
  6
BYLAYER
 10
25.5716533527
 20
52.4442105687
 11
30.5716533527
 21
52.4442105687
  0
LINE
  5
2BC
100
AcDbEntity
  8
00_COMPONENTS_1
100
AcDbLine
 62
7
  6
BYLAYER
 10
48.0942644298
 20
53.1282068183
 11
46.2216533527
 21
53.1282068183
  0
LINE
  5
2BD
100
AcDbEntity
  8
00_COMPONENTS_1
100
AcDbLine
 62
7
  6
BYLAYER
 10
45.5216533527
 20
53.1282068183
 11
43.6490422756
 21
53.1282068183
  0
LINE
  5
2BE
100
AcDbEntity
  8
00_COMPONENTS_1
100
AcDbLine
 62
7
  6
BYLAYER
 10
12.4942644298
 20
53.1282068183
 11
10.6216533527
 21
53.1282068183
  0
LINE
  5
2BF
100
AcDbEntity
  8
00_COMPONENTS_1
100
AcDbLine
 62
7
  6
BYLAYER
 10
9.9216533527
 20
53.1282068183
 11
8.0490422756
 21
53.1282068183
  0
LINE
  5
2C0
100
AcDbEntity
  8
00_COMPONENTS_1
100
AcDbLine
 62
7
  6
BYLAYER
 10
8.0490422756
 20
53.8282068183
 11
9.9216533527
 21
53.8282068183
  0
LINE
  5
2C1
100
AcDbEntity
  8
00_COMPONENTS_1
100
AcDbLine
 62
7
  6
BYLAYER
 10
10.6216533527
 20
53.8282068183
 11
12.4942644298
 21
53.8282068183
  0
LINE
  5
2C2
100
AcDbEntity
  8
00_COMPONENTS_1
100
AcDbLine
 62
7
  6
BYLAYER
 10
43.6490422756
 20
53.8282068183
 11
45.5216533527
 21
53.8282068183
  0
LINE
  5
2C3
100
AcDbEntity
  8
00_COMPONENTS_1
100
AcDbLine
 62
7
  6
BYLAYER
 10
46.2216533527
 20
53.8282068183
 11
48.0942644298
 21
53.8282068183
  0
LINE
  5
2C4
100
AcDbEntity
  8
00_COMPONENTS_1
100
AcDbLine
 62
7
  6
BYLAYER
 10
45.5216533527
 20
23.5830811137
 11
45.5216533527
 21
24.5282068183
  0
LINE
  5
2C5
100
AcDbEntity
  8
00_COMPONENTS_1
100
AcDbLine
 62
7
  6
BYLAYER
 10
45.5216533527
 20
25.2282068183
 11
45.5216533527
 21
26.1733325229
  0
LINE
  5
2C6
100
AcDbEntity
  8
00_COMPONENTS_1
100
AcDbLine
 62
7
  6
BYLAYER
 10
45.5216533527
 20
52.1830811137
 11
45.5216533527
 21
53.1282068183
  0
LINE
  5
2C7
100
AcDbEntity
  8
00_COMPONENTS_1
100
AcDbLine
 62
7
  6
BYLAYER
 10
45.5216533527
 20
53.8282068183
 11
45.5216533527
 21
54.7733325229
  0
LINE
  5
2C8
100
AcDbEntity
  8
00_COMPONENTS_1
100
AcDbLine
 62
7
  6
BYLAYER
 10
48.6716533527
 20
55.2782068183
 11
47.2216533527
 21
55.2782068183
  0
LINE
  5
2C9
100
AcDbEntity
  8
00_COMPONENTS_1
100
AcDbLine
 62
7
  6
BYLAYER
 10
44.5216533527
 20
55.2782068183
 11
35.0716533527
 21
55.2782068183
  0
LINE
  5
2CA
100
AcDbEntity
  8
00_COMPONENTS_1
100
AcDbLine
 62
7
  6
BYLAYER
 10
32.5716533527
 20
55.2782068183
 11
30.7716533527
 21
55.2782068183
  0
LINE
  5
2CB
100
AcDbEntity
  8
00_COMPONENTS_1
100
AcDbLine
 62
7
  6
BYLAYER
 10
25.3716533527
 20
55.2782068183
 11
23.5716533527
 21
55.2782068183
  0
LINE
  5
2CC
100
AcDbEntity
  8
00_COMPONENTS_1
100
AcDbLine
 62
7
  6
BYLAYER
 10
21.0716533527
 20
55.2782068183
 11
11.6216533527
 21
55.2782068183
  0
LINE
  5
2CD
100
AcDbEntity
  8
00_COMPONENTS_1
100
AcDbLine
 62
7
  6
BYLAYER
 10
8.9216533527
 20
55.2782068183
 11
7.4716533527
 21
55.2782068183
  0
LINE
  5
2CE
100
AcDbEntity
  8
00_COMPONENTS_1
100
AcDbLine
 62
7
  6
BYLAYER
 10
31.2716533527
 20
55.5302370367
 11
30.7716533527
 21
55.5302370367
  0
LINE
  5
2CF
100
AcDbEntity
  8
00_COMPONENTS_1
100
AcDbLine
 62
7
  6
BYLAYER
 10
25.3716533527
 20
55.5302370367
 11
24.8716533527
 21
55.5302370367
  0
LINE
  5
2D0
100
AcDbEntity
  8
00_COMPONENTS_1
100
AcDbLine
 62
7
  6
BYLAYER
 10
37.3216533527
 20
55.6132280816
 11
35.0716533527
 21
55.6132280816
  0
LINE
  5
2D1
100
AcDbEntity
  8
00_COMPONENTS_1
100
AcDbLine
 62
7
  6
BYLAYER
 10
21.0716533527
 20
55.6132280816
 11
18.8216533527
 21
55.6132280816
  0
LINE
  5
2D2
100
AcDbEntity
  8
00_COMPONENTS_1
100
AcDbLine
 62
7
  6
BYLAYER
 10
31.0716533527
 20
56.0782068183
 11
30.3216533527
 21
56.0782068183
  0
LINE
  5
2D3
100
AcDbEntity
  8
00_COMPONENTS_1
100
AcDbLine
 62
7
  6
BYLAYER
 10
25.0716533527
 20
56.0782068183
 11
25.8216533527
 21
56.0782068183
  0
LINE
  5
2D4
100
AcDbEntity
  8
00_COMPONENTS_1
100
AcDbLine
 62
7
  6
BYLAYER
 10
37.3216533527
 20
56.1333926747
 11
32.5716533527
 21
56.1333926747
  0
LINE
  5
2D5
100
AcDbEntity
  8
00_COMPONENTS_1
100
AcDbLine
 62
7
  6
BYLAYER
 10
23.5716533527
 20
56.1333926747
 11
18.8216533527
 21
56.1333926747
  0
LINE
  5
2D6
100
AcDbEntity
  8
00_COMPONENTS_1
100
AcDbLine
 62
7
  6
BYLAYER
 10
24.8716533527
 20
56.2728466209
 11
26.4131992961
 21
56.2728466209
  0
LINE
  5
2D7
100
AcDbEntity
  8
00_COMPONENTS_1
100
AcDbLine
 62
7
  6
BYLAYER
 10
29.7301198626
 20
56.2728466209
 11
31.2716533527
 21
56.2728466209
  0
LINE
  5
2D8
100
AcDbEntity
  8
00_COMPONENTS_1
100
AcDbLine
 62
7
  6
BYLAYER
 10
46.2216533527
 20
54.7733325229
 11
46.2216533527
 21
53.8282068183
  0
LINE
  5
2D9
100
AcDbEntity
  8
00_COMPONENTS_1
100
AcDbLine
 62
7
  6
BYLAYER
 10
46.2216533527
 20
53.1282068183
 11
46.2216533527
 21
52.1830811137
  0
LINE
  5
2DA
100
AcDbEntity
  8
00_COMPONENTS_1
100
AcDbLine
 62
7
  6
BYLAYER
 10
46.2216533527
 20
26.1733325229
 11
46.2216533527
 21
25.2282068183
  0
LINE
  5
2DB
100
AcDbEntity
  8
00_COMPONENTS_1
100
AcDbLine
 62
7
  6
BYLAYER
 10
46.2216533527
 20
24.5282068183
 11
46.2216533527
 21
23.5830811137
  0
LINE
  5
2DC
100
AcDbEntity
  8
00_COMPONENTS_1
100
AcDbLine
 62
7
  6
BYLAYER
 10
46.6716533527
 20
20.3757971797
 11
46.6716533527
 21
18.6782068183
  0
LINE
  5
2DD
100
AcDbEntity
  8
00_COMPONENTS_1
100
AcDbLine
 62
7
  6
BYLAYER
 10
46.6716533527
 20
57.9806164568
 11
46.6716533527
 21
59.6782068183
  0
LINE
  5
2DE
100
AcDbEntity
  8
00_COMPONENTS_1
100
AcDbLine
 62
7
  6
BYLAYER
 10
47.6966533527
 20
62.6782068183
 11
47.6966533527
 21
59.6782068183
  0
LINE
  5
2DF
100
AcDbEntity
  8
00_COMPONENTS_1
100
AcDbLine
 62
7
  6
BYLAYER
 10
47.6966533527
 20
18.6782068183
 11
47.6966533527
 21
15.6782068183
  0
LINE
  5
2E0
100
AcDbEntity
  8
00_COMPONENTS_1
100
AcDbLine
 62
7
  6
BYLAYER
 10
50.0716533527
 20
57.1782068183
 11
29.3216533527
 21
57.1782068183
  0
LINE
  5
2E1
100
AcDbEntity
  8
00_COMPONENTS_1
100
AcDbLine
 62
7
  6
BYLAYER
 10
26.8216533527
 20
57.1782068183
 11
6.0716533527
 21
57.1782068183
  0
LINE
  5
2E2
100
AcDbEntity
  8
00_COMPONENTS_1
100
AcDbLine
 62
7
  6
BYLAYER
 10
9.4716533527
 20
57.9806164568
 11
15.2716533527
 21
57.9806164568
  0
LINE
  5
2E3
100
AcDbEntity
  8
00_COMPONENTS_1
100
AcDbLine
 62
7
  6
BYLAYER
 10
19.8716533527
 20
57.9806164568
 11
26.8216533527
 21
57.9806164568
  0
LINE
  5
2E4
100
AcDbEntity
  8
00_COMPONENTS_1
100
AcDbLine
 62
7
  6
BYLAYER
 10
29.3216533527
 20
57.9806164568
 11
36.2716533527
 21
57.9806164568
  0
LINE
  5
2E5
100
AcDbEntity
  8
00_COMPONENTS_1
100
AcDbLine
 62
7
  6
BYLAYER
 10
40.8716533527
 20
57.9806164568
 11
46.6716533527
 21
57.9806164568
  0
LINE
  5
2E6
100
AcDbEntity
  8
00_COMPONENTS_1
100
AcDbLine
 62
7
  6
BYLAYER
 10
48.6716533527
 20
57.1782068183
 11
48.6716533527
 21
55.2782068183
  0
LINE
  5
2E7
100
AcDbEntity
  8
00_COMPONENTS_1
100
AcDbLine
 62
7
  6
BYLAYER
 10
48.6716533527
 20
21.1782068183
 11
48.6716533527
 21
23.0782068183
  0
LINE
  5
2E8
100
AcDbEntity
  8
00_COMPONENTS_1
100
AcDbLine
 62
7
  6
BYLAYER
 10
9.4716533527
 20
58.8782068183
 11
15.2716533527
 21
58.8782068183
  0
LINE
  5
2E9
100
AcDbEntity
  8
00_COMPONENTS_1
100
AcDbLine
 62
7
  6
BYLAYER
 10
19.8716533527
 20
58.8782068183
 11
26.8216533527
 21
58.8782068183
  0
LINE
  5
2EA
100
AcDbEntity
  8
00_COMPONENTS_1
100
AcDbLine
 62
7
  6
BYLAYER
 10
29.3216533527
 20
58.8782068183
 11
36.2716533527
 21
58.8782068183
  0
LINE
  5
2EB
100
AcDbEntity
  8
00_COMPONENTS_1
100
AcDbLine
 62
7
  6
BYLAYER
 10
40.8716533527
 20
58.8782068183
 11
46.6716533527
 21
58.8782068183
  0
LINE
  5
2EC
100
AcDbEntity
  8
00_COMPONENTS_1
100
AcDbLine
 62
7
  6
BYLAYER
 10
40.8716533527
 20
59.1782068183
 11
36.2716533527
 21
59.1782068183
  0
LINE
  5
2ED
100
AcDbEntity
  8
00_COMPONENTS_1
100
AcDbLine
 62
7
  6
BYLAYER
 10
19.8716533527
 20
59.1782068183
 11
15.2716533527
 21
59.1782068183
  0
LINE
  5
2EE
100
AcDbEntity
  8
00_COMPONENTS_1
100
AcDbLine
 62
7
  6
BYLAYER
 10
6.0716533527
 20
59.6782068183
 11
9.4716533527
 21
59.6782068183
  0
LINE
  5
2EF
100
AcDbEntity
  8
00_COMPONENTS_1
100
AcDbLine
 62
7
  6
BYLAYER
 10
46.6716533527
 20
59.6782068183
 11
50.0716533527
 21
59.6782068183
  0
LINE
  5
2F0
100
AcDbEntity
  8
00_COMPONENTS_1
100
AcDbLine
 62
7
  6
BYLAYER
 10
26.8216533527
 20
60.365771253
 11
29.3216533527
 21
60.365771253
  0
LINE
  5
2F1
100
AcDbEntity
  8
00_COMPONENTS_1
100
AcDbLine
 62
7
  6
BYLAYER
 10
50.0716533527
 20
15.6782068183
 11
50.0716533527
 21
62.6782068183
  0
LINE
  5
2F2
100
AcDbEntity
  8
00_COMPONENTS_1
100
AcDbLine
 62
7
  6
BYLAYER
 10
29.3216533527
 20
61.5782068183
 11
26.8216533527
 21
61.5782068183
  0
LINE
  5
2F3
100
AcDbEntity
  8
00_COMPONENTS_1
100
AcDbLine
 62
7
  6
BYLAYER
 10
50.0716533527
 20
62.6782068183
 11
47.6966533527
 21
62.6782068183
  0
LINE
  5
2F4
100
AcDbEntity
  8
00_COMPONENTS_1
100
AcDbLine
 62
7
  6
BYLAYER
 10
39.6466533527
 20
62.6782068183
 11
38.0466533527
 21
62.6782068183
  0
LINE
  5
2F5
100
AcDbEntity
  8
00_COMPONENTS_1
100
AcDbLine
 62
7
  6
BYLAYER
 10
18.0966533527
 20
62.6782068183
 11
16.4966533527
 21
62.6782068183
  0
LINE
  5
2F6
100
AcDbEntity
  8
00_COMPONENTS_1
100
AcDbLine
 62
7
  6
BYLAYER
 10
8.4466533527
 20
62.6782068183
 11
6.0716533527
 21
62.6782068183
  0
LINE
  5
2F7
100
AcDbEntity
  8
00_COMPONENTS_1
100
AcDbLine
 62
7
  6
BYLAYER
 10
25.7716533527
 20
62.6782068183
 11
30.3716533527
 21
62.6782068183
  0
CIRCLE
  5
2F8
100
AcDbEntity
  8
00_COMPONENTS_1
100
AcDbCircle
 62
7
  6
BYLAYER
 10
10.2716533527
 20
53.4782068183
 40
2.25
  0
CIRCLE
  5
2F9
100
AcDbEntity
  8
00_COMPONENTS_1
100
AcDbCircle
 62
7
  6
BYLAYER
 10
45.8716533527
 20
24.8782068183
 40
2.25
  0
CIRCLE
  5
2FA
100
AcDbEntity
  8
00_COMPONENTS_1
100
AcDbCircle
 62
7
  6
BYLAYER
 10
10.2716533527
 20
24.8782068183
 40
2.25
  0
CIRCLE
  5
2FB
100
AcDbEntity
  8
00_COMPONENTS_1
100
AcDbCircle
 62
7
  6
BYLAYER
 10
45.8716533527
 20
53.4782068183
 40
2.25
  0
ARC
  5
2FC
100
AcDbEntity
  8
00_COMPONENTS_1
100
AcDbCircle
 62
7
  6
BYLAYER
 10
30.3216533527
 20
57.0782068183
 40
1.0
100
AcDbArc
 50
180.0
 51
270.0
  0
ARC
  5
2FD
100
AcDbEntity
  8
00_COMPONENTS_1
100
AcDbCircle
 62
7
  6
BYLAYER
 10
25.8216533527
 20
57.0782068183
 40
1.0
100
AcDbArc
 50
270.0
 51
360.0
  0
ELLIPSE
  5
2FE
100
AcDbEntity
  8
00_COMPONENTS_1
100
AcDbEllipse
 62
7
  6
BYLAYER
 10
10.2716533527
 20
50.6417089623
 30
0.0
 11
-7.2117639321
 21
0.0
 31
0.0
 40
0.5735764364
 41
-1.6193472145
 42
-1.5222454391
  0
ELLIPSE
  5
2FF
100
AcDbEntity
  8
00_COMPONENTS_1
100
AcDbEllipse
 62
7
  6
BYLAYER
 10
10.2716533527
 20
56.3147046742
 30
0.0
 11
-7.2117639321
 21
0.0
 31
0.0
 40
0.5735764364
 41
1.5222454391
 42
1.6193472145
  0
ELLIPSE
  5
300
100
AcDbEntity
  8
00_COMPONENTS_1
100
AcDbEllipse
 62
7
  6
BYLAYER
 10
45.8716533527
 20
22.0417089623
 30
0.0
 11
-7.2117639321
 21
0.0
 31
0.0
 40
0.5735764364
 41
-1.6193472145
 42
-1.5222454391
  0
ELLIPSE
  5
301
100
AcDbEntity
  8
00_COMPONENTS_1
100
AcDbEllipse
 62
7
  6
BYLAYER
 10
45.8716533527
 20
27.7147046742
 30
0.0
 11
-7.2117639321
 21
0.0
 31
0.0
 40
0.5735764364
 41
1.5222454391
 42
1.6193472145
  0
ELLIPSE
  5
302
100
AcDbEntity
  8
00_COMPONENTS_1
100
AcDbEllipse
 62
7
  6
BYLAYER
 10
10.2716533527
 20
22.0417089623
 30
0.0
 11
-7.2117639321
 21
0.0
 31
0.0
 40
0.5735764364
 41
-1.6193472145
 42
-1.5222454391
  0
ELLIPSE
  5
303
100
AcDbEntity
  8
00_COMPONENTS_1
100
AcDbEllipse
 62
7
  6
BYLAYER
 10
10.2716533527
 20
27.7147046742
 30
0.0
 11
-7.2117639321
 21
0.0
 31
0.0
 40
0.5735764364
 41
1.5222454391
 42
1.6193472145
  0
ELLIPSE
  5
304
100
AcDbEntity
  8
00_COMPONENTS_1
100
AcDbEllipse
 62
7
  6
BYLAYER
 10
45.8716533527
 20
50.6417089623
 30
0.0
 11
-7.2117639321
 21
0.0
 31
0.0
 40
0.5735764364
 41
-1.6193472145
 42
-1.5222454391
  0
ELLIPSE
  5
305
100
AcDbEntity
  8
00_COMPONENTS_1
100
AcDbEllipse
 62
7
  6
BYLAYER
 10
45.8716533527
 20
56.3147046742
 30
0.0
 11
-7.2117639321
 21
0.0
 31
0.0
 40
0.5735764364
 41
1.5222454391
 42
1.6193472145
  0
ENDSEC
  0
SECTION
  2
OBJECTS
  0
DICTIONARY
  5
C
100
AcDbDictionary
280
0
281
1
  3
ACAD_GROUP
350
D
  3
ACAD_MLINESTYLE
350
17
  3
ACAD_LAYOUT
350
1A
  3
ACAD_PLOTSETTINGS
350
19
  3
ACAD_PLOTSTYLENAME
350
E
  0
DICTIONARY
  5
D
102
{ACAD_REACTORS
330
C
102
}
100
AcDbDictionary
280
0
281
1
  0
ACDBDICTIONARYWDFLT
  5
E
102
{ACAD_REACTORS
330
C
102
}
100
AcDbDictionary
281
1
  3
Normal
350
F
100
AcDbDictionaryWithDefault
340
F
  0
DICTIONARY
  5
17
102
{ACAD_REACTORS
330
C
102
}
100
AcDbDictionary
280
0
281
1
  3
Standard
350
18
  0
DICTIONARY
  5
19
102
{ACAD_REACTORS
330
C
102
}
100
AcDbDictionary
281
1
  0
DICTIONARY
  5
1A
102
{ACAD_REACTORS
330
C
102
}
100
AcDbDictionary
281
1
  3
Model
350
306
  3
Layout1
350
307
  0
ACDBPLACEHOLDER
  5
F
102
{ACAD_REACTORS
330
E
102
}
  0
MLINESTYLE
  5
18
102
{ACAD_REACTORS
330
17
102
}
100
AcDbMlineStyle
  2
STANDARD
 70
0
  3

 62
256
 51
90.0
 52
90.0
 71
2
 49
0.5
 62
256
  6
BYLAYER
 49
-0.5
 62
256
  6
BYLAYER
  0
LAYOUT
  5
306
102
{ACAD_REACTORS
330
1A
102
}
100
AcDbPlotSettings
  1

  2
none_device
  4

  6

 40
0.0
 41
0.0
 42
0.0
 43
0.0
 44
210.0
 45
297.0
 46
0.0
 47
0.0
 48
0.0
 49
0.0
140
0.0
141
0.0
142
1.0
143
1.0
 70
1024
 72
1
 73
0
 74
0
  7

 75
0
147
1.0
148
0.0
149
0.0
100
AcDbLayout
  1
Model
 70
0
 71
0
 10
0.0
 20
0.0
 11
210.0
 21
297.0
 12
0.0
 22
0.0
 32
0.0
 14
0.0
 24
0.0
 34
0.0
 15
0.0
 25
0.0
 35
0.0
146
0.0
 13
0.0
 23
0.0
 33
0.0
 16
1.0
 26
0.0
 36
0.0
 17
0.0
 27
1.0
 37
0.0
 76
0
330
216
345
0
346
0
  0
LAYOUT
  5
307
102
{ACAD_REACTORS
330
1A
102
}
100
AcDbPlotSettings
  1

  2
none_device
  4

  6

 40
0.0
 41
0.0
 42
0.0
 43
0.0
 44
210.0
 45
297.0
 46
0.0
 47
0.0
 48
0.0
 49
0.0
140
0.0
141
0.0
142
1.0
143
1.0
 70
0
 72
1
 73
0
 74
0
  7

 75
0
147
1.0
148
0.0
149
0.0
100
AcDbLayout
  1
Layout1
 70
0
 71
1
 10
0.0
 20
0.0
 11
210.0
 21
297.0
 12
0.0
 22
0.0
 32
0.0
 14
0.0
 24
0.0
 34
0.0
 15
0.0
 25
0.0
 35
0.0
146
0.0
 13
0.0
 23
0.0
 33
0.0
 16
1.0
 26
0.0
 36
0.0
 17
0.0
 27
1.0
 37
0.0
 76
0
330
217
345
0
346
0
  0
ENDSEC
  0
EOF
