999
DXF file: C:\Users\sesa63760\Dev\_Creo\CAD\MCADID0003840_3D-CAD\drw0001_1.dxf
999
Pro/ENGINEER 2019471 by Parametric Technology Corporation
  0
SECTION
  2
HEADER
  9
$ACADVER
  1
AC1024
  9
$DWGCODEPAGE
  3
ANSI_1252
  9
$EXTMAX
 10
58.7971444031
 20
83.15596137
 30
0.0
  9
$EXTMIN
 10
0.0
 20
0.0
 30
0.0
  9
$LIMMIN
 10
0.0
 20
0.0
  9
$LIMMAX
 10
58.7971444031
 20
83.15596137
  9
$VIEWCTR
 10
29.3985722015
 20
41.577980685
  9
$VIEWSIZE
 40
83.15596137
  9
$CLAYER
  8
0
  9
$LTSCALE
 40
5.4205367412
  9
$CELTYPE
  6
BYLAYER
  9
$DIMSCALE
 40
1.0
  9
$DIMASZ
 40
0.6999660048
  9
$DIMEXO
 40
1.0
  9
$DIMDLI
 40
3.7450981121
  9
$DIMEXE
 40
1.0
  9
$DIMCEN
 40
0.8869969213
  9
$DIMLFAC
 40
1.0
  9
$DIMBLK
  1
_FILLED
  9
$DIMALT
 70
0
  9
$DIMALTF
 40
0.0393700787
  9
$DIMTXT
 40
0.9799524067
  9
$DIMTOL
 70
1
  9
$DIMLIM
 70
0
  9
$DIMTFAC
 40
1.0
  9
$DIMTP
 40
0.01
  9
$DIMTM
 40
0.01
  9
$DIMGAP
 40
0.625
  9
$DIMDSEP
 70
46
  9
$AUNITS
 70
0
  9
$PDMODE
 70
3
  9
$PDSIZE
 40
0.3125
  9
$HANDSEED
  5
283
  9
$TILEMODE
 70
1
  9
$MEASUREMENT
 70
1
  9
$INSUNITS
 70
4
  0
ENDSEC
  0
SECTION
  2
CLASSES
  0
CLASS
  1
ACDBDICTIONARYWDFLT
  2
AcDbDictionaryWithDefault
  3
AutoCAD 2000
 90
0
 91
1
280
0
281
0
  0
CLASS
  1
ACDBPLACEHOLDER
  2
AcDbPlaceHolder
  3
AutoCAD 2000
 90
0
 91
1
280
0
281
0
  0
CLASS
  1
LAYOUT
  2
AcDbLayout
  3
AutoCAD 2000
 90
0
 91
0
280
0
281
0
  0
ENDSEC
  0
SECTION
  2
TABLES
  0
TABLE
  2
VPORT
  5
8
100
AcDbSymbolTable
 70
2
  0
VPORT
  5
1F4
100
AcDbSymbolTableRecord
100
AcDbViewportTableRecord
  2
*ACTIVE
 70
0
 10
0.0
 20
0.0
 11
1.0
 21
1.0
 12
29.3985722015
 22
41.577980685
 13
0.0
 23
0.0
 14
1.0
 24
1.0
 15
0.0
 25
0.0
 16
0.0
 26
0.0
 36
1.0
 17
0.0
 27
0.0
 37
0.0
 40
83.15596137
 41
0.7070707071
 42
50.0
 43
0.0
 44
0.0
 50
0.0
 51
0.0
 71
0
 72
100
 73
1
 74
1
 75
0
 76
0
 77
0
 78
0
  0
ENDTAB
  0
TABLE
  2
LTYPE
  5
5
100
AcDbSymbolTable
 70
6
  0
LTYPE
  5
14
100
AcDbSymbolTableRecord
100
AcDbLinetypeTableRecord
  2
BYBLOCK
 70
0
  3

 72
65
 73
0
 40
0.0
  0
LTYPE
  5
15
100
AcDbSymbolTableRecord
100
AcDbLinetypeTableRecord
  2
BYLAYER
 70
0
  3

 72
65
 73
0
 40
0.0
  0
LTYPE
  5
16
100
AcDbSymbolTableRecord
100
AcDbLinetypeTableRecord
  2
CONTINUOUS
 70
64
  3
Solid line
 72
65
 73
0
 40
0.0
  0
LTYPE
  5
1F5
100
AcDbSymbolTableRecord
100
AcDbLinetypeTableRecord
  2
CENTER
 70
64
  3
____ _ ____ _ ____ _ ____ _ ____ _ ____ _ ____
 72
65
 73
4
 40
0.6
 49
0.375
 74
0
 49
-0.075
 74
0
 49
0.075
 74
0
 49
-0.075
 74
0
  0
LTYPE
  5
1F6
100
AcDbSymbolTableRecord
100
AcDbLinetypeTableRecord
  2
HIDDEN
 70
64
  3
- - - - - - - - - - - - - - - - - - - -
 72
65
 73
2
 40
0.2
 49
0.1
 74
0
 49
-0.1
 74
0
  0
LTYPE
  5
1F7
100
AcDbSymbolTableRecord
100
AcDbLinetypeTableRecord
  2
PHANTOM
 70
64
  3
_____ _ _ _____ _ _ _____ _ _ _____
 72
65
 73
6
 40
0.8
 49
0.45
 74
0
 49
-0.05
 74
0
 49
0.1
 74
0
 49
-0.05
 74
0
 49
0.1
 74
0
 49
-0.05
 74
0
  0
LTYPE
  5
1F8
100
AcDbSymbolTableRecord
100
AcDbLinetypeTableRecord
  2
DOT
 70
64
  3
. . . . . . . . . . . . . . . . . . . .
 72
65
 73
2
 40
0.2
 49
0.1
 74
0
 49
-0.1
 74
0
  0
LTYPE
  5
1F9
100
AcDbSymbolTableRecord
100
AcDbLinetypeTableRecord
  2
DASHED
 70
64
  3
- - - - - - - - - - - - - - - - - - - -
 72
65
 73
2
 40
0.2
 49
0.1
 74
0
 49
-0.1
 74
0
  0
ENDTAB
  0
TABLE
  2
LAYER
  5
2
100
AcDbSymbolTable
 70
36
  0
LAYER
  5
10
100
AcDbSymbolTableRecord
100
AcDbLayerTableRecord
  2
0
 70
0
 62
7
  6
CONTINUOUS
370
-3
390
F
  0
LAYER
  5
1FA
100
AcDbSymbolTableRecord
100
AcDbLayerTableRecord
  2
DEFAULT_1
 70
0
 62
7
  6
CENTER
370
-3
390
F
  0
LAYER
  5
1FB
100
AcDbSymbolTableRecord
100
AcDbLayerTableRecord
  2
DEFAULT_2
 70
0
 62
7
  6
HIDDEN
370
-3
390
F
  0
LAYER
  5
1FC
100
AcDbSymbolTableRecord
100
AcDbLayerTableRecord
  2
DEFAULT_3
 70
0
 62
7
  6
PHANTOM
370
-3
390
F
  0
LAYER
  5
1FD
100
AcDbSymbolTableRecord
100
AcDbLayerTableRecord
  2
00_COMPONENTS
 70
0
 62
7
  6
CONTINUOUS
370
-3
390
F
  0
LAYER
  5
1FE
100
AcDbSymbolTableRecord
100
AcDbLayerTableRecord
  2
01_1_DEFAULT_DATUMS
 70
0
 62
7
  6
CONTINUOUS
370
-3
390
F
  0
LAYER
  5
1FF
100
AcDbSymbolTableRecord
100
AcDbLayerTableRecord
  2
01_PLANES
 70
0
 62
7
  6
CONTINUOUS
370
-3
390
F
  0
LAYER
  5
200
100
AcDbSymbolTableRecord
100
AcDbLayerTableRecord
  2
02_COORD_SYS
 70
0
 62
7
  6
CONTINUOUS
370
-3
390
F
  0
LAYER
  5
201
100
AcDbSymbolTableRecord
100
AcDbLayerTableRecord
  2
03_AXES
 70
0
 62
7
  6
CONTINUOUS
370
-3
390
F
  0
LAYER
  5
202
100
AcDbSymbolTableRecord
100
AcDbLayerTableRecord
  2
04_POINTS
 70
0
 62
7
  6
CONTINUOUS
370
-3
390
F
  0
LAYER
  5
203
100
AcDbSymbolTableRecord
100
AcDbLayerTableRecord
  2
05_CURVES
 70
0
 62
7
  6
CONTINUOUS
370
-3
390
F
  0
LAYER
  5
204
100
AcDbSymbolTableRecord
100
AcDbLayerTableRecord
  2
06_SURFS
 70
0
 62
7
  6
CONTINUOUS
370
-3
390
F
  0
LAYER
  5
205
100
AcDbSymbolTableRecord
100
AcDbLayerTableRecord
  2
07_COSMETICS
 70
0
 62
7
  6
CONTINUOUS
370
-3
390
F
  0
LAYER
  5
206
100
AcDbSymbolTableRecord
100
AcDbLayerTableRecord
  2
10_NOTES
 70
0
 62
7
  6
CONTINUOUS
370
-3
390
F
  0
LAYER
  5
207
100
AcDbSymbolTableRecord
100
AcDbLayerTableRecord
  2
11_NOTES_PUB
 70
0
 62
7
  6
CONTINUOUS
370
-3
390
F
  0
LAYER
  5
208
100
AcDbSymbolTableRecord
100
AcDbLayerTableRecord
  2
13_REF_GTOL
 70
0
 62
7
  6
CONTINUOUS
370
-3
390
F
  0
LAYER
  5
209
100
AcDbSymbolTableRecord
100
AcDbLayerTableRecord
  2
16_MISC
 70
0
 62
7
  6
CONTINUOUS
370
-3
390
F
  0
LAYER
  5
20A
100
AcDbSymbolTableRecord
100
AcDbLayerTableRecord
  2
17_NO_PRINT
 70
0
 62
7
  6
CONTINUOUS
370
-3
390
F
  0
LAYER
  5
20B
100
AcDbSymbolTableRecord
100
AcDbLayerTableRecord
  2
18_DATUM_CAMS_JOINTS
 70
0
 62
7
  6
CONTINUOUS
370
-3
390
F
  0
LAYER
  5
20C
100
AcDbSymbolTableRecord
100
AcDbLayerTableRecord
  2
19_DATUM_FUNCTIONAL
 70
0
 62
7
  6
CONTINUOUS
370
-3
390
F
  0
LAYER
  5
20D
100
AcDbSymbolTableRecord
100
AcDbLayerTableRecord
  2
20_DATUM_KINEMATIC_SCHEME
 70
0
 62
7
  6
CONTINUOUS
370
-3
390
F
  0
ENDTAB
  0
TABLE
  2
STYLE
  5
3
100
AcDbSymbolTable
 70
1
  0
STYLE
  5
11
100
AcDbSymbolTableRecord
100
AcDbTextStyleTableRecord
  2
STANDARD
 70
0
 40
0.0
 41
1.0
 50
0.0
 71
0
 42
0.2
  3
ARIAL.TTF
  4

  0
STYLE
  5
20E
100
AcDbSymbolTableRecord
100
AcDbTextStyleTableRecord
  2
TEXTSTYLE_1
 70
0
 40
0.0
 41
0.8
 50
0.0
 71
0
 42
0.2
  3
gdt
  4

  0
ENDTAB
  0
TABLE
  2
VIEW
  5
6
100
AcDbSymbolTable
 70
0
  0
ENDTAB
  0
TABLE
  2
UCS
  5
7
100
AcDbSymbolTable
 70
0
  0
ENDTAB
  0
TABLE
  2
APPID
  5
9
100
AcDbSymbolTable
 70
1
  0
APPID
  5
20F
100
AcDbSymbolTableRecord
100
AcDbRegAppTableRecord
  2
ACAD
 70
0
  0
ENDTAB
  0
TABLE
  2
BLOCK_RECORD
  5
1
100
AcDbSymbolTable
 70
0
  0
BLOCK_RECORD
  5
210
100
AcDbSymbolTableRecord
100
AcDbBlockTableRecord
  2
*Model_Space
  0
BLOCK_RECORD
  5
211
100
AcDbSymbolTableRecord
100
AcDbBlockTableRecord
  2
*Paper_Space
  0
BLOCK_RECORD
  5
212
100
AcDbSymbolTableRecord
100
AcDbBlockTableRecord
  2
_FILLED
  0
ENDTAB
  0
TABLE
  2
DIMSTYLE
  5
A
100
AcDbSymbolTable
 70
1
100
AcDbDimStyleTable
 71
0
  0
DIMSTYLE
105
213
100
AcDbSymbolTableRecord
100
AcDbDimStyleTableRecord
  2
STANDARD
 70
0
  3

  4

 40
1.0
 41
0.6999660048
 42
1.0
 43
0.38
 44
1.0
 45
0.0
 46
0.0
 47
0.01
 48
0.01
140
0.9799524067
141
0.09
142
0.0
143
25.4
144
1.0
145
0.0
146
1.0
147
0.625
 71
1
 72
0
 73
0
 74
0
 75
0
 76
0
 77
1
 78
8
 79
2
170
0
171
1
172
0
173
0
174
0
175
0
176
0
177
0
178
0
270
2
179
2
271
2
272
2
273
2
274
2
275
0
280
0
281
0
282
0
283
1
284
8
285
0
286
0
287
3
288
0
340
11
278
46
341
212
342
212
343
212
344
212
  0
ENDTAB
  0
ENDSEC
  0
SECTION
  2
BLOCKS
  0
BLOCK
  5
20
100
AcDbEntity
  8
0
100
AcDbBlockBegin
  2
*Model_Space
 70
0
 10
0.0
 20
0.0
 30
0.0
  3
*Model_Space
  1

  0
ENDBLK
  5
21
100
AcDbEntity
  8
0
100
AcDbBlockEnd
  0
BLOCK
  5
1C
100
AcDbEntity
  8
0
100
AcDbBlockBegin
  2
*Paper_Space
 70
0
 10
0.0
 20
0.0
 30
0.0
  3
*Paper_Space
  1

  0
ENDBLK
  5
1D
100
AcDbEntity
  8
0
100
AcDbBlockEnd
  0
BLOCK
  5
214
100
AcDbEntity
  8
0
100
AcDbBlockBegin
  2
_FILLED
 70
64
 10
0.0
 20
0.0
  3
_FILLED
  1

  0
SOLID
  5
215
100
AcDbEntity
  8
0
  6
BYBLOCK
 62
0
100
AcDbTrace
 10
0.0
 20
0.0
 11
-1.0
 21
0.25
 12
-1.0
 22
-0.25
 13
-1.0
 23
-0.25
  0
ENDBLK
  5
216
100
AcDbEntity
  8
0
  6
BYBLOCK
 62
0
100
AcDbBlockEnd
  0
ENDSEC
  0
SECTION
  2
ENTITIES
  0
LINE
  5
217
100
AcDbEntity
  8
0
100
AcDbLine
 62
7
  6
BYLAYER
 10
25.7148126361
 20
28.8417796394
 11
26.624947815
 21
28.3163247362
  0
LINE
  5
218
100
AcDbEntity
  8
0
100
AcDbLine
 62
7
  6
BYLAYER
 10
30.0281819595
 20
26.3515110368
 11
30.9383171384
 21
25.8260561337
  0
LINE
  5
219
100
AcDbEntity
  8
0
100
AcDbLine
 62
7
  6
BYLAYER
 10
30.5189322839
 20
26.4227048169
 11
29.608797105
 21
26.94815972
  0
LINE
  5
21A
100
AcDbEntity
  8
0
100
AcDbLine
 62
7
  6
BYLAYER
 10
26.2055629605
 20
28.9129734194
 11
25.2954277816
 21
29.4384283226
  0
LINE
  5
21B
100
AcDbEntity
  8
0
100
AcDbLine
 62
7
  6
BYLAYER
 10
22.2714882624
 20
40.1942212593
 11
22.2714962112
 21
39.0919574544
  0
LINE
  5
21C
100
AcDbEntity
  8
0
100
AcDbLine
 62
7
  6
BYLAYER
 10
28.6354307459
 20
50.114737784
 11
27.6808326169
 21
49.5635845394
  0
LINE
  5
21D
100
AcDbEntity
  8
0
100
AcDbLine
 62
7
  6
BYLAYER
 10
24.6649573765
 20
34.6662719687
 11
24.1355070975
 21
34.9719433146
  0
LINE
  5
21E
100
AcDbEntity
  8
0
100
AcDbLine
 62
7
  6
BYLAYER
 10
22.5076509889
 20
37.6438062273
 11
8.37448229
 21
45.8034103852
  0
LINE
  5
21F
100
AcDbEntity
  8
0
100
AcDbLine
 62
7
  6
BYLAYER
 10
25.2954277816
 20
39.8978338469
 11
26.2055629605
 21
39.3723789438
  0
LINE
  5
220
100
AcDbEntity
  8
0
100
AcDbLine
 62
7
  6
BYLAYER
 10
29.608797105
 20
37.4075652444
 11
30.5189322839
 21
36.8821103412
  0
LINE
  5
221
100
AcDbEntity
  8
0
100
AcDbLine
 62
7
  6
BYLAYER
 10
30.9383171384
 20
37.963020051
 11
30.0281819595
 21
38.4884749541
  0
LINE
  5
222
100
AcDbEntity
  8
0
100
AcDbLine
 62
7
  6
BYLAYER
 10
26.624947815
 20
40.4532886536
 11
25.7148126361
 21
40.9787435567
  0
LINE
  5
223
100
AcDbEntity
  8
0
100
AcDbLine
 62
7
  6
BYLAYER
 10
29.94983852
 20
50.6675645743
 11
15.8743550373
 21
58.7938649105
  0
LINE
  5
224
100
AcDbEntity
  8
0
100
AcDbLine
 62
7
  6
BYLAYER
 10
33.268838158
 20
50.4834236015
 11
33.1353543942
 21
50.560488745
  0
LINE
  5
225
100
AcDbEntity
  8
0
100
AcDbLine
 62
7
  6
BYLAYER
 10
33.5592780482
 20
50.7374235019
 11
34.469413227
 21
50.2119685987
  0
LINE
  5
226
100
AcDbEntity
  8
0
100
AcDbLine
 62
7
  6
BYLAYER
 10
37.8726473716
 20
48.2471548993
 11
38.7827825504
 21
47.7216999961
  0
LINE
  5
227
100
AcDbEntity
  8
0
100
AcDbLine
 62
7
  6
BYLAYER
 10
39.6215522593
 20
48.2059610227
 11
38.7114170805
 21
48.7314159259
  0
LINE
  5
228
100
AcDbEntity
  8
0
100
AcDbLine
 62
7
  6
BYLAYER
 10
35.3081829359
 20
50.6962296253
 11
34.3980477571
 21
51.2216845284
  0
LWPOLYLINE
  5
229
100
AcDbEntity
  8
0
100
AcDbPolyline
 62
7
  6
BYLAYER
 90
3
 70
0
 10
42.4511133184
 20
48.6959257639
 10
41.6697014077
 20
49.4206863222
 10
39.8713681265
 20
49.9758211178
  0
LINE
  5
22A
100
AcDbEntity
  8
0
100
AcDbLine
 62
7
  6
BYLAYER
 10
42.2425131692
 20
50.5209589492
 11
43.152648348
 21
49.9955040461
  0
LINE
  5
22B
100
AcDbEntity
  8
0
100
AcDbLine
 62
7
  6
BYLAYER
 10
46.5558824926
 20
48.0306903466
 11
47.4660176714
 21
47.5052354435
  0
LINE
  5
22C
100
AcDbEntity
  8
0
100
AcDbLine
 62
7
  6
BYLAYER
 10
52.8892492755
 20
35.0097197109
 11
52.8892413268
 21
36.1119835158
  0
LINE
  5
22D
100
AcDbEntity
  8
0
100
AcDbLine
 62
7
  6
BYLAYER
 10
47.479904921
 20
25.6403564308
 11
46.5253067921
 21
25.0892031863
  0
ARC
  5
22E
100
AcDbEntity
  8
0
100
AcDbCircle
 62
7
  6
BYLAYER
 10
59.9361105278
 20
18.3624347234
 40
41.7597556274
100
AcDbArc
 50
129.1706925121
 51
129.7690350219
  0
ARC
  5
22F
100
AcDbEntity
  8
0
100
AcDbCircle
 62
7
  6
BYLAYER
 10
13.2847616784
 20
57.9345479064
 40
41.6956753099
100
AcDbArc
 50
309.1714605886
 51
309.7050329518
  0
ARC
  5
230
100
AcDbEntity
  8
0
100
AcDbCircle
 62
7
  6
BYLAYER
 10
3.461947941
 20
41.1995952303
 40
40.9395506376
100
AcDbArc
 50
10.3210394892
 51
11.5531716283
  0
ARC
  5
231
100
AcDbEntity
  8
0
100
AcDbCircle
 62
7
  6
BYLAYER
 10
47.361892816
 20
31.7856956949
 40
22.4754990084
100
AcDbArc
 50
157.3161309901
 51
160.2721103029
  0
ARC
  5
232
100
AcDbEntity
  8
0
100
AcDbCircle
 62
7
  6
BYLAYER
 10
51.6752621394
 20
29.2954270923
 40
22.4754990083
100
AcDbArc
 50
157.3161309901
 51
160.2721103029
  0
ARC
  5
233
100
AcDbEntity
  8
0
100
AcDbCircle
 62
7
  6
BYLAYER
 10
46.2957132904
 20
32.3716946333
 40
22.3081770415
100
AcDbArc
 50
157.3050428755
 51
160.2831984174
  0
ARC
  5
234
100
AcDbEntity
  8
0
100
AcDbCircle
 62
7
  6
BYLAYER
 10
50.6090826139
 20
29.8814260307
 40
22.3081770415
100
AcDbArc
 50
157.3050428755
 51
160.2831984174
  0
ARC
  5
235
100
AcDbEntity
  8
0
100
AcDbCircle
 62
7
  6
BYLAYER
 10
40.7565216524
 20
39.2580376923
 40
13.5490447657
100
AcDbArc
 50
120.0162926898
 51
122.0865251028
  0
ARC
  5
236
100
AcDbEntity
  8
0
100
AcDbCircle
 62
7
  6
BYLAYER
 10
45.0698909758
 20
36.7677690898
 40
13.5490447656
100
AcDbArc
 50
120.0162926898
 51
122.0865251028
  0
ARC
  5
237
100
AcDbEntity
  8
0
100
AcDbCircle
 62
7
  6
BYLAYER
 10
41.5938281102
 20
38.8535441599
 40
13.4078742968
100
AcDbArc
 50
120.0053928269
 51
122.0974249657
  0
ARC
  5
238
100
AcDbEntity
  8
0
100
AcDbCircle
 62
7
  6
BYLAYER
 10
32.4971373761
 20
36.9680160198
 40
13.4078742968
100
AcDbArc
 50
300.0053928269
 51
302.0974249657
  0
ARC
  5
239
100
AcDbEntity
  8
0
100
AcDbCircle
 62
7
  6
BYLAYER
 10
45.9071974336
 20
36.3632755573
 40
13.4078742968
100
AcDbArc
 50
120.0053928269
 51
122.0974249657
  0
ARC
  5
23A
100
AcDbEntity
  8
0
100
AcDbCircle
 62
7
  6
BYLAYER
 10
40.334228813
 20
39.9842911152
 40
12.7089439472
100
AcDbArc
 50
117.8453655653
 51
120.0056949146
  0
ARC
  5
23B
100
AcDbEntity
  8
0
100
AcDbCircle
 62
7
  6
BYLAYER
 10
44.6475981364
 20
37.4940225126
 40
12.7089439471
100
AcDbArc
 50
117.8453655653
 51
120.0056949146
  0
ARC
  5
23C
100
AcDbEntity
  8
0
100
AcDbCircle
 62
7
  6
BYLAYER
 10
41.1775195335
 20
39.5797973172
 40
12.5707668563
100
AcDbArc
 50
117.833491032
 51
120.0175694479
  0
ARC
  5
23D
100
AcDbEntity
  8
0
100
AcDbCircle
 62
7
  6
BYLAYER
 10
32.9134459529
 20
36.2417628626
 40
12.5707668564
100
AcDbArc
 50
297.833491032
 51
300.0175694479
  0
ARC
  5
23E
100
AcDbEntity
  8
0
100
AcDbCircle
 62
7
  6
BYLAYER
 10
45.4908888569
 20
37.0895287146
 40
12.5707668564
100
AcDbArc
 50
117.833491032
 51
120.0175694479
  0
SPLINE
  5
23F
100
AcDbEntity
  8
0
100
AcDbSpline
 62
7
  6
BYLAYER
 70
0
 71
3
 72
22
 73
18
 74
0
 42
0.0000001
 43
0.0000001
 44
0.0000000001
 40
0.0
 40
0.0
 40
0.0
 40
0.0
 40
0.0562303619
 40
0.1148451359
 40
0.1756068912
 40
0.2382268526
 40
0.3023777435
 40
0.3677003476
 40
0.5002676991
 40
0.5667633964
 40
0.6328451347
 40
0.6981165042
 40
0.7621984342
 40
0.8247314444
 40
0.8853862703
 40
0.9438950034
 40
1.0
 40
1.0
 40
1.0
 40
1.0
 10
29.1675489874
 20
35.2836086808
 30
0.0
 10
29.1723673025
 20
35.5257159417
 30
0.0
 10
29.2026312519
 20
36.0199573123
 30
0.0
 10
29.3044294708
 20
36.7699189226
 30
0.0
 10
29.4627350973
 20
37.5381246027
 30
0.0
 10
29.6760472516
 20
38.3175781031
 30
0.0
 10
29.9424710476
 20
39.1012907364
 30
0.0
 10
30.367296695
 20
40.147256012
 30
0.0
 10
30.8845856419
 20
41.1646948379
 30
0.0
 10
31.484071908
 20
42.136998652
 30
0.0
 10
31.9709734099
 20
42.8367818292
 30
0.0
 10
32.490154012
 20
43.4997791067
 30
0.0
 10
33.0369253074
 20
44.1200300209
 30
0.0
 10
33.6063027208
 20
44.6919090409
 30
0.0
 10
34.1932231529
 20
45.2102747127
 30
0.0
 10
34.7923323754
 20
45.6703580641
 30
0.0
 10
35.2054709583
 20
45.9415116047
 30
0.0
 10
35.4127796786
 20
46.0656125977
 30
0.0
  0
SPLINE
  5
240
100
AcDbEntity
  8
0
100
AcDbSpline
 62
7
  6
BYLAYER
 70
0
 71
3
 72
11
 73
7
 74
0
 42
0.0000001
 43
0.0000001
 44
0.0000000001
 40
0.0
 40
0.0
 40
0.0
 40
0.0
 40
0.2642263448
 40
0.5183038317
 40
0.763120426
 40
1.0
 40
1.0
 40
1.0
 40
1.0
 10
24.6544752971
 20
35.0381768027
 30
0.0
 10
24.6544752971
 20
35.4710878729
 30
0.0
 10
24.6820247411
 20
36.3206126095
 30
0.0
 10
24.8094254671
 20
37.5653812972
 30
0.0
 10
25.0131942219
 20
38.7543967553
 30
0.0
 10
25.1953630786
 20
39.5228495737
 30
0.0
 10
25.2954277816
 20
39.8978338469
 30
0.0
  0
SPLINE
  5
241
100
AcDbEntity
  8
0
100
AcDbSpline
 62
7
  6
BYLAYER
 70
0
 71
3
 72
9
 73
5
 74
0
 42
0.0000001
 43
0.0000001
 44
0.0000000001
 40
0.0
 40
0.0
 40
0.0
 40
0.0
 40
0.485168482
 40
1.0
 40
1.0
 40
1.0
 40
1.0
 10
29.4507921717
 20
27.8073758441
 30
0.0
 10
28.9914977778
 20
27.8760268564
 30
0.0
 10
28.0473728551
 20
28.0346987628
 30
0.0
 10
27.1077618787
 20
28.2176721573
 30
0.0
 10
26.624947815
 20
28.3163247362
 30
0.0
  0
SPLINE
  5
242
100
AcDbEntity
  8
0
100
AcDbSpline
 62
7
  6
BYLAYER
 70
0
 71
3
 72
11
 73
7
 74
0
 42
0.0000001
 43
0.0000001
 44
0.0000000001
 40
0.0
 40
0.0
 40
0.0
 40
0.0
 40
0.2389313824
 40
0.4860655695
 40
0.7402090592
 40
1.0
 40
1.0
 40
1.0
 40
1.0
 10
24.6544752971
 20
35.0381768027
 30
0.0
 10
24.6544752971
 20
34.5885669801
 30
0.0
 10
24.6853510707
 20
33.6737045157
 30
0.0
 10
24.814942348
 20
32.2861951263
 30
0.0
 10
25.0199142033
 20
30.8682926662
 30
0.0
 10
25.1977149173
 20
29.9174258178
 30
0.0
 10
25.2954277816
 20
29.4384283226
 30
0.0
  0
SPLINE
  5
243
100
AcDbEntity
  8
0
100
AcDbSpline
 62
7
  6
BYLAYER
 70
0
 71
3
 72
11
 73
7
 74
0
 42
0.0000001
 43
0.0000001
 44
0.0000000001
 40
0.0
 40
0.0
 40
0.0
 40
0.0
 40
0.2542110404
 40
0.5056148335
 40
0.7541517963
 40
1.0
 40
1.0
 40
1.0
 40
1.0
 10
28.9960928576
 20
46.2281292472
 30
0.0
 10
28.6667758592
 20
45.8184519755
 30
0.0
 10
28.0372554418
 20
44.9827491259
 30
0.0
 10
27.1780674701
 20
43.68036127
 30
0.0
 10
26.4043512803
 20
42.3455851777
 30
0.0
 10
25.9371668932
 20
41.4358701395
 30
0.0
 10
25.7148126361
 20
40.9787435567
 30
0.0
  0
SPLINE
  5
244
100
AcDbEntity
  8
0
100
AcDbSpline
 62
7
  6
BYLAYER
 70
0
 71
3
 72
11
 73
7
 74
0
 42
0.0000001
 43
0.0000001
 44
0.0000000001
 40
0.0
 40
0.0
 40
0.0
 40
0.0
 40
0.2478270593
 40
0.4974296903
 40
0.7483026236
 40
1.0
 40
1.0
 40
1.0
 40
1.0
 10
28.9960928576
 20
46.2281292472
 30
0.0
 10
29.3061448757
 20
46.6138404783
 30
0.0
 10
29.9514772034
 20
47.3698247116
 30
0.0
 10
30.9846541669
 20
48.4503021186
 30
0.0
 10
32.0768389654
 20
49.4821914176
 30
0.0
 10
32.8363261626
 20
50.1386737898
 30
0.0
 10
33.2226289478
 20
50.4602086639
 30
0.0
  0
SPLINE
  5
245
100
AcDbEntity
  8
0
100
AcDbSpline
 62
7
  6
BYLAYER
 70
0
 71
3
 72
11
 73
7
 74
0
 42
0.0000001
 43
0.0000001
 44
0.0000000001
 40
0.0
 40
0.0
 40
0.0
 40
0.0
 40
0.2254337502
 40
0.4690240968
 40
0.7281673259
 40
1.0
 40
1.0
 40
1.0
 40
1.0
 10
37.6793279786
 20
51.2413674568
 30
0.0
 10
38.025261788
 20
51.2104660943
 30
0.0
 10
38.7436122765
 20
51.1302711046
 30
0.0
 10
39.8537212987
 20
50.9673717106
 30
0.0
 10
41.0294067762
 20
50.7622901929
 30
0.0
 10
41.8321959061
 20
50.6047983798
 30
0.0
 10
42.2425131692
 20
50.5209589492
 30
0.0
  0
SPLINE
  5
246
100
AcDbEntity
  8
0
100
AcDbSpline
 62
7
  6
BYLAYER
 70
0
 71
3
 72
9
 73
5
 74
0
 42
0.0000001
 43
0.0000001
 44
0.0000000001
 40
0.0
 40
0.0
 40
0.0
 40
0.0
 40
0.2466052439
 40
1.0
 40
1.0
 40
1.0
 40
1.0
 10
25.7148126361
 20
28.8417796394
 30
0.0
 10
25.6771341935
 20
28.8884399363
 30
0.0
 10
25.527571065
 20
29.0802396309
 30
0.0
 10
25.3909627171
 20
29.2820826989
 30
0.0
 10
25.2954277816
 20
29.4384283226
 30
0.0
  0
SPLINE
  5
247
100
AcDbEntity
  8
0
100
AcDbSpline
 62
7
  6
BYLAYER
 70
0
 71
3
 72
11
 73
7
 74
0
 42
0.0000001
 43
0.0000001
 44
0.0000000001
 40
0.0
 40
0.0
 40
0.0
 40
0.0
 40
0.2892659366
 40
0.5507874441
 40
0.7865751505
 40
1.0
 40
1.0
 40
1.0
 40
1.0
 10
37.6793279786
 20
51.2413674568
 30
0.0
 10
37.3636057144
 20
51.2695701009
 30
0.0
 10
36.7612320598
 20
51.3111246162
 30
0.0
 10
35.8990526263
 20
51.327480638
 30
0.0
 10
35.1203391471
 20
51.2987375802
 30
0.0
 10
34.6300217709
 20
51.2514215979
 30
0.0
 10
34.3980477571
 20
51.2216845284
 30
0.0
  0
SPLINE
  5
248
100
AcDbEntity
  8
0
100
AcDbSpline
 62
7
  6
BYLAYER
 70
0
 71
3
 72
9
 73
5
 74
0
 42
0.0000001
 43
0.0000001
 44
0.0000000001
 40
0.0
 40
0.0
 40
0.0
 40
0.0
 40
0.2536796095
 40
1.0
 40
1.0
 40
1.0
 40
1.0
 10
43.5720332025
 20
49.3988553629
 30
0.0
 10
43.5398653629
 20
49.4514989421
 30
0.0
 10
43.4098293899
 20
49.6570209758
 30
0.0
 10
43.2666766496
 20
49.8542934746
 30
0.0
 10
43.152648348
 20
49.9955040461
 30
0.0
  0
SPLINE
  5
249
100
AcDbEntity
  8
0
100
AcDbSpline
 62
7
  6
BYLAYER
 70
0
 71
3
 72
9
 73
5
 74
0
 42
0.0000001
 43
0.0000001
 44
0.0000000001
 40
0.0
 40
0.0
 40
0.0
 40
0.0
 40
0.2536796095
 40
1.0
 40
1.0
 40
1.0
 40
1.0
 10
26.2055629605
 20
28.9129734194
 30
0.0
 10
26.2377308001
 20
28.8603298402
 30
0.0
 10
26.367766773
 20
28.6548078065
 30
0.0
 10
26.5109195133
 20
28.4575353078
 30
0.0
 10
26.624947815
 20
28.3163247362
 30
0.0
  0
SPLINE
  5
24A
100
AcDbEntity
  8
0
100
AcDbSpline
 62
7
  6
BYLAYER
 70
0
 71
3
 72
11
 73
7
 74
0
 42
0.0000001
 43
0.0000001
 44
0.0000000001
 40
0.0
 40
0.0
 40
0.0
 40
0.0
 40
0.2642263448
 40
0.5183038317
 40
0.763120426
 40
1.0
 40
1.0
 40
1.0
 40
1.0
 10
26.8465154451
 20
33.7726304637
 30
0.0
 10
26.8465154451
 20
33.3397193935
 30
0.0
 10
26.818966001
 20
32.4901946569
 30
0.0
 10
26.691565275
 20
31.2454259691
 30
0.0
 10
26.4877965202
 20
30.0564105111
 30
0.0
 10
26.3056276636
 20
29.2879576927
 30
0.0
 10
26.2055629605
 20
28.9129734194
 30
0.0
  0
SPLINE
  5
24B
100
AcDbEntity
  8
0
100
AcDbSpline
 62
7
  6
BYLAYER
 70
0
 71
3
 72
11
 73
7
 74
0
 42
0.0000001
 43
0.0000001
 44
0.0000000001
 40
0.0
 40
0.0
 40
0.0
 40
0.0
 40
0.2389313824
 40
0.4860655695
 40
0.7402090592
 40
1.0
 40
1.0
 40
1.0
 40
1.0
 10
26.8465154451
 20
33.7726304637
 30
0.0
 10
26.8465154451
 20
34.2222402863
 30
0.0
 10
26.8156396714
 20
35.1371027506
 30
0.0
 10
26.6860483942
 20
36.5246121401
 30
0.0
 10
26.4810765389
 20
37.9425146002
 30
0.0
 10
26.3032758249
 20
38.8933814486
 30
0.0
 10
26.2055629605
 20
39.3723789438
 30
0.0
  0
SPLINE
  5
24C
100
AcDbEntity
  8
0
100
AcDbSpline
 62
7
  6
BYLAYER
 70
0
 71
3
 72
11
 73
7
 74
0
 42
0.0000001
 43
0.0000001
 44
0.0000000001
 40
0.0
 40
0.0
 40
0.0
 40
0.0
 40
0.2254337502
 40
0.4690240968
 40
0.7281673259
 40
1.0
 40
1.0
 40
1.0
 40
1.0
 10
39.8713681265
 20
49.9758211178
 30
0.0
 10
39.5254343171
 20
50.0067224802
 30
0.0
 10
38.8070838287
 20
50.08691747
 30
0.0
 10
37.6969748064
 20
50.2498168639
 30
0.0
 10
36.5212893289
 20
50.4548983816
 30
0.0
 10
35.718500199
 20
50.6123901947
 30
0.0
 10
35.3081829359
 20
50.6962296253
 30
0.0
  0
SPLINE
  5
24D
100
AcDbEntity
  8
0
100
AcDbSpline
 62
7
  6
BYLAYER
 70
0
 71
3
 72
11
 73
7
 74
0
 42
0.0000001
 43
0.0000001
 44
0.0000000001
 40
0.0
 40
0.0
 40
0.0
 40
0.0
 40
0.2477598621
 40
0.4973837094
 40
0.7482957076
 40
1.0
 40
1.0
 40
1.0
 40
1.0
 10
31.1881330055
 20
44.9625829082
 30
0.0
 10
30.8556066232
 20
44.5489130954
 30
0.0
 10
30.1615457168
 20
43.7394114053
 30
0.0
 10
29.0462674768
 20
42.5868437016
 30
0.0
 10
27.8649829727
 20
41.4898266632
 30
0.0
 10
27.0429554488
 20
40.7938865901
 30
0.0
 10
26.624947815
 20
40.4532886536
 30
0.0
  0
SPLINE
  5
24E
100
AcDbEntity
  8
0
100
AcDbSpline
 62
7
  6
BYLAYER
 70
0
 71
3
 72
15
 73
11
 74
0
 42
0.0000001
 43
0.0000001
 44
0.0000000001
 40
0.0
 40
0.0
 40
0.0
 40
0.0
 40
0.1485641532
 40
0.2894628336
 40
0.4226790137
 40
0.5486126955
 40
0.6679890778
 40
0.7819432656
 40
0.8920003234
 40
1.0
 40
1.0
 40
1.0
 40
1.0
 10
26.8465154451
 20
33.7726304637
 30
0.0
 10
26.8465154451
 20
33.4533353941
 30
0.0
 10
26.8722083237
 20
32.8307922139
 30
0.0
 10
26.9945454083
 20
31.9292046969
 30
0.0
 10
27.1989061674
 20
31.0922428196
 30
0.0
 10
27.4836468334
 20
30.3279485693
 30
0.0
 10
27.8466687994
 20
29.6437026279
 30
0.0
 10
28.2851105245
 20
29.0464578196
 30
0.0
 10
28.7949259797
 20
28.5428845399
 30
0.0
 10
29.1808447703
 20
28.2723344142
 30
0.0
 10
29.3815876506
 20
28.1558053141
 30
0.0
  0
SPLINE
  5
24F
100
AcDbEntity
  8
0
100
AcDbSpline
 62
7
  6
BYLAYER
 70
0
 71
3
 72
15
 73
11
 74
0
 42
0.0000001
 43
0.0000001
 44
0.0000000001
 40
0.0
 40
0.0
 40
0.0
 40
0.0
 40
0.129847411
 40
0.2611866596
 40
0.3925260486
 40
0.5223738886
 40
0.6492905064
 40
0.7719421396
 40
0.8891589506
 40
1.0
 40
1.0
 40
1.0
 40
1.0
 10
31.1881330055
 20
44.9625829082
 30
0.0
 10
30.8569566321
 20
44.5505925349
 30
0.0
 10
30.2235480513
 20
43.6950148304
 30
0.0
 10
29.3723617311
 20
42.340959953
 30
0.0
 10
28.6252717738
 20
40.9266832399
 30
0.0
 10
27.9949962488
 20
39.476202601
 30
0.0
 10
27.4921654779
 20
38.0140124972
 30
0.0
 10
27.125279831
 20
36.5646813288
 30
0.0
 10
26.9005618096
 20
35.1527818025
 30
0.0
 10
26.8465154451
 20
34.2238535429
 30
0.0
 10
26.8465154451
 20
33.7726304637
 30
0.0
  0
SPLINE
  5
250
100
AcDbEntity
  8
0
100
AcDbSpline
 62
7
  6
BYLAYER
 70
0
 71
3
 72
11
 73
7
 74
0
 42
0.0000001
 43
0.0000001
 44
0.0000000001
 40
0.0
 40
0.0
 40
0.0
 40
0.0
 40
0.232065918
 40
0.4774810713
 40
0.7342754496
 40
1.0
 40
1.0
 40
1.0
 40
1.0
 10
35.529750566
 20
48.8125183556
 30
0.0
 10
35.1389838541
 20
48.5869104359
 30
0.0
 10
34.3615422779
 20
48.0756493604
 30
0.0
 10
33.2511604322
 20
47.1750804211
 30
0.0
 10
32.1795024247
 20
46.1327492421
 30
0.0
 10
31.5118324647
 20
45.365271843
 30
0.0
 10
31.1881330055
 20
44.9625829082
 30
0.0
  0
SPLINE
  5
251
100
AcDbEntity
  8
0
100
AcDbSpline
 62
7
  6
BYLAYER
 70
0
 71
3
 72
12
 73
8
 74
0
 42
0.0000001
 43
0.0000001
 44
0.0000000001
 40
0.0
 40
0.0
 40
0.0
 40
0.0
 40
0.2233590417
 40
0.3411489441
 40
0.4633937863
 40
0.7219826221
 40
1.0
 40
1.0
 40
1.0
 40
1.0
 10
39.8713681265
 20
49.9758211178
 30
0.0
 10
39.53314167
 20
50.0060340025
 30
0.0
 10
39.0105606336
 20
49.9987012027
 30
0.0
 10
38.3128686629
 20
49.8979074007
 30
0.0
 10
37.5730678074
 20
49.7287886169
 30
0.0
 10
36.6253778484
 20
49.3937454147
 30
0.0
 10
35.8957943913
 20
49.0238525951
 30
0.0
 10
35.529750566
 20
48.8125183556
 30
0.0
  0
SPLINE
  5
252
100
AcDbEntity
  8
0
100
AcDbSpline
 62
7
  6
BYLAYER
 70
0
 71
3
 72
9
 73
5
 74
0
 42
0.0000001
 43
0.0000001
 44
0.0000000001
 40
0.0
 40
0.0
 40
0.0
 40
0.0
 40
0.5128351475
 40
1.0
 40
1.0
 40
1.0
 40
1.0
 10
35.529750566
 20
31.4373469191
 30
0.0
 10
35.3319612104
 20
31.323153863
 30
0.0
 10
34.9370910287
 20
31.1159237125
 30
0.0
 10
34.5248382032
 20
30.9453684666
 30
0.0
 10
34.3203076566
 20
30.8730030229
 30
0.0
  0
SPLINE
  5
253
100
AcDbEntity
  8
0
100
AcDbSpline
 62
7
  6
BYLAYER
 70
0
 71
3
 72
23
 73
19
 74
0
 42
0.0000001
 43
0.0000001
 44
0.0000000001
 40
0.0
 40
0.0
 40
0.0
 40
0.0
 40
0.051667713
 40
0.1064784407
 40
0.1642946806
 40
0.2248650166
 40
0.2878464154
 40
0.3528227801
 40
0.4193225181
 40
0.4868348111
 40
0.5548233912
 40
0.6227400178
 40
0.6900378702
 40
0.756186829
 40
0.8206848897
 40
0.8830687202
 40
0.9429572273
 40
1.0
 40
1.0
 40
1.0
 40
1.0
 10
41.7774193701
 20
43.7911428362
 30
0.0
 10
41.8232458748
 20
43.544529208
 30
0.0
 10
41.8871239236
 20
43.0302982123
 30
0.0
 10
41.9032699548
 20
42.2316788511
 30
0.0
 10
41.8427216005
 20
41.3919252091
 30
0.0
 10
41.7062536885
 20
40.5211250829
 30
0.0
 10
41.4955363503
 20
39.6295921021
 30
0.0
 10
41.213102019
 20
38.7279882519
 30
0.0
 10
40.8623623258
 20
37.8271040995
 30
0.0
 10
40.4475287856
 20
36.937749389
 30
0.0
 10
39.9735710343
 20
36.0706140225
 30
0.0
 10
39.4461871533
 20
35.2361242424
 30
0.0
 10
38.8717329181
 20
34.4442970299
 30
0.0
 10
38.2570950536
 20
33.7046437671
 30
0.0
 10
37.6096453267
 20
33.026079471
 30
0.0
 10
36.937096152
 20
32.4166345087
 30
0.0
 10
36.2475490149
 20
31.8837895489
 30
0.0
 10
35.7695793644
 20
31.5758113138
 30
0.0
 10
35.529750566
 20
31.4373469191
 30
0.0
  0
SPLINE
  5
254
100
AcDbEntity
  8
0
100
AcDbSpline
 62
7
  6
BYLAYER
 70
0
 71
3
 72
11
 73
7
 74
0
 42
0.0000001
 43
0.0000001
 44
0.0000000001
 40
0.0
 40
0.0
 40
0.0
 40
0.0
 40
0.2542110404
 40
0.5056148335
 40
0.7541517963
 40
1.0
 40
1.0
 40
1.0
 40
1.0
 10
31.1881330055
 20
44.9625829082
 30
0.0
 10
31.517450004
 20
45.3722601799
 30
0.0
 10
32.1469704213
 20
46.2079630296
 30
0.0
 10
33.006158393
 20
47.5103508854
 30
0.0
 10
33.7798745828
 20
48.8451269778
 30
0.0
 10
34.24705897
 20
49.7548420159
 30
0.0
 10
34.469413227
 20
50.2119685987
 30
0.0
  0
SPLINE
  5
255
100
AcDbEntity
  8
0
100
AcDbSpline
 62
7
  6
BYLAYER
 70
0
 71
3
 72
11
 73
7
 74
0
 42
0.0000001
 43
0.0000001
 44
0.0000000001
 40
0.0
 40
0.0
 40
0.0
 40
0.0
 40
0.2892659366
 40
0.5507874441
 40
0.7865751505
 40
1.0
 40
1.0
 40
1.0
 40
1.0
 10
39.8713681265
 20
49.9758211178
 30
0.0
 10
40.1870903907
 20
49.9476184736
 30
0.0
 10
40.7894640453
 20
49.9060639583
 30
0.0
 10
41.6516434788
 20
49.8897079365
 30
0.0
 10
42.430356958
 20
49.9184509943
 30
0.0
 10
42.9206743343
 20
49.9657669767
 30
0.0
 10
43.152648348
 20
49.9955040461
 30
0.0
  0
SPLINE
  5
256
100
AcDbEntity
  8
0
100
AcDbSpline
 62
7
  6
BYLAYER
 70
0
 71
3
 72
23
 73
19
 74
0
 42
0.0000001
 43
0.0000001
 44
0.0000000001
 40
0.0
 40
0.0
 40
0.0
 40
0.0
 40
0.0558381093
 40
0.1141790914
 40
0.1747829293
 40
0.2373529711
 40
0.3015484006
 40
0.3669921915
 40
0.4332821686
 40
0.4999996396
 40
0.5667170738
 40
0.6330071494
 40
0.6984505186
 40
0.7626465985
 40
0.8252164599
 40
0.8858170995
 40
0.9441705089
 40
1.0
 40
1.0
 40
1.0
 40
1.0
 10
33.4791979265
 20
32.6213487539
 30
0.0
 10
33.4791960683
 20
32.8675501983
 30
0.0
 10
33.5010433989
 20
33.3711735996
 30
0.0
 10
33.593798685
 20
34.1368847071
 30
0.0
 10
33.7463678981
 20
34.9231948803
 30
0.0
 10
33.9572522394
 20
35.7225605764
 30
0.0
 10
34.2244685703
 20
36.5273780494
 30
0.0
 10
34.5454495946
 20
37.3299613622
 30
0.0
 10
34.9171051008
 20
38.1226513119
 30
0.0
 10
35.3359133567
 20
38.8978506565
 30
0.0
 10
35.7978525805
 20
39.6481479779
 30
0.0
 10
36.2984846441
 20
40.3663748989
 30
0.0
 10
36.8330542177
 20
41.0456450916
 30
0.0
 10
37.3964429107
 20
41.6794653637
 30
0.0
 10
37.9832373901
 20
42.2617962797
 30
0.0
 10
38.5879434491
 20
42.7871135275
 30
0.0
 10
39.2047156718
 20
43.2502674528
 30
0.0
 10
39.6299357744
 20
43.5210406533
 30
0.0
 10
39.8431198894
 20
43.6441218248
 30
0.0
  0
SPLINE
  5
257
100
AcDbEntity
  8
0
100
AcDbSpline
 62
7
  6
BYLAYER
 70
0
 71
3
 72
11
 73
7
 74
0
 42
0.0000001
 43
0.0000001
 44
0.0000000001
 40
0.0
 40
0.0
 40
0.0
 40
0.0
 40
0.2642263448
 40
0.5183038317
 40
0.763120426
 40
1.0
 40
1.0
 40
1.0
 40
1.0
 10
28.9678446205
 20
32.5479082001
 30
0.0
 10
28.9678446205
 20
32.9808192703
 30
0.0
 10
28.9953940645
 20
33.8303440069
 30
0.0
 10
29.1227947905
 20
35.0751126947
 30
0.0
 10
29.3265635453
 20
36.2641281527
 30
0.0
 10
29.508732402
 20
37.0325809711
 30
0.0
 10
29.608797105
 20
37.4075652444
 30
0.0
  0
SPLINE
  5
258
100
AcDbEntity
  8
0
100
AcDbSpline
 62
7
  6
BYLAYER
 70
0
 71
3
 72
11
 73
7
 74
0
 42
0.0000001
 43
0.0000001
 44
0.0000000001
 40
0.0
 40
0.0
 40
0.0
 40
0.0
 40
0.2892857855
 40
0.550793194
 40
0.7865929402
 40
1.0
 40
1.0
 40
1.0
 40
1.0
 10
35.5015023289
 20
25.1056476261
 30
0.0
 10
35.8172465097
 20
25.0774430242
 30
0.0
 10
36.4196250488
 20
25.0358414546
 30
0.0
 10
37.2818249638
 20
25.0195625535
 30
0.0
 10
38.0605206666
 20
25.0482261924
 30
0.0
 10
38.5508276871
 20
25.0955959399
 30
0.0
 10
38.7827825504
 20
25.1253305544
 30
0.0
  0
SPLINE
  5
259
100
AcDbEntity
  8
0
100
AcDbSpline
 62
7
  6
BYLAYER
 70
0
 71
3
 72
11
 73
7
 74
0
 42
0.0000001
 43
0.0000001
 44
0.0000000001
 40
0.0
 40
0.0
 40
0.0
 40
0.0
 40
0.2254374116
 40
0.4690168635
 40
0.7281705112
 40
1.0
 40
1.0
 40
1.0
 40
1.0
 10
35.5015023289
 20
25.1056476261
 30
0.0
 10
35.1555629731
 20
25.136549484
 30
0.0
 10
34.4372281303
 20
25.2167800761
 30
0.0
 10
33.3271064813
 20
25.379624127
 30
0.0
 10
32.1514355269
 20
25.5847569421
 30
0.0
 10
31.3486295078
 20
25.742217703
 30
0.0
 10
30.9383171384
 20
25.8260561337
 30
0.0
  0
SPLINE
  5
25A
100
AcDbEntity
  8
0
100
AcDbSpline
 62
7
  6
BYLAYER
 70
0
 71
3
 72
11
 73
7
 74
0
 42
0.0000001
 43
0.0000001
 44
0.0000000001
 40
0.0
 40
0.0
 40
0.0
 40
0.0
 40
0.2389313824
 40
0.4860655695
 40
0.7402090592
 40
1.0
 40
1.0
 40
1.0
 40
1.0
 10
28.9678446205
 20
32.5479082001
 30
0.0
 10
28.9678446205
 20
32.0982983775
 30
0.0
 10
28.9987203941
 20
31.1834359132
 30
0.0
 10
29.1283116714
 20
29.7959265237
 30
0.0
 10
29.3332835267
 20
28.3780240636
 30
0.0
 10
29.5110842406
 20
27.4271572152
 30
0.0
 10
29.608797105
 20
26.94815972
 30
0.0
  0
SPLINE
  5
25B
100
AcDbEntity
  8
0
100
AcDbSpline
 62
7
  6
BYLAYER
 70
0
 71
3
 72
11
 73
7
 74
0
 42
0.0000001
 43
0.0000001
 44
0.0000000001
 40
0.0
 40
0.0
 40
0.0
 40
0.0
 40
0.2542110404
 40
0.5056148335
 40
0.7541517963
 40
1.0
 40
1.0
 40
1.0
 40
1.0
 10
33.309462181
 20
43.7378606447
 30
0.0
 10
32.9801451826
 20
43.3281833729
 30
0.0
 10
32.3506247652
 20
42.4924805233
 30
0.0
 10
31.4914367935
 20
41.1900926674
 30
0.0
 10
30.7177206037
 20
39.8553165751
 30
0.0
 10
30.2505362166
 20
38.945601537
 30
0.0
 10
30.0281819595
 20
38.4884749541
 30
0.0
  0
SPLINE
  5
25C
100
AcDbEntity
  8
0
100
AcDbSpline
 62
7
  6
BYLAYER
 70
0
 71
3
 72
11
 73
7
 74
0
 42
0.0000001
 43
0.0000001
 44
0.0000000001
 40
0.0
 40
0.0
 40
0.0
 40
0.0
 40
0.2477598621
 40
0.4973837094
 40
0.7482957076
 40
1.0
 40
1.0
 40
1.0
 40
1.0
 10
33.309462181
 20
43.7378606447
 30
0.0
 10
33.6419885633
 20
44.1515304575
 30
0.0
 10
34.3360494697
 20
44.9610321475
 30
0.0
 10
35.4513277098
 20
46.1135998513
 30
0.0
 10
36.6326122139
 20
47.2106168896
 30
0.0
 10
37.4546397377
 20
47.9065569627
 30
0.0
 10
37.8726473716
 20
48.2471548993
 30
0.0
  0
SPLINE
  5
25D
100
AcDbEntity
  8
0
100
AcDbSpline
 62
7
  6
BYLAYER
 70
0
 71
3
 72
11
 73
7
 74
0
 42
0.0000001
 43
0.0000001
 44
0.0000000001
 40
0.0
 40
0.0
 40
0.0
 40
0.0
 40
0.2254337502
 40
0.4690240968
 40
0.7281673259
 40
1.0
 40
1.0
 40
1.0
 40
1.0
 10
41.992697302
 20
48.7510988542
 30
0.0
 10
42.3386311114
 20
48.7201974917
 30
0.0
 10
43.0569815998
 20
48.640002502
 30
0.0
 10
44.1670906221
 20
48.477103108
 30
0.0
 10
45.3427760996
 20
48.2720215903
 30
0.0
 10
46.1455652295
 20
48.1145297772
 30
0.0
 10
46.5558824926
 20
48.0306903466
 30
0.0
  0
SPLINE
  5
25E
100
AcDbEntity
  8
0
100
AcDbSpline
 62
7
  6
BYLAYER
 70
0
 71
3
 72
9
 73
5
 74
0
 42
0.0000001
 43
0.0000001
 44
0.0000000001
 40
0.0
 40
0.0
 40
0.0
 40
0.0
 40
0.2466052439
 40
1.0
 40
1.0
 40
1.0
 40
1.0
 10
30.0281819595
 20
26.3515110368
 30
0.0
 10
29.9905035169
 20
26.3981713338
 30
0.0
 10
29.8409403884
 20
26.5899710283
 30
0.0
 10
29.7043320405
 20
26.7918140963
 30
0.0
 10
29.608797105
 20
26.94815972
 30
0.0
  0
SPLINE
  5
25F
100
AcDbEntity
  8
0
100
AcDbSpline
 62
7
  6
BYLAYER
 70
0
 71
3
 72
11
 73
7
 74
0
 42
0.0000001
 43
0.0000001
 44
0.0000000001
 40
0.0
 40
0.0
 40
0.0
 40
0.0
 40
0.2892659366
 40
0.5507874441
 40
0.7865751505
 40
1.0
 40
1.0
 40
1.0
 40
1.0
 10
41.992697302
 20
48.7510988542
 30
0.0
 10
41.6769750378
 20
48.7793014983
 30
0.0
 10
41.0746013832
 20
48.8208560136
 30
0.0
 10
40.2124219497
 20
48.8372120355
 30
0.0
 10
39.4337084705
 20
48.8084689776
 30
0.0
 10
38.9433910943
 20
48.7611529953
 30
0.0
 10
38.7114170805
 20
48.7314159259
 30
0.0
  0
SPLINE
  5
260
100
AcDbEntity
  8
0
100
AcDbSpline
 62
7
  6
BYLAYER
 70
0
 71
3
 72
9
 73
5
 74
0
 42
0.0000001
 43
0.0000001
 44
0.0000000001
 40
0.0
 40
0.0
 40
0.0
 40
0.0
 40
0.2536796095
 40
1.0
 40
1.0
 40
1.0
 40
1.0
 10
47.8854025259
 20
46.9085867603
 30
0.0
 10
47.8532346863
 20
46.9612303395
 30
0.0
 10
47.7231987133
 20
47.1667523732
 30
0.0
 10
47.580045973
 20
47.364024872
 30
0.0
 10
47.4660176714
 20
47.5052354435
 30
0.0
  0
SPLINE
  5
261
100
AcDbEntity
  8
0
100
AcDbSpline
 62
7
  6
BYLAYER
 70
0
 71
3
 72
11
 73
7
 74
0
 42
0.0000001
 43
0.0000001
 44
0.0000000001
 40
0.0
 40
0.0
 40
0.0
 40
0.0
 40
0.2400022658
 40
0.4874084224
 40
0.7411278743
 40
1.0
 40
1.0
 40
1.0
 40
1.0
 10
48.5230163122
 20
41.6769904085
 30
0.0
 10
48.515406655
 20
42.0991040374
 30
0.0
 10
48.4737254393
 20
42.9560409239
 30
0.0
 10
48.3404320537
 20
44.2534133314
 30
0.0
 10
48.1432545736
 20
45.576076788
 30
0.0
 10
47.9764221482
 20
46.4624001565
 30
0.0
 10
47.8854025259
 20
46.9085867603
 30
0.0
  0
SPLINE
  5
262
100
AcDbEntity
  8
0
100
AcDbSpline
 62
7
  6
BYLAYER
 70
0
 71
3
 72
9
 73
5
 74
0
 42
0.0000001
 43
0.0000001
 44
0.0000000001
 40
0.0
 40
0.0
 40
0.0
 40
0.0
 40
0.2536796095
 40
1.0
 40
1.0
 40
1.0
 40
1.0
 10
30.5189322839
 20
26.4227048169
 30
0.0
 10
30.5511001235
 20
26.3700612377
 30
0.0
 10
30.6811360964
 20
26.164539204
 30
0.0
 10
30.8242888367
 20
25.9672667052
 30
0.0
 10
30.9383171384
 20
25.8260561337
 30
0.0
  0
SPLINE
  5
263
100
AcDbEntity
  8
0
100
AcDbSpline
 62
7
  6
BYLAYER
 70
0
 71
3
 72
11
 73
7
 74
0
 42
0.0000001
 43
0.0000001
 44
0.0000000001
 40
0.0
 40
0.0
 40
0.0
 40
0.0
 40
0.2642263448
 40
0.5183038317
 40
0.763120426
 40
1.0
 40
1.0
 40
1.0
 40
1.0
 10
31.1598847684
 20
31.2823618611
 30
0.0
 10
31.1598847684
 20
30.8494507909
 30
0.0
 10
31.1323353244
 20
29.9999260543
 30
0.0
 10
31.0049345984
 20
28.7551573666
 30
0.0
 10
30.8011658436
 20
27.5661419085
 30
0.0
 10
30.618996987
 20
26.7976890901
 30
0.0
 10
30.5189322839
 20
26.4227048169
 30
0.0
  0
SPLINE
  5
264
100
AcDbEntity
  8
0
100
AcDbSpline
 62
7
  6
BYLAYER
 70
0
 71
3
 72
11
 73
7
 74
0
 42
0.0000001
 43
0.0000001
 44
0.0000000001
 40
0.0
 40
0.0
 40
0.0
 40
0.0
 40
0.2389313824
 40
0.4860655695
 40
0.7402090592
 40
1.0
 40
1.0
 40
1.0
 40
1.0
 10
31.1598847684
 20
31.2823618611
 30
0.0
 10
31.1598847684
 20
31.7319716837
 30
0.0
 10
31.1290089948
 20
32.6468341481
 30
0.0
 10
30.9994177176
 20
34.0343435375
 30
0.0
 10
30.7944458623
 20
35.4522459976
 30
0.0
 10
30.6166451483
 20
36.403112846
 30
0.0
 10
30.5189322839
 20
36.8821103412
 30
0.0
  0
SPLINE
  5
265
100
AcDbEntity
  8
0
100
AcDbSpline
 62
7
  6
BYLAYER
 70
0
 71
3
 72
11
 73
7
 74
0
 42
0.0000001
 43
0.0000001
 44
0.0000000001
 40
0.0
 40
0.0
 40
0.0
 40
0.0
 40
0.2254337502
 40
0.4690240968
 40
0.7281673259
 40
1.0
 40
1.0
 40
1.0
 40
1.0
 10
44.1847374499
 20
47.4855525152
 30
0.0
 10
43.8388036405
 20
47.5164538776
 30
0.0
 10
43.1204531521
 20
47.5966488674
 30
0.0
 10
42.0103441298
 20
47.7595482614
 30
0.0
 10
40.8346586523
 20
47.964629779
 30
0.0
 10
40.0318695224
 20
48.1221215921
 30
0.0
 10
39.6215522593
 20
48.2059610227
 30
0.0
  0
SPLINE
  5
266
100
AcDbEntity
  8
0
100
AcDbSpline
 62
7
  6
BYLAYER
 70
0
 71
3
 72
11
 73
7
 74
0
 42
0.0000001
 43
0.0000001
 44
0.0000000001
 40
0.0
 40
0.0
 40
0.0
 40
0.0
 40
0.2477598621
 40
0.4973837094
 40
0.7482957076
 40
1.0
 40
1.0
 40
1.0
 40
1.0
 10
35.5015023289
 20
42.4723143056
 30
0.0
 10
35.1689759466
 20
42.0586444928
 30
0.0
 10
34.4749150402
 20
41.2491428027
 30
0.0
 10
33.3596368002
 20
40.096575099
 30
0.0
 10
32.178352296
 20
38.9995580606
 30
0.0
 10
31.3563247722
 20
38.3036179876
 30
0.0
 10
30.9383171384
 20
37.963020051
 30
0.0
  0
SPLINE
  5
267
100
AcDbEntity
  8
0
100
AcDbSpline
 62
7
  6
BYLAYER
 70
0
 71
3
 72
21
 73
17
 74
0
 42
0.0000001
 43
0.0000001
 44
0.0000000001
 40
0.0
 40
0.0
 40
0.0
 40
0.0
 40
0.1501382738
 40
0.2213682319
 40
0.2900681505
 40
0.4201993505
 40
0.4820690608
 40
0.5420894193
 40
0.6005658142
 40
0.6578540966
 40
0.7143502521
 40
0.7704781865
 40
0.8266787153
 40
0.8833986098
 40
0.9410566673
 40
1.0
 40
1.0
 40
1.0
 40
1.0
 10
48.5186030597
 20
41.7276487011
 30
0.0
 10
48.5037547103
 20
42.1245274999
 30
0.0
 10
48.4498741922
 20
42.7095428415
 30
0.0
 10
48.3041549299
 20
43.4634272445
 30
0.0
 10
48.1198590502
 20
44.1540313574
 30
0.0
 10
47.8682875518
 20
44.8000014569
 30
0.0
 10
47.5463448227
 20
45.384655795
 30
0.0
 10
47.2782446243
 20
45.7802225156
 30
0.0
 10
46.9804933055
 20
46.1383965585
 30
0.0
 10
46.6542638832
 20
46.4577326214
 30
0.0
 10
46.3008189522
 20
46.7367931714
 30
0.0
 10
45.92167517
 20
46.9744518907
 30
0.0
 10
45.5183596987
 20
47.1696266413
 30
0.0
 10
45.0925667249
 20
47.3215770116
 30
0.0
 10
44.6461916113
 20
47.4296115669
 30
0.0
 10
44.3400401751
 20
47.4716797289
 30
0.0
 10
44.1847374499
 20
47.4855525152
 30
0.0
  0
SPLINE
  5
268
100
AcDbEntity
  8
0
100
AcDbSpline
 62
7
  6
BYLAYER
 70
0
 71
3
 72
11
 73
7
 74
0
 42
0.0000001
 43
0.0000001
 44
0.0000000001
 40
0.0
 40
0.0
 40
0.0
 40
0.0
 40
0.2255266199
 40
0.466170893
 40
0.7240231415
 40
1.0
 40
1.0
 40
1.0
 40
1.0
 10
35.5015023289
 20
25.1056476261
 30
0.0
 10
35.8116638511
 20
25.0779417085
 30
0.0
 10
36.459201785
 20
25.0814936848
 30
0.0
 10
37.4482504543
 20
25.2500013617
 30
0.0
 10
38.4694193418
 20
25.5776143929
 30
0.0
 10
39.1399002554
 20
25.8883267274
 30
0.0
 10
39.476792658
 20
26.066391455
 30
0.0
  0
SPLINE
  5
269
100
AcDbEntity
  8
0
100
AcDbSpline
 62
7
  6
BYLAYER
 70
0
 71
3
 72
22
 73
18
 74
0
 42
0.0000001
 43
0.0000001
 44
0.0000000001
 40
0.0
 40
0.0
 40
0.0
 40
0.0
 40
0.077217032
 40
0.1518367465
 40
0.2929980283
 40
0.3597336969
 40
0.4240305978
 40
0.4860682876
 40
0.5460944643
 40
0.6044160481
 40
0.6613999389
 40
0.7174605077
 40
0.7730479572
 40
0.8286328374
 40
0.8846957614
 40
0.9416921136
 40
1.0
 40
1.0
 40
1.0
 40
1.0
 10
31.1598847684
 20
31.2823618611
 30
0.0
 10
31.1598847684
 20
31.0673098768
 30
0.0
 10
31.1716844492
 20
30.6442795186
 30
0.0
 10
31.2436745719
 20
29.8311764203
 30
0.0
 10
31.3880462573
 20
29.0545409733
 30
0.0
 10
31.6114326527
 20
28.329432927
 30
0.0
 10
31.8112191155
 20
27.829508766
 30
0.0
 10
32.0456483008
 20
27.3656542358
 30
0.0
 10
32.3137149459
 20
26.9398370836
 30
0.0
 10
32.614422965
 20
26.554015942
 30
0.0
 10
32.9464516486
 20
26.2098940527
 30
0.0
 10
33.3084526128
 20
25.9091643884
 30
0.0
 10
33.6987271345
 20
25.6531544224
 30
0.0
 10
34.1155637274
 20
25.4431384897
 30
0.0
 10
34.5570493254
 20
25.2799934988
 30
0.0
 10
35.0210495335
 20
25.1645281742
 30
0.0
 10
35.3397569714
 20
25.1200959159
 30
0.0
 10
35.5015023289
 20
25.1056476261
 30
0.0
  0
SPLINE
  5
26A
100
AcDbEntity
  8
0
100
AcDbSpline
 62
7
  6
BYLAYER
 70
0
 71
3
 72
15
 73
11
 74
0
 42
0.0000001
 43
0.0000001
 44
0.0000000001
 40
0.0
 40
0.0
 40
0.0
 40
0.0
 40
0.129847411
 40
0.2611866596
 40
0.3925260486
 40
0.5223738886
 40
0.6492905064
 40
0.7719421396
 40
0.8891589506
 40
1.0
 40
1.0
 40
1.0
 40
1.0
 10
35.5015023289
 20
42.4723143056
 30
0.0
 10
35.1703259555
 20
42.0603239323
 30
0.0
 10
34.5369173747
 20
41.2047462278
 30
0.0
 10
33.6857310545
 20
39.8506913504
 30
0.0
 10
32.9386410972
 20
38.4364146373
 30
0.0
 10
32.3083655722
 20
36.9859339984
 30
0.0
 10
31.8055348013
 20
35.5237438946
 30
0.0
 10
31.4386491544
 20
34.0744127263
 30
0.0
 10
31.213931133
 20
32.6625131999
 30
0.0
 10
31.1598847684
 20
31.7335849404
 30
0.0
 10
31.1598847684
 20
31.2823618611
 30
0.0
  0
SPLINE
  5
26B
100
AcDbEntity
  8
0
100
AcDbSpline
 62
7
  6
BYLAYER
 70
0
 71
3
 72
11
 73
7
 74
0
 42
0.0000001
 43
0.0000001
 44
0.0000000001
 40
0.0
 40
0.0
 40
0.0
 40
0.0
 40
0.232065918
 40
0.4774810713
 40
0.7342754496
 40
1.0
 40
1.0
 40
1.0
 40
1.0
 10
39.8431198894
 20
46.322249753
 30
0.0
 10
39.4523531774
 20
46.0966418333
 30
0.0
 10
38.6749116013
 20
45.5853807579
 30
0.0
 10
37.5645297556
 20
44.6848118185
 30
0.0
 10
36.4928717481
 20
43.6424806395
 30
0.0
 10
35.8252017881
 20
42.8750032404
 30
0.0
 10
35.5015023289
 20
42.4723143056
 30
0.0
  0
SPLINE
  5
26C
100
AcDbEntity
  8
0
100
AcDbSpline
 62
7
  6
BYLAYER
 70
0
 71
3
 72
12
 73
8
 74
0
 42
0.0000001
 43
0.0000001
 44
0.0000000001
 40
0.0
 40
0.0
 40
0.0
 40
0.0
 40
0.2233590417
 40
0.3411489441
 40
0.4633937863
 40
0.7219826221
 40
1.0
 40
1.0
 40
1.0
 40
1.0
 10
44.1847374499
 20
47.4855525152
 30
0.0
 10
43.8465109934
 20
47.5157654
 30
0.0
 10
43.323929957
 20
47.5084326001
 30
0.0
 10
42.6262379863
 20
47.4076387982
 30
0.0
 10
41.8864371308
 20
47.2385200143
 30
0.0
 10
40.9387471718
 20
46.9034768122
 30
0.0
 10
40.2091637147
 20
46.5335839926
 30
0.0
 10
39.8431198894
 20
46.322249753
 30
0.0
  0
SPLINE
  5
26D
100
AcDbEntity
  8
0
100
AcDbSpline
 62
7
  6
BYLAYER
 70
0
 71
3
 72
25
 73
21
 74
0
 42
0.0000001
 43
0.0000001
 44
0.0000000001
 40
0.0
 40
0.0
 40
0.0
 40
0.0
 40
0.0742848115
 40
0.1447446559
 40
0.2113478235
 40
0.2432763931
 40
0.2743325806
 40
0.3340087879
 40
0.3909737915
 40
0.4459946789
 40
0.4999979722
 40
0.5540013114
 40
0.6090228863
 40
0.6659883049
 40
0.7256638802
 40
0.7567201274
 40
0.7886510489
 40
0.8552582516
 40
0.9257013237
 40
1.0
 40
1.0
 40
1.0
 40
1.0
 10
39.8431198894
 20
28.9470783165
 30
0.0
 10
39.6401461124
 20
28.8298920512
 30
0.0
 10
39.2349135625
 20
28.6177682232
 30
0.0
 10
38.6168662825
 20
28.3647810958
 30
0.0
 10
38.1038144762
 20
28.2152155111
 30
0.0
 10
37.702409044
 20
28.1362564515
 30
0.0
 10
37.3185772384
 20
28.0852675953
 30
0.0
 10
36.8512749405
 20
28.069004655
 30
0.0
 10
36.3109458899
 20
28.1292552873
 30
0.0
 10
35.8039253912
 20
28.2695125115
 30
0.0
 10
35.3358322509
 20
28.4886655597
 30
0.0
 10
34.9119812091
 20
28.7844618076
 30
0.0
 10
34.5370371053
 20
29.153463591
 30
0.0
 10
34.2146795555
 20
29.5912649288
 30
0.0
 10
33.9951062026
 20
30.0040894657
 30
0.0
 10
33.847348225
 20
30.3619985961
 30
0.0
 10
33.7150526821
 20
30.7491361502
 30
0.0
 10
33.5880518543
 20
31.2681974692
 30
0.0
 10
33.498074488
 20
31.929934783
 30
0.0
 10
33.4791996959
 20
32.3869314298
 30
0.0
 10
33.4791979265
 20
32.6213487539
 30
0.0
  0
SPLINE
  5
26E
100
AcDbEntity
  8
0
100
AcDbSpline
 62
7
  6
BYLAYER
 70
0
 71
3
 72
41
 73
37
 74
0
 42
0.0000001
 43
0.0000001
 44
0.0000000001
 40
0.0
 40
0.0
 40
0.0
 40
0.0
 40
0.0309844468
 40
0.0603734787
 40
0.0881538703
 40
0.101471375
 40
0.1144250051
 40
0.1393161294
 40
0.1630764027
 40
0.1860257847
 40
0.2085507365
 40
0.2310757238
 40
0.2540254403
 40
0.2777859616
 40
0.3026769185
 40
0.3156306275
 40
0.3289491702
 40
0.3567313648
 40
0.3861135239
 40
0.4171038749
 40
0.4496517846
 40
0.4836585926
 40
0.5189843931
 40
0.5554562685
 40
0.5928755589
 40
0.6310224986
 40
0.6696626628
 40
0.7085519996
 40
0.7474413055
 40
0.7860814988
 40
0.824228146
 40
0.8616477516
 40
0.8981194417
 40
0.9334432836
 40
0.9674572294
 40
1.0
 40
1.0
 40
1.0
 40
1.0
 10
39.8431198894
 20
43.6441218248
 30
0.0
 10
40.0460946076
 20
43.7613086335
 30
0.0
 10
40.4513290286
 20
43.9734333433
 30
0.0
 10
41.0693791921
 20
44.2264211589
 30
0.0
 10
41.5824333412
 20
44.3759867094
 30
0.0
 10
41.9838405149
 20
44.4549453333
 30
0.0
 10
42.3676738804
 20
44.5059335098
 30
0.0
 10
42.8349779748
 20
44.5221951366
 30
0.0
 10
43.3753088404
 20
44.4619421328
 30
0.0
 10
43.8823306845
 20
44.3216817756
 30
0.0
 10
44.3504246135
 20
44.1025248777
 30
0.0
 10
44.7742758254
 20
43.806724155
 30
0.0
 10
45.1492194384
 20
43.4377173466
 30
0.0
 10
45.4715758242
 20
42.9999105913
 30
0.0
 10
45.6911476465
 20
42.5870812324
 30
0.0
 10
45.8389040988
 20
42.2291684585
 30
0.0
 10
45.9711978857
 20
41.8420256354
 30
0.0
 10
46.0981960832
 20
41.3229681873
 30
0.0
 10
46.1881695845
 20
40.6611839073
 30
0.0
 10
46.2172161133
 20
39.9579695647
 30
0.0
 10
46.1851919196
 20
39.2200104739
 30
0.0
 10
46.0924328107
 20
38.4542530521
 30
0.0
 10
45.9398605584
 20
37.6679592319
 30
0.0
 10
45.7289737986
 20
36.8685929218
 30
0.0
 10
45.461755728
 20
36.0637802495
 30
0.0
 10
45.1407736122
 20
35.2612007495
 30
0.0
 10
44.7691176547
 20
34.4685152588
 30
0.0
 10
44.3503095576
 20
33.6933204252
 30
0.0
 10
43.8883710587
 20
32.9430276872
 30
0.0
 10
43.3877402418
 20
32.2248052719
 30
0.0
 10
42.8531723784
 20
31.5455394093
 30
0.0
 10
42.2897857926
 20
30.9117231885
 30
0.0
 10
41.7029937489
 20
30.3293959462
 30
0.0
 10
41.0982903764
 20
29.8040819097
 30
0.0
 10
40.4815210113
 20
29.3409306538
 30
0.0
 10
40.0563029663
 20
29.0701588886
 30
0.0
 10
39.8431198894
 20
28.9470783165
 30
0.0
  0
SPLINE
  5
26F
100
AcDbEntity
  8
0
100
AcDbSpline
 62
7
  6
BYLAYER
 70
0
 71
3
 72
11
 73
7
 74
0
 42
0.0000001
 43
0.0000001
 44
0.0000000001
 40
0.0
 40
0.0
 40
0.0
 40
0.0
 40
0.2542110404
 40
0.5056148335
 40
0.7541517963
 40
1.0
 40
1.0
 40
1.0
 40
1.0
 10
35.5015023289
 20
42.4723143056
 30
0.0
 10
35.8308193274
 20
42.8819915773
 30
0.0
 10
36.4603397447
 20
43.717694427
 30
0.0
 10
37.3195277164
 20
45.0200822829
 30
0.0
 10
38.0932439062
 20
46.3548583752
 30
0.0
 10
38.5604282934
 20
47.2645734133
 30
0.0
 10
38.7827825504
 20
47.7216999961
 30
0.0
  0
SPLINE
  5
270
100
AcDbEntity
  8
0
100
AcDbSpline
 62
7
  6
BYLAYER
 70
0
 71
3
 72
11
 73
7
 74
0
 42
0.0000001
 43
0.0000001
 44
0.0000000001
 40
0.0
 40
0.0
 40
0.0
 40
0.0
 40
0.2892659366
 40
0.5507874441
 40
0.7865751505
 40
1.0
 40
1.0
 40
1.0
 40
1.0
 10
44.1847374499
 20
47.4855525152
 30
0.0
 10
44.5004597141
 20
47.4573498711
 30
0.0
 10
45.1028333687
 20
47.4157953558
 30
0.0
 10
45.9650128022
 20
47.3994393339
 30
0.0
 10
46.7437262814
 20
47.4281823918
 30
0.0
 10
47.2340436576
 20
47.4754983741
 30
0.0
 10
47.4660176714
 20
47.5052354435
 30
0.0
  0
SPLINE
  5
271
100
AcDbEntity
  8
0
100
AcDbSpline
 62
7
  6
BYLAYER
 70
0
 71
3
 72
15
 73
11
 74
0
 42
0.0000001
 43
0.0000001
 44
0.0000000001
 40
0.0
 40
0.0
 40
0.0
 40
0.0
 40
0.1485536124
 40
0.2895069758
 40
0.422730261
 40
0.5486381658
 40
0.6679993141
 40
0.7819377523
 40
0.8919862656
 40
1.0
 40
1.0
 40
1.0
 40
1.0
 10
12.1244186637
 20
58.4224057763
 30
0.0
 10
12.2935323534
 20
58.5200430278
 30
0.0
 10
12.6312241192
 20
58.6967831813
 30
0.0
 10
13.1462841871
 20
58.9076608951
 30
0.0
 10
13.6522292195
 20
59.0551435824
 30
0.0
 10
14.1441676203
 20
59.1376475937
 30
0.0
 10
14.6175682512
 20
59.1541349411
 30
0.0
 10
15.0678839509
 20
59.1038954803
 30
0.0
 10
15.4903212448
 20
58.9871192275
 30
0.0
 10
15.7513787528
 20
58.8648341655
 30
0.0
 10
15.8743422105
 20
58.7938426093
 30
0.0
  0
SPLINE
  5
272
100
AcDbEntity
  8
0
100
AcDbSpline
 62
7
  6
BYLAYER
 70
0
 71
3
 72
15
 73
11
 74
0
 42
0.0000001
 43
0.0000001
 44
0.0000000001
 40
0.0
 40
0.0
 40
0.0
 40
0.0
 40
0.1486066371
 40
0.2895001044
 40
0.4227227594
 40
0.5486434777
 40
0.6680003943
 40
0.7819389503
 40
0.8919875372
 40
1.0
 40
1.0
 40
1.0
 40
1.0
 10
52.8892288572
 20
36.1119763165
 30
0.0
 10
52.8892271687
 20
36.3463973072
 30
0.0
 10
52.8703662581
 20
36.8033895158
 30
0.0
 10
52.7803540113
 20
37.4651750257
 30
0.0
 10
52.6300919855
 20
38.0794021327
 30
0.0
 10
52.4207012092
 20
38.6401915295
 30
0.0
 10
52.1537278513
 20
39.1420518421
 30
0.0
 10
51.8313643647
 20
39.5799322243
 30
0.0
 10
51.4564759577
 20
39.9488225939
 30
0.0
 10
51.1727895256
 20
40.1468068604
 30
0.0
 10
51.0252252204
 20
40.2319886136
 30
0.0
  0
SPLINE
  5
273
100
AcDbEntity
  8
0
100
AcDbSpline
 62
7
  6
BYLAYER
 70
0
 71
3
 72
16
 73
12
 74
0
 42
0.0000001
 43
0.0000001
 44
0.0000000001
 40
0.0
 40
0.0
 40
0.0
 40
0.0
 40
0.1485549156
 40
0.2894904249
 40
0.4227007609
 40
0.4865554151
 40
0.5486645608
 40
0.6680197462
 40
0.7819508322
 40
0.891993179
 40
1.0
 40
1.0
 40
1.0
 40
1.0
 10
28.6354307459
 20
50.114737784
 30
0.0
 10
28.8383815771
 20
50.2319108016
 30
0.0
 10
29.243618508
 20
50.4440136617
 30
0.0
 10
29.8616501178
 20
50.6970377592
 30
0.0
 10
30.374726317
 20
50.8465886284
 30
0.0
 10
30.7761185869
 20
50.9255724643
 30
0.0
 10
31.1599456755
 20
50.9765234673
 30
0.0
 10
31.6272338552
 20
50.9928408449
 30
0.0
 10
32.167585413
 20
50.9325251206
 30
0.0
 10
32.6745148469
 20
50.7923895525
 30
0.0
 10
32.9877877393
 20
50.6456597992
 30
0.0
 10
33.1353491742
 20
50.5604797029
 30
0.0
  0
SPLINE
  5
274
100
AcDbEntity
  8
0
100
AcDbSpline
 62
7
  6
BYLAYER
 70
0
 71
3
 72
15
 73
11
 74
0
 42
0.0000001
 43
0.0000001
 44
0.0000000001
 40
0.0
 40
0.0
 40
0.0
 40
0.0
 40
0.1080124628
 40
0.2180610497
 40
0.3319996057
 40
0.4513565223
 40
0.5772772406
 40
0.7104998956
 40
0.8513933629
 40
1.0
 40
1.0
 40
1.0
 40
1.0
 10
24.1355123175
 20
34.9719523567
 30
0.0
 10
23.9879480123
 20
35.0571341098
 30
0.0
 10
23.7042615802
 20
35.2551183763
 30
0.0
 10
23.3293731733
 20
35.624008746
 30
0.0
 10
23.0070096866
 20
36.0618891281
 30
0.0
 10
22.7400363287
 20
36.5637494408
 30
0.0
 10
22.5306455524
 20
37.1245388376
 30
0.0
 10
22.3803835266
 20
37.7387659446
 30
0.0
 10
22.2903712798
 20
38.4005514544
 30
0.0
 10
22.2715103692
 20
38.857543663
 30
0.0
 10
22.2715086807
 20
39.0919646538
 30
0.0
  0
SPLINE
  5
275
100
AcDbEntity
  8
0
100
AcDbSpline
 62
7
  6
BYLAYER
 70
0
 71
3
 72
16
 73
12
 74
0
 42
0.0000001
 43
0.0000001
 44
0.0000000001
 40
0.0
 40
0.0
 40
0.0
 40
0.0
 40
0.108006821
 40
0.2180491678
 40
0.3319802538
 40
0.4513354392
 40
0.5134445849
 40
0.5772992391
 40
0.7105095751
 40
0.8514450844
 40
1.0
 40
1.0
 40
1.0
 40
1.0
 10
42.0253883638
 20
24.6434612673
 30
0.0
 10
42.1729497986
 20
24.5582811711
 30
0.0
 10
42.486222691
 20
24.4115514177
 30
0.0
 10
42.9931521249
 20
24.2714158496
 30
0.0
 10
43.5335036827
 20
24.2111001253
 30
0.0
 10
44.0007918624
 20
24.2274175029
 30
0.0
 10
44.3846189511
 20
24.2783685059
 30
0.0
 10
44.7860112209
 20
24.3573523418
 30
0.0
 10
45.2990874201
 20
24.5069032111
 30
0.0
 10
45.91711903
 20
24.7599273085
 30
0.0
 10
46.3223559608
 20
24.9720301686
 30
0.0
 10
46.5253067921
 20
25.0892031863
 30
0.0
  0
SPLINE
  5
276
100
AcDbEntity
  8
0
100
AcDbSpline
 62
7
  6
BYLAYER
 70
0
 71
3
 72
19
 73
15
 74
0
 42
0.0000001
 43
0.0000001
 44
0.0000000001
 40
0.0
 40
0.0
 40
0.0
 40
0.0
 40
0.0558333447
 40
0.1142072104
 40
0.1748251595
 40
0.2374046664
 40
0.3670152724
 40
0.499997824
 40
0.6329831397
 40
0.7625938135
 40
0.8251780609
 40
0.8857956829
 40
0.9441488193
 40
1.0
 40
1.0
 40
1.0
 40
1.0
 10
47.479904921
 20
25.6403564308
 30
0.0
 10
47.6610830291
 20
25.7449590359
 30
0.0
 10
48.0225025779
 20
25.9751340696
 30
0.0
 10
48.5467866685
 20
26.3687837386
 30
0.0
 10
49.0608116196
 20
26.815337711
 30
0.0
 10
49.7335614985
 20
27.48301332
 30
0.0
 10
50.5155699653
 20
28.4215552294
 30
0.0
 10
51.3291225356
 20
29.6642217924
 30
0.0
 10
51.9985056795
 20
30.9901215803
 30
0.0
 10
52.4203216453
 20
32.1366558823
 30
0.0
 10
52.6621417889
 20
33.053138027
 30
0.0
 10
52.7918311282
 20
33.7215146754
 30
0.0
 10
52.8706459043
 20
34.3723656509
 30
0.0
 10
52.88924351
 20
34.8004429321
 30
0.0
 10
52.8892426899
 20
35.0097159099
 30
0.0
  0
SPLINE
  5
277
100
AcDbEntity
  8
0
100
AcDbSpline
 62
7
  6
BYLAYER
 70
0
 71
3
 72
26
 73
22
 74
0
 42
0.0000001
 43
0.0000001
 44
0.0000000001
 40
0.0
 40
0.0
 40
0.0
 40
0.0
 40
0.0213314626
 40
0.0428913443
 40
0.0648959653
 40
0.0875397664
 40
0.1353130168
 40
0.1607355535
 40
0.1872596435
 40
0.2436947981
 40
0.3046395249
 40
0.3697235481
 40
0.4383168569
 40
0.5095994161
 40
0.5826201125
 40
0.6563485553
 40
0.7297206837
 40
0.801694068
 40
0.8712801657
 40
0.937623559
 40
1.0
 40
1.0
 40
1.0
 40
1.0
 10
8.3744951168
 20
45.8034326864
 30
0.0
 10
8.2823497144
 20
45.8566317883
 30
0.0
 10
8.1037066484
 20
45.9755908977
 30
0.0
 10
7.8585727467
 20
46.1882067607
 30
0.0
 10
7.6368655506
 20
46.4340721586
 30
0.0
 10
7.3695783324
 20
46.8107190488
 30
0.0
 10
7.159766238
 20
47.2446294057
 30
0.0
 10
7.0064701611
 20
47.7182112295
 30
0.0
 10
6.8843479612
 20
48.2454877662
 30
0.0
 10
6.8071064314
 20
48.9619121778
 30
0.0
 10
6.8303275351
 20
49.8739174798
 30
0.0
 10
6.9666458004
 20
50.8370042145
 30
0.0
 10
7.2130126373
 20
51.8308590391
 30
0.0
 10
7.5641522688
 20
52.8345720749
 30
0.0
 10
8.0125917876
 20
53.8268167214
 30
0.0
 10
8.5487745134
 20
54.7864403163
 30
0.0
 10
9.1612439126
 20
55.6929962685
 30
0.0
 10
9.8369561654
 20
56.5270975259
 30
0.0
 10
10.5615764421
 20
57.2711470248
 30
0.0
 10
11.3196627753
 20
57.9090818438
 30
0.0
 10
11.8549724459
 20
58.2668418586
 30
0.0
 10
12.1244186637
 20
58.4224057763
 30
0.0
  0
SPLINE
  5
278
100
AcDbEntity
  8
0
100
AcDbSpline
 62
7
  6
BYLAYER
 70
0
 71
3
 72
19
 73
15
 74
0
 42
0.0000001
 43
0.0000001
 44
0.0000000001
 40
0.0
 40
0.0
 40
0.0
 40
0.0
 40
0.0558513307
 40
0.1142043949
 40
0.1748217537
 40
0.237405458
 40
0.3670146511
 40
0.4999985179
 40
0.6329804054
 40
0.762591497
 40
0.8251714821
 40
0.8857905507
 40
0.94416587
 40
1.0
 40
1.0
 40
1.0
 40
1.0
 10
22.2714948483
 20
40.1942250629
 30
0.0
 10
22.2714926428
 20
40.4034986053
 30
0.0
 10
22.2900928539
 20
40.8315761273
 30
0.0
 10
22.3689049709
 20
41.4824266551
 30
0.0
 10
22.4985958756
 20
42.1507997036
 30
0.0
 10
22.7404110489
 20
43.0672742221
 30
0.0
 10
23.1622224544
 20
44.2137964117
 30
0.0
 10
23.8315959644
 20
45.5396857984
 30
0.0
 10
24.6451413213
 20
46.7823497427
 30
0.0
 10
25.4271465583
 20
47.7208958908
 30
0.0
 10
26.0999001136
 20
48.3885788553
 30
0.0
 10
26.6139317358
 20
48.8351426945
 30
0.0
 10
27.1382263078
 20
49.2287993786
 30
0.0
 10
27.4996519585
 20
49.458980462
 30
0.0
 10
27.6808326169
 20
49.5635845394
 30
0.0
  0
SPLINE
  5
279
100
AcDbEntity
  8
0
100
AcDbSpline
 62
7
  6
BYLAYER
 70
0
 71
3
 72
9
 73
5
 74
0
 42
0.0000001
 43
0.0000001
 44
0.0000000001
 40
0.0
 40
0.0
 40
0.0
 40
0.0
 40
0.2592122529
 40
1.0
 40
1.0
 40
1.0
 40
1.0
 10
52.8892426899
 20
35.0097159099
 30
0.0
 10
52.8892423261
 20
35.1025677399
 30
0.0
 10
52.8823041094
 20
35.4607034998
 30
0.0
 10
52.8468603227
 20
35.8185825719
 30
0.0
 10
52.8014053752
 20
36.0800163034
 30
0.0
  0
SPLINE
  5
27A
100
AcDbEntity
  8
0
100
AcDbSpline
 62
7
  6
BYLAYER
 70
0
 71
3
 72
22
 73
18
 74
0
 42
0.0000001
 43
0.0000001
 44
0.0000000001
 40
0.0
 40
0.0
 40
0.0
 40
0.0
 40
0.0689098411
 40
0.134455705
 40
0.196878577
 40
0.2565661311
 40
0.3140422857
 40
0.3699686665
 40
0.4251070261
 40
0.4802764103
 40
0.5362940934
 40
0.5939171272
 40
0.7162205842
 40
0.7820099909
 40
0.8511936472
 40
0.9238887523
 40
1.0
 40
1.0
 40
1.0
 40
1.0
 10
52.8014053752
 20
36.0800163034
 30
0.0
 10
52.7739817632
 20
36.2377429671
 30
0.0
 10
52.7067146789
 20
36.5433554265
 30
0.0
 10
52.5637669801
 20
36.9787057463
 30
0.0
 10
52.3820518933
 20
37.3760972346
 30
0.0
 10
52.1629131534
 20
37.7324733378
 30
0.0
 10
51.9076488441
 20
38.0448539136
 30
0.0
 10
51.6182555626
 20
38.3106916617
 30
0.0
 10
51.2968631527
 20
38.5274718468
 30
0.0
 10
50.946312326
 20
38.6934690632
 30
0.0
 10
50.5694723914
 20
38.8071484717
 30
0.0
 10
50.0260334026
 20
38.889855327
 30
0.0
 10
49.4491732585
 20
38.8596576927
 30
0.0
 10
48.8646156736
 20
38.732284792
 30
0.0
 10
48.4049691872
 20
38.5829133112
 30
0.0
 10
47.9389699193
 20
38.3831588174
 30
0.0
 10
47.6330387352
 20
38.221254734
 30
0.0
 10
47.479904921
 20
38.1328434129
 30
0.0
  0
SPLINE
  5
27B
100
AcDbEntity
  8
0
100
AcDbSpline
 62
7
  6
BYLAYER
 70
0
 71
3
 72
26
 73
22
 74
0
 42
0.0000001
 43
0.0000001
 44
0.0000000001
 40
0.0
 40
0.0
 40
0.0
 40
0.0
 40
0.0623767777
 40
0.1287149919
 40
0.1983010578
 40
0.270273739
 40
0.3436459536
 40
0.4173730174
 40
0.490392959
 40
0.5616753798
 40
0.6302688031
 40
0.6953527743
 40
0.7562969678
 40
0.8127311233
 40
0.8646288226
 40
0.8890146068
 40
0.9124624391
 40
0.9351060997
 40
0.9571099746
 40
0.9786692603
 40
1.0
 40
1.0
 40
1.0
 40
1.0
 10
46.5253067921
 20
39.7862466946
 30
0.0
 10
46.2019649372
 20
39.599566302
 30
0.0
 10
45.5596005539
 20
39.1702749334
 30
0.0
 10
44.6499173433
 20
38.4047481377
 30
0.0
 10
43.7803674752
 20
37.5119189063
 30
0.0
 10
42.969513779
 20
36.5109769171
 30
0.0
 10
42.2345437153
 20
35.423106389
 30
0.0
 10
41.5911254649
 20
34.2715500295
 30
0.0
 10
41.0529901855
 20
33.0808535569
 30
0.0
 10
40.6316061254
 20
31.8763936391
 30
0.0
 10
40.335956984
 20
30.6837361424
 30
0.0
 10
40.1723657303
 20
29.5280748405
 30
0.0
 10
40.1445422607
 20
28.4334681036
 30
0.0
 10
40.2534925256
 20
27.4228124376
 30
0.0
 10
40.4619859534
 20
26.651722615
 30
0.0
 10
40.6983421037
 20
26.1026116657
 30
0.0
 10
40.9039107778
 20
25.7333314329
 30
0.0
 10
41.140242357
 20
25.4001936804
 30
0.0
 10
41.4062942177
 20
25.1051931141
 30
0.0
 10
41.7004653012
 20
24.8500718577
 30
0.0
 10
41.9148118777
 20
24.7072917372
 30
0.0
 10
42.0253883638
 20
24.6434612673
 30
0.0
  0
SPLINE
  5
27C
100
AcDbEntity
  8
0
100
AcDbSpline
 62
7
  6
BYLAYER
 70
0
 71
3
 72
35
 73
31
 74
0
 42
0.0000001
 43
0.0000001
 44
0.0000000001
 40
0.0
 40
0.0
 40
0.0
 40
0.0
 40
0.0325428687
 40
0.0665664947
 40
0.1018980981
 40
0.138373008
 40
0.2139174715
 40
0.291427309
 40
0.368938781
 40
0.4444833521
 40
0.4809610743
 40
0.516292545
 40
0.5503041541
 40
0.5828574897
 40
0.6138519137
 40
0.6432386557
 40
0.6710249541
 40
0.6972882319
 40
0.7221830864
 40
0.7459471109
 40
0.7689004645
 40
0.7914290025
 40
0.8139572499
 40
0.8369099082
 40
0.8606739702
 40
0.8855690556
 40
0.9118297063
 40
0.9396164523
 40
0.9690158016
 40
1.0
 40
1.0
 40
1.0
 40
1.0
 10
47.479904921
 20
38.1328434129
 30
0.0
 10
47.2987273555
 20
38.028241121
 30
0.0
 10
46.9373088822
 20
37.7980668375
 30
0.0
 10
46.413026285
 20
37.4044185638
 30
0.0
 10
45.8990027382
 20
36.9578662685
 30
0.0
 10
45.2262545697
 20
36.2901932502
 30
0.0
 10
44.444247745
 20
35.351654947
 30
0.0
 10
43.6306961796
 20
34.1089932435
 30
0.0
 10
42.9613129047
 20
32.7830973822
 30
0.0
 10
42.539495752
 20
31.6365686538
 30
0.0
 10
42.2976740224
 20
30.7200850132
 30
0.0
 10
42.1679828511
 20
30.0517210159
 30
0.0
 10
42.0891669522
 20
29.4008311283
 30
0.0
 10
42.0619046724
 20
28.773569921
 30
0.0
 10
42.0866381981
 20
28.1758538789
 30
0.0
 10
42.16309584
 20
27.6133062036
 30
0.0
 10
42.2908345256
 20
27.0912282103
 30
0.0
 10
42.4688153438
 20
26.6145664867
 30
0.0
 10
42.6957059223
 20
26.1879608873
 30
0.0
 10
42.9697284562
 20
25.8158124217
 30
0.0
 10
43.2884103903
 20
25.5021437117
 30
0.0
 10
43.6487053373
 20
25.2507484112
 30
0.0
 10
44.046556877
 20
25.0644111436
 30
0.0
 10
44.4775307132
 20
24.9452359093
 30
0.0
 10
44.936830159
 20
24.8939998857
 30
0.0
 10
45.4197108598
 20
24.9108022305
 30
0.0
 10
45.9214944304
 20
24.9949545132
 30
0.0
 10
46.4375730667
 20
25.1453846954
 30
0.0
 10
46.9629485177
 20
25.3604859878
 30
0.0
 10
47.3074050197
 20
25.5407641608
 30
0.0
 10
47.479904921
 20
25.6403564308
 30
0.0
  0
SPLINE
  5
27D
100
AcDbEntity
  8
0
100
AcDbSpline
 62
7
  6
BYLAYER
 70
0
 71
3
 72
16
 73
12
 74
0
 42
0.0000001
 43
0.0000001
 44
0.0000000001
 40
0.0
 40
0.0
 40
0.0
 40
0.0
 40
0.108006821
 40
0.2180491678
 40
0.3319802538
 40
0.4513354392
 40
0.5134445849
 40
0.5772992391
 40
0.7105095751
 40
0.8514450844
 40
1.0
 40
1.0
 40
1.0
 40
1.0
 10
51.0252252204
 20
40.2319886136
 30
0.0
 10
50.8776637856
 20
40.3171687098
 30
0.0
 10
50.5643908931
 20
40.4638984632
 30
0.0
 10
50.0574614592
 20
40.6040340312
 30
0.0
 10
49.5171099015
 20
40.6643497555
 30
0.0
 10
49.0498217218
 20
40.6480323779
 30
0.0
 10
48.6659946331
 20
40.597081375
 30
0.0
 10
48.2646023632
 20
40.518097539
 30
0.0
 10
47.751526164
 20
40.3685466698
 30
0.0
 10
47.1334945542
 20
40.1155225724
 30
0.0
 10
46.7282576233
 20
39.9034197122
 30
0.0
 10
46.5253067921
 20
39.7862466946
 30
0.0
  0
SPLINE
  5
27E
100
AcDbEntity
  8
0
100
AcDbSpline
 62
7
  6
BYLAYER
 70
0
 71
3
 72
9
 73
5
 74
0
 42
0.0000001
 43
0.0000001
 44
0.0000000001
 40
0.0
 40
0.0
 40
0.0
 40
0.0
 40
0.2439329729
 40
1.0
 40
1.0
 40
1.0
 40
1.0
 10
22.2715086807
 20
39.0919646538
 30
0.0
 10
22.2715080586
 20
39.1783346582
 30
0.0
 10
22.2769028495
 20
39.5323967184
 30
0.0
 10
22.3033218073
 20
39.8860571285
 30
0.0
 10
22.3336153764
 20
40.1520402648
 30
0.0
  0
SPLINE
  5
27F
100
AcDbEntity
  8
0
100
AcDbSpline
 62
7
  6
BYLAYER
 70
0
 71
3
 72
15
 73
11
 74
0
 42
0.0000001
 43
0.0000001
 44
0.0000000001
 40
0.0
 40
0.0
 40
0.0
 40
0.0
 40
0.1175220646
 40
0.2412754711
 40
0.3693965807
 40
0.4997764694
 40
0.6301857194
 40
0.7583947856
 40
0.8822862999
 40
1.0
 40
1.0
 40
1.0
 40
1.0
 10
22.3336153764
 20
40.1520402648
 30
0.0
 10
22.3826750605
 20
40.5827933589
 30
0.0
 10
22.5389451003
 20
41.4614053032
 30
0.0
 10
22.9209603372
 20
42.7717752796
 30
0.0
 10
23.4480065587
 20
44.0820953058
 30
0.0
 10
24.1067064056
 20
45.35893303
 30
0.0
 10
24.880336222
 20
46.5699760818
 30
0.0
 10
25.7493414383
 20
47.6845157135
 30
0.0
 10
26.6915272208
 20
48.6741985629
 30
0.0
 10
27.373465512
 20
49.2516914848
 30
0.0
 10
27.7217329844
 20
49.5110721321
 30
0.0
  0
SPLINE
  5
280
100
AcDbEntity
  8
0
100
AcDbSpline
 62
7
  6
BYLAYER
 70
0
 71
3
 72
9
 73
5
 74
0
 42
0.0000001
 43
0.0000001
 44
0.0000000001
 40
0.0
 40
0.0
 40
0.0
 40
0.0
 40
0.2563343229
 40
1.0
 40
1.0
 40
1.0
 40
1.0
 10
27.7217329844
 20
49.5110721321
 30
0.0
 10
27.7968010351
 20
49.5669808837
 30
0.0
 10
28.0925898373
 20
49.781097441
 30
0.0
 10
28.4002622648
 20
49.9789640086
 30
0.0
 10
28.6354307459
 20
50.114737784
 30
0.0
  0
ENDSEC
  0
SECTION
  2
OBJECTS
  0
DICTIONARY
  5
C
100
AcDbDictionary
280
0
281
1
  3
ACAD_GROUP
350
D
  3
ACAD_MLINESTYLE
350
17
  3
ACAD_LAYOUT
350
1A
  3
ACAD_PLOTSETTINGS
350
19
  3
ACAD_PLOTSTYLENAME
350
E
  0
DICTIONARY
  5
D
102
{ACAD_REACTORS
330
C
102
}
100
AcDbDictionary
280
0
281
1
  0
ACDBDICTIONARYWDFLT
  5
E
102
{ACAD_REACTORS
330
C
102
}
100
AcDbDictionary
281
1
  3
Normal
350
F
100
AcDbDictionaryWithDefault
340
F
  0
DICTIONARY
  5
17
102
{ACAD_REACTORS
330
C
102
}
100
AcDbDictionary
280
0
281
1
  3
Standard
350
18
  0
DICTIONARY
  5
19
102
{ACAD_REACTORS
330
C
102
}
100
AcDbDictionary
281
1
  0
DICTIONARY
  5
1A
102
{ACAD_REACTORS
330
C
102
}
100
AcDbDictionary
281
1
  3
Model
350
281
  3
Layout1
350
282
  0
ACDBPLACEHOLDER
  5
F
102
{ACAD_REACTORS
330
E
102
}
  0
MLINESTYLE
  5
18
102
{ACAD_REACTORS
330
17
102
}
100
AcDbMlineStyle
  2
STANDARD
 70
0
  3

 62
256
 51
90.0
 52
90.0
 71
2
 49
0.5
 62
256
  6
BYLAYER
 49
-0.5
 62
256
  6
BYLAYER
  0
LAYOUT
  5
281
102
{ACAD_REACTORS
330
1A
102
}
100
AcDbPlotSettings
  1

  2
none_device
  4

  6

 40
0.0
 41
0.0
 42
0.0
 43
0.0
 44
210.0
 45
297.0
 46
0.0
 47
0.0
 48
0.0
 49
0.0
140
0.0
141
0.0
142
1.0
143
1.0
 70
1024
 72
1
 73
0
 74
0
  7

 75
0
147
1.0
148
0.0
149
0.0
100
AcDbLayout
  1
Model
 70
0
 71
0
 10
0.0
 20
0.0
 11
210.0
 21
297.0
 12
0.0
 22
0.0
 32
0.0
 14
0.0
 24
0.0
 34
0.0
 15
0.0
 25
0.0
 35
0.0
146
0.0
 13
0.0
 23
0.0
 33
0.0
 16
1.0
 26
0.0
 36
0.0
 17
0.0
 27
1.0
 37
0.0
 76
0
330
210
345
0
346
0
  0
LAYOUT
  5
282
102
{ACAD_REACTORS
330
1A
102
}
100
AcDbPlotSettings
  1

  2
none_device
  4

  6

 40
0.0
 41
0.0
 42
0.0
 43
0.0
 44
210.0
 45
297.0
 46
0.0
 47
0.0
 48
0.0
 49
0.0
140
0.0
141
0.0
142
1.0
143
1.0
 70
0
 72
1
 73
0
 74
0
  7

 75
0
147
1.0
148
0.0
149
0.0
100
AcDbLayout
  1
Layout1
 70
0
 71
1
 10
0.0
 20
0.0
 11
210.0
 21
297.0
 12
0.0
 22
0.0
 32
0.0
 14
0.0
 24
0.0
 34
0.0
 15
0.0
 25
0.0
 35
0.0
146
0.0
 13
0.0
 23
0.0
 33
0.0
 16
1.0
 26
0.0
 36
0.0
 17
0.0
 27
1.0
 37
0.0
 76
0
330
211
345
0
346
0
  0
ENDSEC
  0
EOF
