999
DXF file: C:\Users\sesa63760\Dev\_Creo\CAD\MCADID0005720_3D-CAD\mcadid0005720_3d-simplified_7.dxf
999
Pro/ENGINEER 2019471 by Parametric Technology Corporation
  0
SECTION
  2
HEADER
  9
$ACADVER
  1
AC1024
  9
$DWGCODEPAGE
  3
ANSI_1252
  9
$EXTMAX
 10
33.1188266413
 20
46.8394833927
 30
0.0
  9
$EXTMIN
 10
0.0
 20
0.0
 30
0.0
  9
$LIMMIN
 10
0.0
 20
0.0
  9
$LIMMAX
 10
33.1188266413
 20
46.8394833927
  9
$VIEWCTR
 10
16.5594133206
 20
23.4197416963
  9
$VIEWSIZE
 40
46.8394833927
  9
$CLAYER
  8
0
  9
$LTSCALE
 40
3.0532403989
  9
$CELTYPE
  6
BYLAYER
  9
$DIMSCALE
 40
1.0
  9
$DIMASZ
 40
0.3942717457
  9
$DIMEXO
 40
1.0
  9
$DIMDLI
 40
2.1095115484
  9
$DIMEXE
 40
1.0
  9
$DIMCEN
 40
0.4996211562
  9
$DIMLFAC
 40
1.0
  9
$DIMBLK
  1
_FILLED
  9
$DIMALT
 70
0
  9
$DIMALTF
 40
0.0393700787
  9
$DIMTXT
 40
0.551980444
  9
$DIMTOL
 70
1
  9
$DIMLIM
 70
0
  9
$DIMTFAC
 40
1.0
  9
$DIMTP
 40
0.01
  9
$DIMTM
 40
0.01
  9
$DIMGAP
 40
0.625
  9
$DIMDSEP
 70
46
  9
$AUNITS
 70
0
  9
$PDMODE
 70
3
  9
$PDSIZE
 40
0.3125
  9
$HANDSEED
  5
3D3
  9
$TILEMODE
 70
1
  9
$MEASUREMENT
 70
1
  9
$INSUNITS
 70
4
  0
ENDSEC
  0
SECTION
  2
CLASSES
  0
CLASS
  1
ACDBDICTIONARYWDFLT
  2
AcDbDictionaryWithDefault
  3
AutoCAD 2000
 90
0
 91
1
280
0
281
0
  0
CLASS
  1
ACDBPLACEHOLDER
  2
AcDbPlaceHolder
  3
AutoCAD 2000
 90
0
 91
1
280
0
281
0
  0
CLASS
  1
LAYOUT
  2
AcDbLayout
  3
AutoCAD 2000
 90
0
 91
0
280
0
281
0
  0
ENDSEC
  0
SECTION
  2
TABLES
  0
TABLE
  2
VPORT
  5
8
100
AcDbSymbolTable
 70
2
  0
VPORT
  5
1F4
100
AcDbSymbolTableRecord
100
AcDbViewportTableRecord
  2
*ACTIVE
 70
0
 10
0.0
 20
0.0
 11
1.0
 21
1.0
 12
16.5594133206
 22
23.4197416963
 13
0.0
 23
0.0
 14
1.0
 24
1.0
 15
0.0
 25
0.0
 16
0.0
 26
0.0
 36
1.0
 17
0.0
 27
0.0
 37
0.0
 40
46.8394833927
 41
0.7070707071
 42
50.0
 43
0.0
 44
0.0
 50
0.0
 51
0.0
 71
0
 72
100
 73
1
 74
1
 75
0
 76
0
 77
0
 78
0
  0
ENDTAB
  0
TABLE
  2
LTYPE
  5
5
100
AcDbSymbolTable
 70
6
  0
LTYPE
  5
14
100
AcDbSymbolTableRecord
100
AcDbLinetypeTableRecord
  2
BYBLOCK
 70
0
  3

 72
65
 73
0
 40
0.0
  0
LTYPE
  5
15
100
AcDbSymbolTableRecord
100
AcDbLinetypeTableRecord
  2
BYLAYER
 70
0
  3

 72
65
 73
0
 40
0.0
  0
LTYPE
  5
16
100
AcDbSymbolTableRecord
100
AcDbLinetypeTableRecord
  2
CONTINUOUS
 70
64
  3
Solid line
 72
65
 73
0
 40
0.0
  0
LTYPE
  5
1F5
100
AcDbSymbolTableRecord
100
AcDbLinetypeTableRecord
  2
CENTER
 70
64
  3
____ _ ____ _ ____ _ ____ _ ____ _ ____ _ ____
 72
65
 73
4
 40
0.6
 49
0.375
 74
0
 49
-0.075
 74
0
 49
0.075
 74
0
 49
-0.075
 74
0
  0
LTYPE
  5
1F6
100
AcDbSymbolTableRecord
100
AcDbLinetypeTableRecord
  2
HIDDEN
 70
64
  3
- - - - - - - - - - - - - - - - - - - -
 72
65
 73
2
 40
0.2
 49
0.1
 74
0
 49
-0.1
 74
0
  0
LTYPE
  5
1F7
100
AcDbSymbolTableRecord
100
AcDbLinetypeTableRecord
  2
PHANTOM
 70
64
  3
_____ _ _ _____ _ _ _____ _ _ _____
 72
65
 73
6
 40
0.8
 49
0.45
 74
0
 49
-0.05
 74
0
 49
0.1
 74
0
 49
-0.05
 74
0
 49
0.1
 74
0
 49
-0.05
 74
0
  0
LTYPE
  5
1F8
100
AcDbSymbolTableRecord
100
AcDbLinetypeTableRecord
  2
DOT
 70
64
  3
. . . . . . . . . . . . . . . . . . . .
 72
65
 73
2
 40
0.2
 49
0.1
 74
0
 49
-0.1
 74
0
  0
LTYPE
  5
1F9
100
AcDbSymbolTableRecord
100
AcDbLinetypeTableRecord
  2
DASHED
 70
64
  3
- - - - - - - - - - - - - - - - - - - -
 72
65
 73
2
 40
0.2
 49
0.1
 74
0
 49
-0.1
 74
0
  0
ENDTAB
  0
TABLE
  2
LAYER
  5
2
100
AcDbSymbolTable
 70
36
  0
LAYER
  5
10
100
AcDbSymbolTableRecord
100
AcDbLayerTableRecord
  2
0
 70
0
 62
7
  6
CONTINUOUS
370
-3
390
F
  0
LAYER
  5
1FA
100
AcDbSymbolTableRecord
100
AcDbLayerTableRecord
  2
DEFAULT_1
 70
0
 62
7
  6
CENTER
370
-3
390
F
  0
LAYER
  5
1FB
100
AcDbSymbolTableRecord
100
AcDbLayerTableRecord
  2
DEFAULT_2
 70
0
 62
7
  6
HIDDEN
370
-3
390
F
  0
LAYER
  5
1FC
100
AcDbSymbolTableRecord
100
AcDbLayerTableRecord
  2
DEFAULT_3
 70
0
 62
7
  6
PHANTOM
370
-3
390
F
  0
LAYER
  5
1FD
100
AcDbSymbolTableRecord
100
AcDbLayerTableRecord
  2
00_COMPONENTS
 70
0
 62
7
  6
CONTINUOUS
370
-3
390
F
  0
LAYER
  5
1FE
100
AcDbSymbolTableRecord
100
AcDbLayerTableRecord
  2
01_1_DEFAULT_DATUMS
 70
0
 62
7
  6
CONTINUOUS
370
-3
390
F
  0
LAYER
  5
1FF
100
AcDbSymbolTableRecord
100
AcDbLayerTableRecord
  2
01_PLANES
 70
0
 62
7
  6
CONTINUOUS
370
-3
390
F
  0
LAYER
  5
200
100
AcDbSymbolTableRecord
100
AcDbLayerTableRecord
  2
02_COORD_SYS
 70
0
 62
7
  6
CONTINUOUS
370
-3
390
F
  0
LAYER
  5
201
100
AcDbSymbolTableRecord
100
AcDbLayerTableRecord
  2
03_AXES
 70
0
 62
7
  6
CONTINUOUS
370
-3
390
F
  0
LAYER
  5
202
100
AcDbSymbolTableRecord
100
AcDbLayerTableRecord
  2
04_POINTS
 70
0
 62
7
  6
CONTINUOUS
370
-3
390
F
  0
LAYER
  5
203
100
AcDbSymbolTableRecord
100
AcDbLayerTableRecord
  2
05_CURVES
 70
0
 62
7
  6
CONTINUOUS
370
-3
390
F
  0
LAYER
  5
204
100
AcDbSymbolTableRecord
100
AcDbLayerTableRecord
  2
06_SURFS
 70
0
 62
7
  6
CONTINUOUS
370
-3
390
F
  0
LAYER
  5
205
100
AcDbSymbolTableRecord
100
AcDbLayerTableRecord
  2
07_COSMETICS
 70
0
 62
7
  6
CONTINUOUS
370
-3
390
F
  0
LAYER
  5
206
100
AcDbSymbolTableRecord
100
AcDbLayerTableRecord
  2
10_NOTES
 70
0
 62
7
  6
CONTINUOUS
370
-3
390
F
  0
LAYER
  5
207
100
AcDbSymbolTableRecord
100
AcDbLayerTableRecord
  2
11_NOTES_PUB
 70
0
 62
7
  6
CONTINUOUS
370
-3
390
F
  0
LAYER
  5
208
100
AcDbSymbolTableRecord
100
AcDbLayerTableRecord
  2
13_REF_GTOL
 70
0
 62
7
  6
CONTINUOUS
370
-3
390
F
  0
LAYER
  5
209
100
AcDbSymbolTableRecord
100
AcDbLayerTableRecord
  2
16_MISC
 70
0
 62
7
  6
CONTINUOUS
370
-3
390
F
  0
LAYER
  5
20A
100
AcDbSymbolTableRecord
100
AcDbLayerTableRecord
  2
17_NO_PRINT
 70
0
 62
7
  6
CONTINUOUS
370
-3
390
F
  0
LAYER
  5
20B
100
AcDbSymbolTableRecord
100
AcDbLayerTableRecord
  2
18_DATUM_CAMS_JOINTS
 70
0
 62
7
  6
CONTINUOUS
370
-3
390
F
  0
LAYER
  5
20C
100
AcDbSymbolTableRecord
100
AcDbLayerTableRecord
  2
19_DATUM_FUNCTIONAL
 70
0
 62
7
  6
CONTINUOUS
370
-3
390
F
  0
LAYER
  5
20D
100
AcDbSymbolTableRecord
100
AcDbLayerTableRecord
  2
20_DATUM_KINEMATIC_SCHEME
 70
0
 62
7
  6
CONTINUOUS
370
-3
390
F
  0
LAYER
  5
20E
100
AcDbSymbolTableRecord
100
AcDbLayerTableRecord
  2
INTFCLR_1
 70
0
 62
7
  6
CONTINUOUS
370
-3
390
F
  0
LAYER
  5
20F
100
AcDbSymbolTableRecord
100
AcDbLayerTableRecord
  2
INTFCLR_8
 70
0
 62
7
  6
CONTINUOUS
370
-3
390
F
  0
LAYER
  5
210
100
AcDbSymbolTableRecord
100
AcDbLayerTableRecord
  2
INTF_1
 70
0
 62
7
  6
CONTINUOUS
370
-3
390
F
  0
LAYER
  5
211
100
AcDbSymbolTableRecord
100
AcDbLayerTableRecord
  2
INTF_2
 70
0
 62
7
  6
CONTINUOUS
370
-3
390
F
  0
LAYER
  5
212
100
AcDbSymbolTableRecord
100
AcDbLayerTableRecord
  2
INTF_3
 70
0
 62
7
  6
CONTINUOUS
370
-3
390
F
  0
LAYER
  5
213
100
AcDbSymbolTableRecord
100
AcDbLayerTableRecord
  2
INTF_4
 70
0
 62
7
  6
CONTINUOUS
370
-3
390
F
  0
LAYER
  5
214
100
AcDbSymbolTableRecord
100
AcDbLayerTableRecord
  2
INTF_5
 70
0
 62
7
  6
CONTINUOUS
370
-3
390
F
  0
LAYER
  5
215
100
AcDbSymbolTableRecord
100
AcDbLayerTableRecord
  2
INTF_6
 70
0
 62
7
  6
CONTINUOUS
370
-3
390
F
  0
LAYER
  5
216
100
AcDbSymbolTableRecord
100
AcDbLayerTableRecord
  2
white
 70
0
 62
7
  6
CONTINUOUS
370
-3
390
F
  0
ENDTAB
  0
TABLE
  2
STYLE
  5
3
100
AcDbSymbolTable
 70
1
  0
STYLE
  5
11
100
AcDbSymbolTableRecord
100
AcDbTextStyleTableRecord
  2
STANDARD
 70
0
 40
0.0
 41
1.0
 50
0.0
 71
0
 42
0.2
  3
ARIAL.TTF
  4

  0
STYLE
  5
217
100
AcDbSymbolTableRecord
100
AcDbTextStyleTableRecord
  2
TEXTSTYLE_1
 70
0
 40
0.0
 41
0.8
 50
0.0
 71
0
 42
0.2
  3
gdt
  4

  0
ENDTAB
  0
TABLE
  2
VIEW
  5
6
100
AcDbSymbolTable
 70
0
  0
ENDTAB
  0
TABLE
  2
UCS
  5
7
100
AcDbSymbolTable
 70
0
  0
ENDTAB
  0
TABLE
  2
APPID
  5
9
100
AcDbSymbolTable
 70
1
  0
APPID
  5
218
100
AcDbSymbolTableRecord
100
AcDbRegAppTableRecord
  2
ACAD
 70
0
  0
ENDTAB
  0
TABLE
  2
BLOCK_RECORD
  5
1
100
AcDbSymbolTable
 70
0
  0
BLOCK_RECORD
  5
219
100
AcDbSymbolTableRecord
100
AcDbBlockTableRecord
  2
*Model_Space
  0
BLOCK_RECORD
  5
21A
100
AcDbSymbolTableRecord
100
AcDbBlockTableRecord
  2
*Paper_Space
  0
BLOCK_RECORD
  5
21B
100
AcDbSymbolTableRecord
100
AcDbBlockTableRecord
  2
_FILLED
  0
ENDTAB
  0
TABLE
  2
DIMSTYLE
  5
A
100
AcDbSymbolTable
 70
1
100
AcDbDimStyleTable
 71
0
  0
DIMSTYLE
105
21C
100
AcDbSymbolTableRecord
100
AcDbDimStyleTableRecord
  2
STANDARD
 70
0
  3

  4

 40
1.0
 41
0.3942717457
 42
1.0
 43
0.38
 44
1.0
 45
0.0
 46
0.0
 47
0.01
 48
0.01
140
0.551980444
141
0.09
142
0.0
143
25.4
144
1.0
145
0.0
146
1.0
147
0.625
 71
1
 72
0
 73
0
 74
0
 75
0
 76
0
 77
1
 78
8
 79
2
170
0
171
1
172
0
173
0
174
0
175
0
176
0
177
0
178
0
270
2
179
2
271
2
272
2
273
2
274
2
275
0
280
0
281
0
282
0
283
1
284
8
285
0
286
0
287
3
288
0
340
11
278
46
341
21B
342
21B
343
21B
344
21B
  0
ENDTAB
  0
ENDSEC
  0
SECTION
  2
BLOCKS
  0
BLOCK
  5
20
100
AcDbEntity
  8
0
100
AcDbBlockBegin
  2
*Model_Space
 70
0
 10
0.0
 20
0.0
 30
0.0
  3
*Model_Space
  1

  0
ENDBLK
  5
21
100
AcDbEntity
  8
0
100
AcDbBlockEnd
  0
BLOCK
  5
1C
100
AcDbEntity
  8
0
100
AcDbBlockBegin
  2
*Paper_Space
 70
0
 10
0.0
 20
0.0
 30
0.0
  3
*Paper_Space
  1

  0
ENDBLK
  5
1D
100
AcDbEntity
  8
0
100
AcDbBlockEnd
  0
BLOCK
  5
21D
100
AcDbEntity
  8
0
100
AcDbBlockBegin
  2
_FILLED
 70
64
 10
0.0
 20
0.0
  3
_FILLED
  1

  0
SOLID
  5
21E
100
AcDbEntity
  8
0
  6
BYBLOCK
 62
0
100
AcDbTrace
 10
0.0
 20
0.0
 11
-1.0
 21
0.25
 12
-1.0
 22
-0.25
 13
-1.0
 23
-0.25
  0
ENDBLK
  5
21F
100
AcDbEntity
  8
0
  6
BYBLOCK
 62
0
100
AcDbBlockEnd
  0
ENDSEC
  0
SECTION
  2
ENTITIES
  0
LINE
  5
220
100
AcDbEntity
  8
INTFCLR_1
100
AcDbLine
 62
7
  6
BYLAYER
 10
3.6784155226
 20
10.6525619976
 11
4.6564447345
 21
10.2317349121
  0
LINE
  5
221
100
AcDbEntity
  8
INTFCLR_1
100
AcDbLine
 62
7
  6
BYLAYER
 10
3.5674053223
 20
14.597308582
 11
3.5403963735
 21
14.62996811
  0
LINE
  5
222
100
AcDbEntity
  8
INTFCLR_1
100
AcDbLine
 62
7
  6
BYLAYER
 10
4.5669528792
 20
12.8106919314
 11
3.5674053223
 21
14.5973085818
  0
LINE
  5
223
100
AcDbEntity
  8
INTFCLR_1
100
AcDbLine
 62
7
  6
BYLAYER
 10
4.3167443896
 20
31.4370044578
 11
3.5165951177
 21
30.37013876
  0
LINE
  5
224
100
AcDbEntity
  8
INTFCLR_1
100
AcDbLine
 62
7
  6
BYLAYER
 10
4.1620195047
 20
20.4170581034
 11
3.5807391591
 21
30.2350719314
  0
LINE
  5
225
100
AcDbEntity
  8
INTFCLR_1
100
AcDbLine
 62
7
  6
BYLAYER
 10
3.5403963737
 20
14.6299681094
 11
3.6784155229
 21
10.6525619981
  0
LINE
  5
226
100
AcDbEntity
  8
INTFCLR_1
100
AcDbLine
 62
7
  6
BYLAYER
 10
4.6564447345
 20
10.2317349116
 11
4.5669528792
 21
12.8106919311
  0
LINE
  5
227
100
AcDbEntity
  8
INTFCLR_1
100
AcDbLine
 62
7
  6
BYLAYER
 10
3.5165951177
 20
19.838934854
 11
3.5403963737
 21
14.6299681094
  0
LINE
  5
228
100
AcDbEntity
  8
INTFCLR_1
100
AcDbLine
 62
7
  6
BYLAYER
 10
3.5165951177
 20
19.838934854
 11
3.516595118
 21
30.37013876
  0
LINE
  5
229
100
AcDbEntity
  8
INTFCLR_1
100
AcDbLine
 62
7
  6
BYLAYER
 10
3.9509373538
 20
20.535071933
 11
3.9509373538
 21
15.7350719335
  0
LINE
  5
22A
100
AcDbEntity
  8
INTFCLR_1
100
AcDbLine
 62
7
  6
BYLAYER
 10
4.2106173368
 20
19.55722873
 11
4.2106173368
 21
14.1263433409
  0
LINE
  5
22B
100
AcDbEntity
  8
INTFCLR_1
100
AcDbLine
 62
7
  6
BYLAYER
 10
4.3167443897
 20
36.8370033919
 11
4.3167443897
 21
31.4370044575
  0
LINE
  5
22C
100
AcDbEntity
  8
INTFCLR_1
100
AcDbLine
 62
7
  6
BYLAYER
 10
28.5810771249
 20
10.2317349121
 11
27.5769611773
 21
10.2317349139
  0
LINE
  5
22D
100
AcDbEntity
  8
INTFCLR_1
100
AcDbLine
 62
7
  6
BYLAYER
 10
4.6564447345
 20
10.2317349121
 11
5.6565276023
 21
10.2317349107
  0
LINE
  5
22E
100
AcDbEntity
  8
INTFCLR_1
100
AcDbLine
 62
7
  6
BYLAYER
 10
18.4167443897
 20
10.4959095629
 11
14.8167443897
 21
10.4959095629
  0
LINE
  5
22F
100
AcDbEntity
  8
INTFCLR_1
100
AcDbLine
 62
7
  6
BYLAYER
 10
18.4167443897
 20
10.6065944905
 11
14.8167443897
 21
10.6065944905
  0
LINE
  5
230
100
AcDbEntity
  8
INTFCLR_1
100
AcDbLine
 62
7
  6
BYLAYER
 10
18.4167443897
 20
11.1311327682
 11
14.8167443897
 21
11.1311327682
  0
LINE
  5
231
100
AcDbEntity
  8
INTFCLR_1
100
AcDbLine
 62
7
  6
BYLAYER
 10
5.6565276023
 20
10.231734914
 11
5.5670357468
 21
12.8106919274
  0
LINE
  5
232
100
AcDbEntity
  8
INTFCLR_1
100
AcDbLine
 62
7
  6
BYLAYER
 10
5.5670357468
 20
12.8106919274
 11
5.5406948764
 21
14.5973085826
  0
LINE
  5
233
100
AcDbEntity
  8
INTFCLR_1
100
AcDbLine
 62
7
  6
BYLAYER
 10
5.5406948764
 20
14.5973085826
 11
5.5167443897
 21
19.8389348541
  0
LINE
  5
234
100
AcDbEntity
  8
INTFCLR_1
100
AcDbLine
 62
7
  6
BYLAYER
 10
4.510594945
 20
14.135072172
 11
4.510594945
 21
19.4850265043
  0
LINE
  5
235
100
AcDbEntity
  8
INTFCLR_1
100
AcDbLine
 62
7
  6
BYLAYER
 10
5.1708463048
 20
16.0350719309
 11
5.1708463048
 21
20.2350719309
  0
LINE
  5
236
100
AcDbEntity
  8
INTFCLR_1
100
AcDbLine
 62
7
  6
BYLAYER
 10
5.5167443897
 20
35.0870033914
 11
5.5167443899
 21
19.8389348541
  0
LINE
  5
237
100
AcDbEntity
  8
00_COMPONENTS
100
AcDbLine
 62
7
  6
BYLAYER
 10
5.5167443897
 20
25.1350719311
 11
5.5167443897
 21
27.6350719307
  0
LINE
  5
238
100
AcDbEntity
  8
INTFCLR_1
100
AcDbLine
 62
7
  6
BYLAYER
 10
5.5595070837
 20
31.9850719322
 11
5.5595070837
 21
35.0870033916
  0
LINE
  5
239
100
AcDbEntity
  8
INTFCLR_1
100
AcDbLine
 62
7
  6
BYLAYER
 10
3.6784155229
 20
10.6525619981
 11
3.809712335
 21
13.1598348485
  0
LINE
  5
23A
100
AcDbEntity
  8
INTFCLR_1
100
AcDbLine
 62
7
  6
BYLAYER
 10
6.1618501789
 20
20.4224393367
 11
5.5808884307
 21
30.2350719315
  0
LINE
  5
23B
100
AcDbEntity
  8
INTFCLR_1
100
AcDbLine
 62
7
  6
BYLAYER
 10
5.9507880935
 20
20.5350719337
 11
5.9507880934
 21
20.2350719331
  0
LINE
  5
23C
100
AcDbEntity
  8
INTFCLR_1
100
AcDbLine
 62
7
  6
BYLAYER
 10
5.9507880934
 20
16.0350719326
 11
5.9507880935
 21
15.735071932
  0
LINE
  5
23D
100
AcDbEntity
  8
INTFCLR_1
100
AcDbLine
 62
7
  6
BYLAYER
 10
6.0449995175
 20
17.8907627999
 11
6.0448299047
 21
20.2069387218
  0
LINE
  5
23E
100
AcDbEntity
  8
INTFCLR_1
100
AcDbLine
 62
7
  6
BYLAYER
 10
6.0448299051
 20
20.2350719322
 11
6.0448299047
 21
20.2211446504
  0
LINE
  5
23F
100
AcDbEntity
  8
INTFCLR_1
100
AcDbLine
 62
7
  6
BYLAYER
 10
6.0448299047
 20
20.2211446504
 11
6.0448299047
 21
20.2069087622
  0
LINE
  5
240
100
AcDbEntity
  8
INTFCLR_1
100
AcDbLine
 62
7
  6
BYLAYER
 10
6.0448299047
 20
20.2069087622
 11
6.0448299051
 21
16.0500861687
  0
LINE
  5
241
100
AcDbEntity
  8
INTFCLR_1
100
AcDbLine
 62
7
  6
BYLAYER
 10
6.0448299051
 20
16.0489992116
 11
6.0448299051
 21
16.0350719324
  0
LINE
  5
242
100
AcDbEntity
  8
INTFCLR_1
100
AcDbLine
 62
7
  6
BYLAYER
 10
6.0448299051
 20
16.0489992116
 11
6.0448299051
 21
16.0500861687
  0
LINE
  5
243
100
AcDbEntity
  8
00_COMPONENTS
100
AcDbLine
 62
7
  6
BYLAYER
 10
6.120147942
 20
18.2350719309
 11
6.120147942
 21
17.2350719309
  0
LINE
  5
244
100
AcDbEntity
  8
INTFCLR_1
100
AcDbLine
 62
7
  6
BYLAYER
 10
6.1618501787
 20
20.422439334
 11
6.1618501787
 21
14.0084147892
  0
LINE
  5
245
100
AcDbEntity
  8
00_COMPONENTS
100
AcDbLine
 62
7
  6
BYLAYER
 10
6.1618501787
 20
18.2350719309
 11
6.1618501787
 21
17.2350719309
  0
LINE
  5
246
100
AcDbEntity
  8
INTFCLR_1
100
AcDbLine
 62
7
  6
BYLAYER
 10
6.3192236167
 20
19.2424036364
 11
6.3192236167
 21
14.0600580962
  0
LINE
  5
247
100
AcDbEntity
  8
INTFCLR_1
100
AcDbLine
 62
7
  6
BYLAYER
 10
6.3676095406
 20
19.2087042642
 11
6.3676095406
 21
14.0650641281
  0
LINE
  5
248
100
AcDbEntity
  8
INTFCLR_1
100
AcDbLine
 62
7
  6
BYLAYER
 10
6.6192236164
 20
14.0513950063
 11
6.6192236164
 21
19.3043173154
  0
LINE
  5
249
100
AcDbEntity
  8
00_COMPONENTS
100
AcDbLine
 62
7
  6
BYLAYER
 10
6.6257622697
 20
26.0350719308
 11
6.6257622697
 21
26.8350719312
  0
LINE
  5
24A
100
AcDbEntity
  8
INTFCLR_1
100
AcDbLine
 62
7
  6
BYLAYER
 10
6.045195121
 20
16.06212767
 11
6.0451690789
 21
16.0489992123
  0
LINE
  5
24B
100
AcDbEntity
  8
INTFCLR_1
100
AcDbLine
 62
7
  6
BYLAYER
 10
5.8098616071
 20
13.1598348531
 11
5.6565276023
 21
10.231734914
  0
LINE
  5
24C
100
AcDbEntity
  8
INTFCLR_1
100
AcDbLine
 62
7
  6
BYLAYER
 10
28.67056898
 20
12.8106919318
 11
27.6664530331
 21
12.8106919311
  0
LINE
  5
24D
100
AcDbEntity
  8
INTFCLR_1
100
AcDbLine
 62
7
  6
BYLAYER
 10
5.5670357465
 20
12.8106919304
 11
4.5669528792
 21
12.8106919314
  0
LINE
  5
24E
100
AcDbEntity
  8
INTFCLR_1
100
AcDbLine
 62
7
  6
BYLAYER
 10
29.4237764418
 20
13.1598348511
 11
27.423627172
 21
13.1598348483
  0
LINE
  5
24F
100
AcDbEntity
  8
INTFCLR_1
100
AcDbLine
 62
7
  6
BYLAYER
 10
5.8098616074
 20
13.1598348485
 11
3.8097123372
 21
13.1598348497
  0
LINE
  5
250
100
AcDbEntity
  8
INTFCLR_1
100
AcDbLine
 62
7
  6
BYLAYER
 10
14.8167443897
 20
13.3975735028
 11
18.4167443897
 21
13.3975735028
  0
LINE
  5
251
100
AcDbEntity
  8
INTFCLR_1
100
AcDbLine
 62
7
  6
BYLAYER
 10
7.0167443897
 20
18.5850719316
 11
7.0167443897
 21
15.0850719305
  0
LINE
  5
252
100
AcDbEntity
  8
INTFCLR_1
100
AcDbLine
 62
7
  6
BYLAYER
 10
7.06674439
 20
18.9864888702
 11
7.0667443901
 21
14.0967802376
  0
LINE
  5
253
100
AcDbEntity
  8
INTFCLR_1
100
AcDbLine
 62
7
  6
BYLAYER
 10
7.4167443897
 20
19.0350719302
 11
7.4167443897
 21
18.5850719316
  0
LINE
  5
254
100
AcDbEntity
  8
INTFCLR_1
100
AcDbLine
 62
7
  6
BYLAYER
 10
7.4167443897
 20
15.0850719305
 11
7.4167443897
 21
14.63507193
  0
LINE
  5
255
100
AcDbEntity
  8
INTFCLR_1
100
AcDbLine
 62
7
  6
BYLAYER
 10
7.6667443902
 20
15.0850719305
 11
7.6667443902
 21
18.5850719313
  0
LINE
  5
256
100
AcDbEntity
  8
INTFCLR_1
100
AcDbLine
 62
7
  6
BYLAYER
 10
8.0667443896
 20
15.0850719314
 11
8.0667443896
 21
18.5850719314
  0
LINE
  5
257
100
AcDbEntity
  8
INTFCLR_1
100
AcDbLine
 62
7
  6
BYLAYER
 10
18.5676095423
 20
14.0650641281
 11
19.2667443909
 21
14.0967802378
  0
LINE
  5
258
100
AcDbEntity
  8
INTFCLR_1
100
AcDbLine
 62
7
  6
BYLAYER
 10
7.0667443901
 20
14.0967802376
 11
6.3676095408
 21
14.0650641282
  0
LINE
  5
259
100
AcDbEntity
  8
INTFCLR_1
100
AcDbLine
 62
7
  6
BYLAYER
 10
14.8167443897
 20
13.971663481
 11
18.4167443897
 21
13.971663481
  0
LINE
  5
25A
100
AcDbEntity
  8
INTFCLR_1
100
AcDbLine
 62
7
  6
BYLAYER
 10
27.0716386032
 20
14.0084147959
 11
6.1618501762
 21
14.0084147892
  0
LINE
  5
25B
100
AcDbEntity
  8
INTFCLR_1
100
AcDbLine
 62
7
  6
BYLAYER
 10
26.614265164
 20
14.0514153173
 11
18.8192236138
 21
14.0514154417
  0
LINE
  5
25C
100
AcDbEntity
  8
INTFCLR_1
100
AcDbLine
 62
7
  6
BYLAYER
 10
14.4142651664
 20
14.0514153173
 11
6.6192236162
 21
14.0514154417
  0
LINE
  5
25D
100
AcDbEntity
  8
INTFCLR_1
100
AcDbLine
 62
7
  6
BYLAYER
 10
26.166744386
 20
14.0967802376
 11
19.2667443909
 21
14.0967802376
  0
LINE
  5
25E
100
AcDbEntity
  8
INTFCLR_1
100
AcDbLine
 62
7
  6
BYLAYER
 10
13.9667443884
 20
14.0967802376
 11
7.0667443933
 21
14.0967802376
  0
LINE
  5
25F
100
AcDbEntity
  8
INTFCLR_1
100
AcDbLine
 62
7
  6
BYLAYER
 10
29.0192508522
 20
14.1350719309
 11
4.5105949441
 21
14.1350720513
  0
LINE
  5
260
100
AcDbEntity
  8
INTFCLR_1
100
AcDbLine
 62
7
  6
BYLAYER
 10
29.6622828454
 20
14.5973085814
 11
27.6927939026
 21
14.597308587
  0
LINE
  5
261
100
AcDbEntity
  8
INTFCLR_1
100
AcDbLine
 62
7
  6
BYLAYER
 10
5.5406948766
 20
14.5973085852
 11
3.5674053223
 21
14.597308582
  0
LINE
  5
262
100
AcDbEntity
  8
INTFCLR_1
100
AcDbLine
 62
7
  6
BYLAYER
 10
29.6613021592
 20
14.6350719309
 11
27.6611528878
 21
14.6350719309
  0
LINE
  5
263
100
AcDbEntity
  8
INTFCLR_1
100
AcDbLine
 62
7
  6
BYLAYER
 10
3.5721866208
 20
14.6350719309
 11
5.572574871
 21
14.6350719309
  0
LINE
  5
264
100
AcDbEntity
  8
INTFCLR_1
100
AcDbLine
 62
7
  6
BYLAYER
 10
7.4167443875
 20
14.6350719309
 11
13.6167443874
 21
14.6350719309
  0
LINE
  5
265
100
AcDbEntity
  8
INTFCLR_1
100
AcDbLine
 62
7
  6
BYLAYER
 10
19.6167443892
 20
14.6350719309
 11
25.8167443891
 21
14.6350719309
  0
LINE
  5
266
100
AcDbEntity
  8
INTFCLR_1
100
AcDbLine
 62
7
  6
BYLAYER
 10
14.6658792366
 20
14.065064128
 11
13.96674439
 21
14.0967802376
  0
LINE
  5
267
100
AcDbEntity
  8
INTFCLR_1
100
AcDbLine
 62
7
  6
BYLAYER
 10
26.166744386
 20
14.0967802378
 11
26.8658572121
 21
14.0650651275
  0
LINE
  5
268
100
AcDbEntity
  8
INTFCLR_1
100
AcDbLine
 62
7
  6
BYLAYER
 10
3.809712335
 20
13.1598348485
 11
4.2106173367
 21
14.1263433434
  0
LINE
  5
269
100
AcDbEntity
  8
00_COMPONENTS
100
AcDbLine
 62
7
  6
BYLAYER
 10
6.6257622697
 20
26.0350719308
 11
5.5167443897
 21
25.1350719311
  0
LINE
  5
26A
100
AcDbEntity
  8
INTFCLR_1
100
AcDbLine
 62
7
  6
BYLAYER
 10
25.5667443891
 20
15.0850719309
 11
23.3167443903
 21
15.0850719305
  0
LINE
  5
26B
100
AcDbEntity
  8
INTFCLR_1
100
AcDbLine
 62
7
  6
BYLAYER
 10
22.1167443888
 20
15.0850719309
 11
19.8667443902
 21
15.0850719305
  0
LINE
  5
26C
100
AcDbEntity
  8
INTFCLR_1
100
AcDbLine
 62
7
  6
BYLAYER
 10
13.3667443891
 20
15.0850719309
 11
11.1167443905
 21
15.0850719305
  0
LINE
  5
26D
100
AcDbEntity
  8
INTFCLR_1
100
AcDbLine
 62
7
  6
BYLAYER
 10
9.9167443891
 20
15.0850719309
 11
7.6667443902
 21
15.0850719305
  0
LINE
  5
26E
100
AcDbEntity
  8
INTFCLR_1
100
AcDbLine
 62
7
  6
BYLAYER
 10
7.0167443912
 20
15.0850719309
 11
7.4167443875
 21
15.0850719309
  0
LINE
  5
26F
100
AcDbEntity
  8
INTFCLR_1
100
AcDbLine
 62
7
  6
BYLAYER
 10
13.6167443874
 20
15.0850719309
 11
14.0167443919
 21
15.0850719309
  0
LINE
  5
270
100
AcDbEntity
  8
INTFCLR_1
100
AcDbLine
 62
7
  6
BYLAYER
 10
19.2167443929
 20
15.0850719309
 11
19.6167443892
 21
15.0850719309
  0
LINE
  5
271
100
AcDbEntity
  8
INTFCLR_1
100
AcDbLine
 62
7
  6
BYLAYER
 10
25.8167443891
 20
15.0850719309
 11
26.2167443936
 21
15.0850719309
  0
LINE
  5
272
100
AcDbEntity
  8
INTFCLR_1
100
AcDbLine
 62
7
  6
BYLAYER
 10
18.4127112059
 20
15.1693971759
 11
14.8207767916
 21
15.1693971759
  0
LINE
  5
273
100
AcDbEntity
  8
INTFCLR_1
100
AcDbLine
 62
7
  6
BYLAYER
 10
15.216744389
 20
15.5877594179
 11
18.0167443876
 21
15.5877594179
  0
LINE
  5
274
100
AcDbEntity
  8
INTFCLR_1
100
AcDbLine
 62
7
  6
BYLAYER
 10
29.2825514255
 20
15.7350719309
 11
27.1878309506
 21
15.7350719309
  0
LINE
  5
275
100
AcDbEntity
  8
INTFCLR_1
100
AcDbLine
 62
7
  6
BYLAYER
 10
6.0456578289
 20
15.7350719309
 11
3.9509373537
 21
15.7350719309
  0
LINE
  5
276
100
AcDbEntity
  8
INTFCLR_1
100
AcDbLine
 62
7
  6
BYLAYER
 10
18.4167443915
 20
15.773064855
 11
14.8167443879
 21
15.773064855
  0
LINE
  5
277
100
AcDbEntity
  8
INTFCLR_1
100
AcDbLine
 62
7
  6
BYLAYER
 10
5.1708463048
 20
16.0350719309
 11
6.0448299051
 21
16.0350719317
  0
LINE
  5
278
100
AcDbEntity
  8
INTFCLR_1
100
AcDbLine
 62
7
  6
BYLAYER
 10
27.1886588742
 20
16.0350719317
 11
28.0626424745
 21
16.0350719309
  0
LINE
  5
279
100
AcDbEntity
  8
INTFCLR_1
100
AcDbLine
 62
7
  6
BYLAYER
 10
27.7587749091
 20
16.0500861682
 11
27.1886588742
 21
16.0500861682
  0
LINE
  5
27A
100
AcDbEntity
  8
INTFCLR_1
100
AcDbLine
 62
7
  6
BYLAYER
 10
6.0448299051
 20
16.0500861687
 11
5.4747138706
 21
16.0500861687
  0
LINE
  5
27B
100
AcDbEntity
  8
INTFCLR_1
100
AcDbLine
 62
7
  6
BYLAYER
 10
9.916744389
 20
18.5850719313
 11
9.916744389
 21
15.0850719305
  0
LINE
  5
27C
100
AcDbEntity
  8
INTFCLR_1
100
AcDbLine
 62
7
  6
BYLAYER
 10
26.0187267318
 20
17.5161255737
 11
27.1881072334
 21
17.6265126373
  0
LINE
  5
27D
100
AcDbEntity
  8
INTFCLR_1
100
AcDbLine
 62
7
  6
BYLAYER
 10
27.1884892638
 20
17.8908091231
 11
25.9627013194
 21
17.7780410397
  0
LINE
  5
27E
100
AcDbEntity
  8
INTFCLR_1
100
AcDbLine
 62
7
  6
BYLAYER
 10
20.4667443897
 20
16.8152997656
 11
12.7667443897
 21
16.8152997656
  0
LINE
  5
27F
100
AcDbEntity
  8
INTFCLR_1
100
AcDbLine
 62
7
  6
BYLAYER
 10
29.6613021585
 20
16.8350719309
 11
27.6611528866
 21
16.8350719309
  0
LINE
  5
280
100
AcDbEntity
  8
INTFCLR_1
100
AcDbLine
 62
7
  6
BYLAYER
 10
3.5721866208
 20
16.8350719309
 11
5.5723358918
 21
16.8350719309
  0
LINE
  5
281
100
AcDbEntity
  8
00_COMPONENTS
100
AcDbLine
 62
7
  6
BYLAYER
 10
6.1201479418
 20
17.2350719309
 11
10.9383718172
 21
17.2350719309
  0
LINE
  5
282
100
AcDbEntity
  8
00_COMPONENTS
100
AcDbLine
 62
7
  6
BYLAYER
 10
22.295116962
 20
17.2350719309
 11
27.0716386003
 21
17.2350719309
  0
LINE
  5
283
100
AcDbEntity
  8
INTFCLR_1
100
AcDbLine
 62
7
  6
BYLAYER
 10
20.4667443897
 20
17.3137320205
 11
12.7667443897
 21
17.3137320205
  0
LINE
  5
284
100
AcDbEntity
  8
INTFCLR_1
100
AcDbLine
 62
7
  6
BYLAYER
 10
20.4667443897
 20
17.3152997649
 11
12.7667443897
 21
17.3152997649
  0
LINE
  5
285
100
AcDbEntity
  8
INTFCLR_1
100
AcDbLine
 62
7
  6
BYLAYER
 10
7.2707904514
 20
17.7780405731
 11
6.0449995175
 21
17.8907627999
  0
LINE
  5
286
100
AcDbEntity
  8
INTFCLR_1
100
AcDbLine
 62
7
  6
BYLAYER
 10
6.0453813578
 20
17.6265104925
 11
7.2147644081
 21
17.5161241762
  0
LINE
  5
287
100
AcDbEntity
  8
INTFCLR_1
100
AcDbLine
 62
7
  6
BYLAYER
 10
6.3676095398
 20
19.208693813
 11
7.06674439
 21
18.9864888702
  0
LINE
  5
288
100
AcDbEntity
  8
00_COMPONENTS
100
AcDbLine
 62
7
  6
BYLAYER
 10
10.9383718173
 20
17.2350719309
 11
10.9383718173
 21
18.2350719309
  0
LINE
  5
289
100
AcDbEntity
  8
INTFCLR_1
100
AcDbLine
 62
7
  6
BYLAYER
 10
11.1167443905
 20
15.0850719305
 11
11.1167443905
 21
18.5850719313
  0
LINE
  5
28A
100
AcDbEntity
  8
INTFCLR_1
100
AcDbLine
 62
7
  6
BYLAYER
 10
11.5167443896
 20
15.0850719314
 11
11.5167443896
 21
18.5850719314
  0
LINE
  5
28B
100
AcDbEntity
  8
INTFCLR_1
100
AcDbLine
 62
7
  6
BYLAYER
 10
5.8098616074
 20
13.1598348497
 11
6.1618501762
 21
14.0084147926
  0
LINE
  5
28C
100
AcDbEntity
  8
00_COMPONENTS
100
AcDbLine
 62
7
  6
BYLAYER
 10
10.9383718172
 20
18.2350719309
 11
6.1201479418
 21
18.2350719309
  0
LINE
  5
28D
100
AcDbEntity
  8
00_COMPONENTS
100
AcDbLine
 62
7
  6
BYLAYER
 10
22.295116962
 20
18.2350719309
 11
27.0716386003
 21
18.2350719309
  0
LINE
  5
28E
100
AcDbEntity
  8
INTFCLR_1
100
AcDbLine
 62
7
  6
BYLAYER
 10
26.2167443936
 20
18.5850719309
 11
25.8167443891
 21
18.5850719309
  0
LINE
  5
28F
100
AcDbEntity
  8
INTFCLR_1
100
AcDbLine
 62
7
  6
BYLAYER
 10
19.6167443892
 20
18.5850719309
 11
19.2167443929
 21
18.5850719309
  0
LINE
  5
290
100
AcDbEntity
  8
INTFCLR_1
100
AcDbLine
 62
7
  6
BYLAYER
 10
18.0167443876
 20
18.5850719309
 11
15.216744389
 21
18.5850719309
  0
LINE
  5
291
100
AcDbEntity
  8
INTFCLR_1
100
AcDbLine
 62
7
  6
BYLAYER
 10
14.0167443919
 20
18.5850719309
 11
13.6167443874
 21
18.5850719309
  0
LINE
  5
292
100
AcDbEntity
  8
INTFCLR_1
100
AcDbLine
 62
7
  6
BYLAYER
 10
7.4167443875
 20
18.5850719309
 11
7.0167443912
 21
18.5850719309
  0
LINE
  5
293
100
AcDbEntity
  8
INTFCLR_1
100
AcDbLine
 62
7
  6
BYLAYER
 10
7.6667443902
 20
18.5850719313
 11
9.916744389
 21
18.5850719313
  0
LINE
  5
294
100
AcDbEntity
  8
INTFCLR_1
100
AcDbLine
 62
7
  6
BYLAYER
 10
11.1167443905
 20
18.5850719313
 11
13.3667443891
 21
18.5850719313
  0
LINE
  5
295
100
AcDbEntity
  8
INTFCLR_1
100
AcDbLine
 62
7
  6
BYLAYER
 10
19.8667443902
 20
18.5850719313
 11
22.1167443888
 21
18.5850719313
  0
LINE
  5
296
100
AcDbEntity
  8
INTFCLR_1
100
AcDbLine
 62
7
  6
BYLAYER
 10
23.3167443903
 20
18.5850719314
 11
25.5667443891
 21
18.5850719313
  0
LINE
  5
297
100
AcDbEntity
  8
INTFCLR_1
100
AcDbLine
 62
7
  6
BYLAYER
 10
12.7667443897
 20
20.3350719315
 11
12.7667443897
 21
16.8152997655
  0
LINE
  5
298
100
AcDbEntity
  8
INTFCLR_1
100
AcDbLine
 62
7
  6
BYLAYER
 10
12.9667443897
 20
18.5850719314
 11
12.9667443897
 21
15.0850719314
  0
LINE
  5
299
100
AcDbEntity
  8
INTFCLR_1
100
AcDbLine
 62
7
  6
BYLAYER
 10
13.9667443893
 20
18.9864888709
 11
7.0667443907
 21
18.9864888709
  0
LINE
  5
29A
100
AcDbEntity
  8
INTFCLR_1
100
AcDbLine
 62
7
  6
BYLAYER
 10
19.2667443907
 20
18.9864888702
 11
26.1667443893
 21
18.9864888702
  0
LINE
  5
29B
100
AcDbEntity
  8
INTFCLR_1
100
AcDbLine
 62
7
  6
BYLAYER
 10
25.8167443891
 20
19.0350719309
 11
19.6167443892
 21
19.0350719309
  0
LINE
  5
29C
100
AcDbEntity
  8
INTFCLR_1
100
AcDbLine
 62
7
  6
BYLAYER
 10
13.6167443874
 20
19.0350719309
 11
7.4167443875
 21
19.0350719309
  0
LINE
  5
29D
100
AcDbEntity
  8
INTFCLR_1
100
AcDbLine
 62
7
  6
BYLAYER
 10
14.4142651632
 20
19.3043173154
 11
6.6192236167
 21
19.3043173154
  0
LINE
  5
29E
100
AcDbEntity
  8
INTFCLR_1
100
AcDbLine
 62
7
  6
BYLAYER
 10
18.8192236167
 20
19.3043173159
 11
26.6142651632
 21
19.3043173159
  0
LINE
  5
29F
100
AcDbEntity
  8
INTFCLR_1
100
AcDbLine
 62
7
  6
BYLAYER
 10
29.0211291725
 20
19.4428987259
 11
4.2457565228
 21
19.4428987259
  0
LINE
  5
2A0
100
AcDbEntity
  8
INTFCLR_1
100
AcDbLine
 62
7
  6
BYLAYER
 10
29.0200510214
 20
19.4850265073
 11
4.3234960406
 21
19.4850265073
  0
LINE
  5
2A1
100
AcDbEntity
  8
INTFCLR_1
100
AcDbLine
 62
7
  6
BYLAYER
 10
29.0196509365
 20
19.4997680969
 11
4.3740578938
 21
19.4997680969
  0
LINE
  5
2A2
100
AcDbEntity
  8
INTFCLR_1
100
AcDbLine
 62
7
  6
BYLAYER
 10
4.2114164754
 20
19.528842137
 11
29.0226451412
 21
19.528842137
  0
LINE
  5
2A3
100
AcDbEntity
  8
INTFCLR_1
100
AcDbLine
 62
7
  6
BYLAYER
 10
29.027112061
 20
19.5439516799
 11
4.2063767188
 21
19.5439516799
  0
LINE
  5
2A4
100
AcDbEntity
  8
INTFCLR_1
100
AcDbLine
 62
7
  6
BYLAYER
 10
29.0260339094
 20
19.5860794557
 11
4.2074548706
 21
19.5860794557
  0
LINE
  5
2A5
100
AcDbEntity
  8
INTFCLR_1
100
AcDbLine
 62
7
  6
BYLAYER
 10
29.024627598
 20
19.6266775469
 11
4.2088611813
 21
19.6266775469
  0
LINE
  5
2A6
100
AcDbEntity
  8
INTFCLR_1
100
AcDbLine
 62
7
  6
BYLAYER
 10
4.2048607416
 20
19.629895089
 11
29.0286280309
 21
19.629895089
  0
LINE
  5
2A7
100
AcDbEntity
  8
INTFCLR_1
100
AcDbLine
 62
7
  6
BYLAYER
 10
29.0330949536
 20
19.6450046329
 11
4.2003938261
 21
19.6450046329
  0
LINE
  5
2A8
100
AcDbEntity
  8
INTFCLR_1
100
AcDbLine
 62
7
  6
BYLAYER
 10
29.0320167991
 20
19.6871324064
 11
4.2014719813
 21
19.6871324064
  0
LINE
  5
2A9
100
AcDbEntity
  8
INTFCLR_1
100
AcDbLine
 62
7
  6
BYLAYER
 10
29.0306104879
 20
19.7277304989
 11
4.2028782914
 21
19.7277304989
  0
LINE
  5
2AA
100
AcDbEntity
  8
INTFCLR_1
100
AcDbLine
 62
7
  6
BYLAYER
 10
4.1988778487
 20
19.730948044
 11
29.034610921
 21
19.730948044
  0
LINE
  5
2AB
100
AcDbEntity
  8
INTFCLR_1
100
AcDbLine
 62
7
  6
BYLAYER
 10
29.0390778466
 20
19.7460575869
 11
4.1944109331
 21
19.7460575869
  0
LINE
  5
2AC
100
AcDbEntity
  8
INTFCLR_1
100
AcDbLine
 62
7
  6
BYLAYER
 10
29.0379996923
 20
19.7881853648
 11
4.1954890831
 21
19.7881853648
  0
LINE
  5
2AD
100
AcDbEntity
  8
INTFCLR_1
100
AcDbLine
 62
7
  6
BYLAYER
 10
29.0365933778
 20
19.8287834529
 11
4.1968954015
 21
19.8287834529
  0
LINE
  5
2AE
100
AcDbEntity
  8
INTFCLR_1
100
AcDbLine
 62
7
  6
BYLAYER
 10
4.1928949586
 20
19.8320009988
 11
29.040593811
 21
19.8320009988
  0
LINE
  5
2AF
100
AcDbEntity
  8
INTFCLR_1
100
AcDbLine
 62
7
  6
BYLAYER
 10
29.7168936617
 20
19.8389348533
 11
27.7167443894
 21
19.8389348514
  0
LINE
  5
2B0
100
AcDbEntity
  8
INTFCLR_1
100
AcDbLine
 62
7
  6
BYLAYER
 10
5.5167443899
 20
19.8389348541
 11
3.5165951177
 21
19.838934854
  0
LINE
  5
2B1
100
AcDbEntity
  8
INTFCLR_1
100
AcDbLine
 62
7
  6
BYLAYER
 10
29.0450607307
 20
19.8471105409
 11
4.188428049
 21
19.8471105409
  0
LINE
  5
2B2
100
AcDbEntity
  8
INTFCLR_1
100
AcDbLine
 62
7
  6
BYLAYER
 10
29.0439825821
 20
19.8892383177
 11
4.1895061937
 21
19.8892383177
  0
LINE
  5
2B3
100
AcDbEntity
  8
INTFCLR_1
100
AcDbLine
 62
7
  6
BYLAYER
 10
29.0425762677
 20
19.9298364059
 11
4.1909125116
 21
19.9298364059
  0
LINE
  5
2B4
100
AcDbEntity
  8
INTFCLR_1
100
AcDbLine
 62
7
  6
BYLAYER
 10
4.1869120682
 20
19.9330539515
 11
29.046576701
 21
19.9330539515
  0
LINE
  5
2B5
100
AcDbEntity
  8
INTFCLR_1
100
AcDbLine
 62
7
  6
BYLAYER
 10
29.0510436241
 20
19.9481634939
 11
4.1824451555
 21
19.9481634939
  0
LINE
  5
2B6
100
AcDbEntity
  8
INTFCLR_1
100
AcDbLine
 62
7
  6
BYLAYER
 10
13.3667443891
 20
18.5850719313
 11
13.3667443891
 21
15.0850719305
  0
LINE
  5
2B7
100
AcDbEntity
  8
INTFCLR_1
100
AcDbLine
 62
7
  6
BYLAYER
 10
13.6167443897
 20
14.63507193
 11
13.6167443897
 21
15.0850719305
  0
LINE
  5
2B8
100
AcDbEntity
  8
INTFCLR_1
100
AcDbLine
 62
7
  6
BYLAYER
 10
13.6167443897
 20
18.5850719316
 11
13.6167443897
 21
19.0350719302
  0
LINE
  5
2B9
100
AcDbEntity
  8
INTFCLR_1
100
AcDbLine
 62
7
  6
BYLAYER
 10
13.96674439
 20
14.0967802376
 11
13.9667443896
 21
18.9864888702
  0
LINE
  5
2BA
100
AcDbEntity
  8
INTFCLR_1
100
AcDbLine
 62
7
  6
BYLAYER
 10
14.0167443897
 20
15.0850719305
 11
14.0167443897
 21
18.5850719316
  0
LINE
  5
2BB
100
AcDbEntity
  8
INTFCLR_1
100
AcDbLine
 62
7
  6
BYLAYER
 10
29.0499654721
 20
19.99029127
 11
4.1835233035
 21
19.99029127
  0
LINE
  5
2BC
100
AcDbEntity
  8
INTFCLR_1
100
AcDbLine
 62
7
  6
BYLAYER
 10
29.0485591576
 20
20.0308893599
 11
4.1849296217
 21
20.0308893599
  0
LINE
  5
2BD
100
AcDbEntity
  8
INTFCLR_1
100
AcDbLine
 62
7
  6
BYLAYER
 10
4.1809291808
 20
20.034106907
 11
29.052559591
 21
20.034106907
  0
LINE
  5
2BE
100
AcDbEntity
  8
INTFCLR_1
100
AcDbLine
 62
7
  6
BYLAYER
 10
29.0570265171
 20
20.0492164479
 11
4.1764622709
 21
20.0492164479
  0
LINE
  5
2BF
100
AcDbEntity
  8
INTFCLR_1
100
AcDbLine
 62
7
  6
BYLAYER
 10
29.055948362
 20
20.0913442245
 11
4.1775404135
 21
20.0913442245
  0
LINE
  5
2C0
100
AcDbEntity
  8
INTFCLR_1
100
AcDbLine
 62
7
  6
BYLAYER
 10
29.0545420475
 20
20.1319423149
 11
4.1789467317
 21
20.1319423149
  0
LINE
  5
2C1
100
AcDbEntity
  8
INTFCLR_1
100
AcDbLine
 62
7
  6
BYLAYER
 10
4.1749462926
 20
20.1351598588
 11
29.0585424808
 21
20.1351598588
  0
LINE
  5
2C2
100
AcDbEntity
  8
INTFCLR_1
100
AcDbLine
 62
7
  6
BYLAYER
 10
29.0630094026
 20
20.1502694009
 11
4.1704793771
 21
20.1502694009
  0
LINE
  5
2C3
100
AcDbEntity
  8
INTFCLR_1
100
AcDbLine
 62
7
  6
BYLAYER
 10
29.0619312487
 20
20.1923971752
 11
4.1715575317
 21
20.1923971752
  0
LINE
  5
2C4
100
AcDbEntity
  8
INTFCLR_1
100
AcDbLine
 62
7
  6
BYLAYER
 10
5.4747138701
 20
20.2200576934
 11
6.0448299051
 21
20.2200576934
  0
LINE
  5
2C5
100
AcDbEntity
  8
INTFCLR_1
100
AcDbLine
 62
7
  6
BYLAYER
 10
27.1886588742
 20
20.220057693
 11
27.7587749086
 21
20.220057693
  0
LINE
  5
2C6
100
AcDbEntity
  8
INTFCLR_1
100
AcDbLine
 62
7
  6
BYLAYER
 10
29.0605249374
 20
20.2329952669
 11
4.1729638418
 21
20.2329952669
  0
LINE
  5
2C7
100
AcDbEntity
  8
INTFCLR_1
100
AcDbLine
 62
7
  6
BYLAYER
 10
28.0626424745
 20
20.2350719309
 11
27.1886588744
 21
20.2350719309
  0
LINE
  5
2C8
100
AcDbEntity
  8
INTFCLR_1
100
AcDbLine
 62
7
  6
BYLAYER
 10
6.0448299049
 20
20.2350719309
 11
5.1708463048
 21
20.2350719309
  0
LINE
  5
2C9
100
AcDbEntity
  8
INTFCLR_1
100
AcDbLine
 62
7
  6
BYLAYER
 10
4.1689634007
 20
20.2362128138
 11
29.0645253708
 21
20.2362128138
  0
LINE
  5
2CA
100
AcDbEntity
  8
INTFCLR_1
100
AcDbLine
 62
7
  6
BYLAYER
 10
29.0689795575
 20
20.2513223549
 11
4.1645092228
 21
20.2513223549
  0
LINE
  5
2CB
100
AcDbEntity
  8
INTFCLR_1
100
AcDbLine
 62
7
  6
BYLAYER
 10
29.0679141394
 20
20.2934501289
 11
4.16557464
 21
20.2934501289
  0
LINE
  5
2CC
100
AcDbEntity
  8
INTFCLR_1
100
AcDbLine
 62
7
  6
BYLAYER
 10
29.0665078273
 20
20.3340482209
 11
4.1669809519
 21
20.3340482209
  0
LINE
  5
2CD
100
AcDbEntity
  8
INTFCLR_1
100
AcDbLine
 62
7
  6
BYLAYER
 10
12.7667443897
 20
20.3350719314
 11
20.4667443897
 21
20.3350719314
  0
LINE
  5
2CE
100
AcDbEntity
  8
INTFCLR_1
100
AcDbLine
 62
7
  6
BYLAYER
 10
4.1629542232
 20
20.3445442329
 11
29.0705345576
 21
20.3445442329
  0
LINE
  5
2CF
100
AcDbEntity
  8
INTFCLR_1
100
AcDbLine
 62
7
  6
BYLAYER
 10
29.0714692727
 20
20.4170581037
 11
4.1620195081
 21
20.4170581037
  0
LINE
  5
2D0
100
AcDbEntity
  8
INTFCLR_1
100
AcDbLine
 62
7
  6
BYLAYER
 10
6.1618501789
 20
20.422439334
 11
27.0716386004
 21
20.422439339
  0
LINE
  5
2D1
100
AcDbEntity
  8
INTFCLR_1
100
AcDbLine
 62
7
  6
BYLAYER
 10
6.0456577647
 20
20.5350719296
 11
3.9509373537
 21
20.5350719309
  0
LINE
  5
2D2
100
AcDbEntity
  8
INTFCLR_1
100
AcDbLine
 62
7
  6
BYLAYER
 10
27.1878310136
 20
20.5350719288
 11
29.2825514255
 21
20.5350719309
  0
LINE
  5
2D3
100
AcDbEntity
  8
INTFCLR_1
100
AcDbLine
 62
7
  6
BYLAYER
 10
19.2667443907
 20
18.9864888709
 11
18.5676095405
 21
19.2086938131
  0
LINE
  5
2D4
100
AcDbEntity
  8
00_COMPONENTS
100
AcDbLine
 62
7
  6
BYLAYER
 10
5.5167443897
 20
27.6350719307
 11
6.6257622697
 21
26.8350719312
  0
LINE
  5
2D5
100
AcDbEntity
  8
INTFCLR_1
100
AcDbLine
 62
7
  6
BYLAYER
 10
14.4142651644
 20
14.0514151986
 11
14.4142651644
 21
19.3043173154
  0
LINE
  5
2D6
100
AcDbEntity
  8
INTFCLR_1
100
AcDbLine
 62
7
  6
BYLAYER
 10
14.6658792378
 20
19.2086938129
 11
14.6658792378
 21
14.0650640905
  0
LINE
  5
2D7
100
AcDbEntity
  8
INTFCLR_1
100
AcDbLine
 62
7
  6
BYLAYER
 10
14.7142651627
 20
19.2424074165
 11
14.7142651627
 21
14.06025205
  0
LINE
  5
2D8
100
AcDbEntity
  8
INTFCLR_1
100
AcDbLine
 62
7
  6
BYLAYER
 10
14.8167443879
 20
16.8762520111
 11
14.8167443897
 21
10.4959095629
  0
LINE
  5
2D9
100
AcDbEntity
  8
INTFCLR_1
100
AcDbLine
 62
7
  6
BYLAYER
 10
14.8207861498
 20
17.0383596646
 11
14.8207861498
 21
15.1773643138
  0
LINE
  5
2DA
100
AcDbEntity
  8
INTFCLR_1
100
AcDbLine
 62
7
  6
BYLAYER
 10
15.2167443897
 20
18.5850719316
 11
15.2167443897
 21
15.5877594179
  0
LINE
  5
2DB
100
AcDbEntity
  8
INTFCLR_1
100
AcDbLine
 62
7
  6
BYLAYER
 10
18.0167443897
 20
15.5877594179
 11
18.0167443897
 21
18.5850719316
  0
LINE
  5
2DC
100
AcDbEntity
  8
INTFCLR_1
100
AcDbLine
 62
7
  6
BYLAYER
 10
18.4127026295
 20
17.0383596646
 11
18.4127026295
 21
15.1773643138
  0
LINE
  5
2DD
100
AcDbEntity
  8
INTFCLR_1
100
AcDbLine
 62
7
  6
BYLAYER
 10
18.416744389
 20
16.8762520097
 11
18.4167443897
 21
10.4959095629
  0
LINE
  5
2DE
100
AcDbEntity
  8
INTFCLR_1
100
AcDbLine
 62
7
  6
BYLAYER
 10
18.5192236167
 20
19.2424036364
 11
18.5192236167
 21
14.0600580962
  0
LINE
  5
2DF
100
AcDbEntity
  8
INTFCLR_1
100
AcDbLine
 62
7
  6
BYLAYER
 10
18.5676095416
 20
14.0650641281
 11
18.5676095416
 21
19.2087042639
  0
LINE
  5
2E0
100
AcDbEntity
  8
INTFCLR_1
100
AcDbLine
 62
7
  6
BYLAYER
 10
18.8192236152
 20
19.3043173153
 11
18.8192236152
 21
14.0513950063
  0
LINE
  5
2E1
100
AcDbEntity
  8
INTFCLR_1
100
AcDbLine
 62
7
  6
BYLAYER
 10
19.2167443897
 20
18.5850719316
 11
19.2167443897
 21
15.0850719305
  0
LINE
  5
2E2
100
AcDbEntity
  8
INTFCLR_1
100
AcDbLine
 62
7
  6
BYLAYER
 10
19.2667443909
 20
14.0967802376
 11
19.2667443907
 21
18.9864888702
  0
LINE
  5
2E3
100
AcDbEntity
  8
INTFCLR_1
100
AcDbLine
 62
7
  6
BYLAYER
 10
5.5845538058
 20
25.5350719309
 11
27.6489349763
 21
25.5350719309
  0
LINE
  5
2E4
100
AcDbEntity
  8
INTFCLR_1
100
AcDbLine
 62
7
  6
BYLAYER
 10
19.6167443897
 20
19.0350719302
 11
19.6167443897
 21
18.5850719316
  0
LINE
  5
2E5
100
AcDbEntity
  8
INTFCLR_1
100
AcDbLine
 62
7
  6
BYLAYER
 10
19.6167443897
 20
15.0850719305
 11
19.6167443897
 21
14.63507193
  0
LINE
  5
2E6
100
AcDbEntity
  8
INTFCLR_1
100
AcDbLine
 62
7
  6
BYLAYER
 10
19.8667443897
 20
18.5850719313
 11
19.8667443897
 21
15.0850719305
  0
LINE
  5
2E7
100
AcDbEntity
  8
INTFCLR_1
100
AcDbLine
 62
7
  6
BYLAYER
 10
20.2667443894
 20
18.5850719314
 11
20.2667443894
 21
15.0850719314
  0
LINE
  5
2E8
100
AcDbEntity
  8
INTFCLR_1
100
AcDbLine
 62
7
  6
BYLAYER
 10
20.4667443897
 20
20.3350719315
 11
20.4667443897
 21
16.8152997658
  0
LINE
  5
2E9
100
AcDbEntity
  8
00_COMPONENTS
100
AcDbLine
 62
7
  6
BYLAYER
 10
26.6077265097
 20
26.8350719312
 11
27.7167443897
 21
27.6350719307
  0
LINE
  5
2EA
100
AcDbEntity
  8
INTFCLR_1
100
AcDbLine
 62
7
  6
BYLAYER
 10
13.9667443896
 20
18.9864888702
 11
14.6658792397
 21
19.2086938134
  0
LINE
  5
2EB
100
AcDbEntity
  8
INTFCLR_1
100
AcDbLine
 62
7
  6
BYLAYER
 10
5.584553803
 20
27.2350719309
 11
27.6489349735
 21
27.2350719309
  0
LINE
  5
2EC
100
AcDbEntity
  8
INTFCLR_1
100
AcDbLine
 62
7
  6
BYLAYER
 10
21.7167443899
 20
15.0850719314
 11
21.7167443899
 21
18.5850719314
  0
LINE
  5
2ED
100
AcDbEntity
  8
INTFCLR_1
100
AcDbLine
 62
7
  6
BYLAYER
 10
22.1167443895
 20
15.0850719305
 11
22.1167443895
 21
18.5850719313
  0
LINE
  5
2EE
100
AcDbEntity
  8
00_COMPONENTS
100
AcDbLine
 62
7
  6
BYLAYER
 10
22.2951169619
 20
18.2350719309
 11
22.2951169619
 21
17.2350719309
  0
LINE
  5
2EF
100
AcDbEntity
  8
INTFCLR_1
100
AcDbLine
 62
7
  6
BYLAYER
 10
27.0716386032
 20
14.0084147926
 11
27.423627172
 21
13.1598348497
  0
LINE
  5
2F0
100
AcDbEntity
  8
INTFCLR_1
100
AcDbLine
 62
7
  6
BYLAYER
 10
23.3167443903
 20
18.5850719314
 11
23.3167443903
 21
15.0850719314
  0
LINE
  5
2F1
100
AcDbEntity
  8
INTFCLR_1
100
AcDbLine
 62
7
  6
BYLAYER
 10
26.8658792395
 20
19.2086938131
 11
26.1667443893
 21
18.9864888709
  0
LINE
  5
2F2
100
AcDbEntity
  8
INTFCLR_1
100
AcDbLine
 62
7
  6
BYLAYER
 10
29.65274962
 20
30.2350719309
 11
27.6526003486
 21
30.2350719309
  0
LINE
  5
2F3
100
AcDbEntity
  8
INTFCLR_1
100
AcDbLine
 62
7
  6
BYLAYER
 10
5.5808884311
 20
30.2350719309
 11
3.5807391591
 21
30.2350719309
  0
LINE
  5
2F4
100
AcDbEntity
  8
INTFCLR_1
100
AcDbLine
 62
7
  6
BYLAYER
 10
25.1667443899
 20
15.0850719314
 11
25.1667443899
 21
18.5850719314
  0
LINE
  5
2F5
100
AcDbEntity
  8
INTFCLR_1
100
AcDbLine
 62
7
  6
BYLAYER
 10
5.5595069584
 20
31.9850719315
 11
4.3167443903
 21
31.9850719315
  0
LINE
  5
2F6
100
AcDbEntity
  8
INTFCLR_1
100
AcDbLine
 62
7
  6
BYLAYER
 10
27.6739817936
 20
31.9850719296
 11
28.916744389
 21
31.9850719296
  0
LINE
  5
2F7
100
AcDbEntity
  8
00_COMPONENTS
100
AcDbLine
 62
7
  6
BYLAYER
 10
27.7167443897
 20
25.1350719311
 11
26.6077265097
 21
26.0350719308
  0
LINE
  5
2F8
100
AcDbEntity
  8
INTFCLR_1
100
AcDbLine
 62
7
  6
BYLAYER
 10
29.0192508487
 20
14.1350719313
 11
29.4237764442
 21
13.1598348527
  0
LINE
  5
2F9
100
AcDbEntity
  8
INTFCLR_1
100
AcDbLine
 62
7
  6
BYLAYER
 10
25.5667443896
 20
15.0850719305
 11
25.5667443896
 21
18.5850719313
  0
LINE
  5
2FA
100
AcDbEntity
  8
INTFCLR_1
100
AcDbLine
 62
7
  6
BYLAYER
 10
25.8167443897
 20
14.63507193
 11
25.8167443897
 21
15.0850719305
  0
LINE
  5
2FB
100
AcDbEntity
  8
INTFCLR_1
100
AcDbLine
 62
7
  6
BYLAYER
 10
25.8167443897
 20
18.5850719316
 11
25.8167443897
 21
19.0350719302
  0
LINE
  5
2FC
100
AcDbEntity
  8
INTFCLR_1
100
AcDbLine
 62
7
  6
BYLAYER
 10
26.1667443893
 20
18.9864888702
 11
26.166744386
 21
14.0967802376
  0
LINE
  5
2FD
100
AcDbEntity
  8
INTFCLR_1
100
AcDbLine
 62
7
  6
BYLAYER
 10
26.2167443897
 20
15.0850719305
 11
26.2167443897
 21
18.5850719316
  0
LINE
  5
2FE
100
AcDbEntity
  8
00_COMPONENTS
100
AcDbLine
 62
7
  6
BYLAYER
 10
26.6077265097
 20
26.8350719312
 11
26.6077265097
 21
26.0350719308
  0
LINE
  5
2FF
100
AcDbEntity
  8
INTFCLR_1
100
AcDbLine
 62
7
  6
BYLAYER
 10
26.6142651632
 20
19.3043173154
 11
26.6142651632
 21
14.0514151986
  0
LINE
  5
300
100
AcDbEntity
  8
INTFCLR_1
100
AcDbLine
 62
7
  6
BYLAYER
 10
27.423627172
 20
13.1598348483
 11
27.5769611773
 21
10.2317349107
  0
LINE
  5
301
100
AcDbEntity
  8
INTFCLR_1
100
AcDbLine
 62
7
  6
BYLAYER
 10
27.1883197177
 20
16.0489992124
 11
27.1882936587
 21
16.0621276702
  0
LINE
  5
302
100
AcDbEntity
  8
INTFCLR_1
100
AcDbLine
 62
7
  6
BYLAYER
 10
26.8658792388
 20
19.2086938132
 11
26.8658792388
 21
14.0650640906
  0
LINE
  5
303
100
AcDbEntity
  8
INTFCLR_1
100
AcDbLine
 62
7
  6
BYLAYER
 10
26.9142651627
 20
19.2424074704
 11
26.9142651627
 21
14.0602520293
  0
LINE
  5
304
100
AcDbEntity
  8
00_COMPONENTS
100
AcDbLine
 62
7
  6
BYLAYER
 10
27.0716386007
 20
17.2350719309
 11
27.0716386007
 21
18.2350719309
  0
LINE
  5
305
100
AcDbEntity
  8
INTFCLR_1
100
AcDbLine
 62
7
  6
BYLAYER
 10
27.0716386006
 20
14.0084147959
 11
27.0716386007
 21
20.422439339
  0
LINE
  5
306
100
AcDbEntity
  8
INTFCLR_1
100
AcDbLine
 62
7
  6
BYLAYER
 10
27.1886588742
 20
16.0500861682
 11
27.1886588742
 21
16.0489986526
  0
LINE
  5
307
100
AcDbEntity
  8
INTFCLR_1
100
AcDbLine
 62
7
  6
BYLAYER
 10
27.1886588742
 20
16.0350719322
 11
27.1886588742
 21
16.0489985072
  0
LINE
  5
308
100
AcDbEntity
  8
INTFCLR_1
100
AcDbLine
 62
7
  6
BYLAYER
 10
27.1886588747
 20
20.2069386785
 11
27.1886588747
 21
20.221141633
  0
LINE
  5
309
100
AcDbEntity
  8
INTFCLR_1
100
AcDbLine
 62
7
  6
BYLAYER
 10
27.1886588742
 20
20.221141646
 11
27.1886588742
 21
20.2350719297
  0
LINE
  5
30A
100
AcDbEntity
  8
INTFCLR_1
100
AcDbLine
 62
7
  6
BYLAYER
 10
27.1886588742
 20
16.0500861682
 11
27.1886588747
 21
20.2069386785
  0
LINE
  5
30B
100
AcDbEntity
  8
INTFCLR_1
100
AcDbLine
 62
7
  6
BYLAYER
 10
27.2827006859
 20
15.7350719322
 11
27.2827006859
 21
16.0350719315
  0
LINE
  5
30C
100
AcDbEntity
  8
INTFCLR_1
100
AcDbLine
 62
7
  6
BYLAYER
 10
27.2827006859
 20
20.235071931
 11
27.2827006859
 21
20.5350719304
  0
LINE
  5
30D
100
AcDbEntity
  8
INTFCLR_1
100
AcDbLine
 62
7
  6
BYLAYER
 10
27.6739816957
 20
35.0870033893
 11
27.6739816956
 21
31.9850719273
  0
LINE
  5
30E
100
AcDbEntity
  8
00_COMPONENTS
100
AcDbLine
 62
7
  6
BYLAYER
 10
27.7167443897
 20
27.6350719307
 11
27.7167443897
 21
25.1350719311
  0
LINE
  5
30F
100
AcDbEntity
  8
INTFCLR_1
100
AcDbLine
 62
7
  6
BYLAYER
 10
27.7167443894
 20
19.8389348514
 11
27.7167443897
 21
35.0870033894
  0
LINE
  5
310
100
AcDbEntity
  8
INTFCLR_1
100
AcDbLine
 62
7
  6
BYLAYER
 10
27.1886588747
 20
20.206938668
 11
27.1884892638
 21
17.8908091231
  0
LINE
  5
311
100
AcDbEntity
  8
INTFCLR_1
100
AcDbLine
 62
7
  6
BYLAYER
 10
27.6927939026
 20
14.597308587
 11
27.7167443894
 21
19.8389348515
  0
LINE
  5
312
100
AcDbEntity
  8
INTFCLR_1
100
AcDbLine
 62
7
  6
BYLAYER
 10
27.6664530331
 20
12.8106919311
 11
27.6927939026
 21
14.597308587
  0
LINE
  5
313
100
AcDbEntity
  8
INTFCLR_1
100
AcDbLine
 62
7
  6
BYLAYER
 10
27.6526003486
 20
30.2350719313
 11
27.0716386004
 21
20.4224393369
  0
LINE
  5
314
100
AcDbEntity
  8
INTFCLR_1
100
AcDbLine
 62
7
  6
BYLAYER
 10
29.4237764442
 20
13.1598348527
 11
29.5549840248
 21
10.6542659867
  0
LINE
  5
315
100
AcDbEntity
  8
INTFCLR_1
100
AcDbLine
 62
7
  6
BYLAYER
 10
28.0626424745
 20
20.2350719309
 11
28.0626424745
 21
16.0350719309
  0
LINE
  5
316
100
AcDbEntity
  8
INTFCLR_1
100
AcDbLine
 62
7
  6
BYLAYER
 10
28.9167443897
 20
36.8370033919
 11
28.9167443898
 21
31.4370044575
  0
LINE
  5
317
100
AcDbEntity
  8
INTFCLR_1
100
AcDbLine
 62
7
  6
BYLAYER
 10
29.0192508522
 20
14.1350719313
 11
29.0192508473
 21
19.4850265068
  0
LINE
  5
318
100
AcDbEntity
  8
INTFCLR_1
100
AcDbLine
 62
7
  6
BYLAYER
 10
27.5769611773
 20
10.2317349139
 11
27.6664530331
 21
12.8106919313
  0
LINE
  5
319
100
AcDbEntity
  8
INTFCLR_1
100
AcDbLine
 62
7
  6
BYLAYER
 10
28.5810771247
 20
10.2317349124
 11
28.67056898
 21
12.8106919312
  0
LINE
  5
31A
100
AcDbEntity
  8
INTFCLR_1
100
AcDbLine
 62
7
  6
BYLAYER
 10
4.3167443897
 20
35.0870033916
 11
5.5595070837
 21
35.0870033918
  0
LINE
  5
31B
100
AcDbEntity
  8
INTFCLR_1
100
AcDbLine
 62
7
  6
BYLAYER
 10
27.6739813994
 20
35.0870033906
 11
28.9167443897
 21
35.0870033906
  0
LINE
  5
31C
100
AcDbEntity
  8
INTFCLR_1
100
AcDbLine
 62
7
  6
BYLAYER
 10
29.2825514255
 20
15.7350719311
 11
29.2825514255
 21
20.5350719306
  0
LINE
  5
31D
100
AcDbEntity
  8
INTFCLR_1
100
AcDbLine
 62
7
  6
BYLAYER
 10
29.7168936617
 20
19.8389348533
 11
29.7168936617
 21
30.3701387592
  0
LINE
  5
31E
100
AcDbEntity
  8
INTFCLR_1
100
AcDbLine
 62
7
  6
BYLAYER
 10
29.6931149039
 20
14.6348919063
 11
29.7168936617
 21
19.8389348533
  0
LINE
  5
31F
100
AcDbEntity
  8
INTFCLR_1
100
AcDbLine
 62
7
  6
BYLAYER
 10
29.6931149025
 20
14.6348919077
 11
29.5549840255
 21
10.6542659863
  0
LINE
  5
320
100
AcDbEntity
  8
INTFCLR_1
100
AcDbLine
 62
7
  6
BYLAYER
 10
29.6527496202
 20
30.2350719282
 11
29.0714692745
 21
20.4170581039
  0
LINE
  5
321
100
AcDbEntity
  8
INTFCLR_1
100
AcDbLine
 62
7
  6
BYLAYER
 10
28.9167443897
 20
36.8370033919
 11
27.6953630425
 21
36.8370033919
  0
LINE
  5
322
100
AcDbEntity
  8
INTFCLR_1
100
AcDbLine
 62
7
  6
BYLAYER
 10
4.3167443897
 20
36.8370033919
 11
5.5381257366
 21
36.8370033919
  0
LINE
  5
323
100
AcDbEntity
  8
INTFCLR_1
100
AcDbLine
 62
7
  6
BYLAYER
 10
28.9167443898
 20
31.4370044575
 11
29.7168936614
 21
30.3701387592
  0
LINE
  5
324
100
AcDbEntity
  8
INTFCLR_1
100
AcDbLine
 62
7
  6
BYLAYER
 10
28.67056898
 20
12.8106919312
 11
29.6622828455
 21
14.5973085819
  0
LINE
  5
325
100
AcDbEntity
  8
INTFCLR_1
100
AcDbLine
 62
7
  6
BYLAYER
 10
29.6622828455
 20
14.5973085819
 11
29.6931149025
 21
14.6348919077
  0
LINE
  5
326
100
AcDbEntity
  8
INTFCLR_1
100
AcDbLine
 62
7
  6
BYLAYER
 10
29.5549840255
 20
10.6542659863
 11
28.5810771247
 21
10.2317349124
  0
ARC
  5
327
100
AcDbEntity
  8
INTFCLR_1
100
AcDbCircle
 62
7
  6
BYLAYER
 10
52.1399211506
 20
16.6380000126
 40
24.9582715307
100
AcDbArc
 50
181.0229042372
 51
181.3221261097
  0
ARC
  5
328
100
AcDbEntity
  8
INTFCLR_1
100
AcDbCircle
 62
7
  6
BYLAYER
 10
-18.8871822735
 20
16.6376055934
 40
24.9390174566
100
AcDbArc
 50
358.67775936
 51
358.9772122433
  0
ARC
  5
329
100
AcDbEntity
  8
INTFCLR_1
100
AcDbCircle
 62
7
  6
BYLAYER
 10
11.4169879207
 20
15.18160475
 40
3.4038142342
100
AcDbArc
 50
357.2023328713
 51
359.7945114977
  0
ARC
  5
32A
100
AcDbEntity
  8
INTFCLR_1
100
AcDbCircle
 62
7
  6
BYLAYER
 10
21.7999257504
 20
15.1811666538
 40
3.3872340971
100
AcDbArc
 50
180.1990835503
 51
182.8042657191
  0
ARC
  5
32B
100
AcDbEntity
  8
INTFCLR_1
100
AcDbCircle
 62
7
  6
BYLAYER
 10
28.2765128818
 20
18.1350947327
 40
2.3412014979
100
AcDbArc
 50
117.7275022279
 51
191.036187882
  0
ARC
  5
32C
100
AcDbEntity
  8
INTFCLR_1
100
AcDbCircle
 62
7
  6
BYLAYER
 10
4.9569758975
 20
18.1350947327
 40
2.3412014979
100
AcDbArc
 50
348.9638121012
 51
62.2724977721
  0
ARC
  5
32D
100
AcDbEntity
  8
INTFCLR_1
100
AcDbCircle
 62
7
  6
BYLAYER
 10
4.9803426736
 20
18.1309346784
 40
2.3174739082
100
AcDbArc
 50
344.6156410626
 51
351.2411916292
  0
ARC
  5
32E
100
AcDbEntity
  8
INTFCLR_1
100
AcDbCircle
 62
7
  6
BYLAYER
 10
28.2410096501
 20
18.1283415904
 40
2.3050748613
100
AcDbArc
 50
188.7410418476
 51
195.4022268991
  0
SPLINE
  5
32F
100
AcDbEntity
  8
INTFCLR_1
100
AcDbSpline
 62
7
  6
BYLAYER
 70
0
 71
3
 72
43
 73
39
 74
0
 42
0.0000001
 43
0.0000001
 44
0.0000000001
 40
0.0
 40
0.0
 40
0.0
 40
0.0
 40
0.0019652471
 40
0.0076788702
 40
0.0171298861
 40
0.0302350858
 40
0.0469435394
 40
0.0671060725
 40
0.0905649068
 40
0.1170905757
 40
0.146526355
 40
0.1786826217
 40
0.2132884081
 40
0.2500658119
 40
0.2887305807
 40
0.3290627678
 40
0.3706876847
 40
0.4132827566
 40
0.4565230688
 40
0.5000817876
 40
0.5436317619
 40
0.5868462606
 40
0.6294018287
 40
0.6709805994
 40
0.7112671222
 40
0.7498924811
 40
0.7866390014
 40
0.8212251683
 40
0.8533822057
 40
0.8828436737
 40
0.9093963435
 40
0.932865137
 40
0.9530279978
 40
0.9697354944
 40
0.9828435503
 40
0.992303154
 40
0.9980282697
 40
1.0
 40
1.0
 40
1.0
 40
1.0
 10
29.6613021904
 20
14.6350873307
 30
0.0
 10
29.6627437884
 20
14.6350873307
 30
0.0
 10
29.661970798
 20
14.643785146
 30
0.0
 10
29.6644832716
 20
14.6533583116
 30
0.0
 10
29.6646893246
 20
14.6757345488
 30
0.0
 10
29.6661373778
 20
14.7037897317
 30
0.0
 10
29.6670476809
 20
14.7407147908
 30
0.0
 10
29.6681195494
 20
14.7848582741
 30
0.0
 10
29.6690761163
 20
14.8363386949
 30
0.0
 10
29.669999748
 20
14.894579109
 30
0.0
 10
29.6708527336
 20
14.9592152463
 30
0.0
 10
29.6716378435
 20
15.0297753687
 30
0.0
 10
29.6723454685
 20
15.1057233087
 30
0.0
 10
29.6729705153
 20
15.1864460013
 30
0.0
 10
29.6735080841
 20
15.2713701005
 30
0.0
 10
29.6739538803
 20
15.3598506123
 30
0.0
 10
29.6743042665
 20
15.4512146385
 30
0.0
 10
29.6745563385
 20
15.5447122345
 30
0.0
 10
29.6747082229
 20
15.6396285801
 30
0.0
 10
29.674758837
 20
15.7352454975
 30
0.0
 10
29.6747078609
 20
15.8308434792
 30
0.0
 10
29.6745557263
 20
15.9257054967
 30
0.0
 10
29.6743036063
 20
16.0191213286
 30
0.0
 10
29.673953417
 20
16.1103890298
 30
0.0
 10
29.6735080466
 20
16.1987732863
 30
0.0
 10
29.6729710771
 20
16.2836123271
 30
0.0
 10
29.6723467228
 20
16.364269068
 30
0.0
 10
29.6716397363
 20
16.440180531
 30
0.0
 10
29.6708549583
 20
16.5107456752
 30
0.0
 10
29.6700018599
 20
16.5754210316
 30
0.0
 10
29.6690778257
 20
16.6337073947
 30
0.0
 10
29.6681210382
 20
16.6852151665
 30
0.0
 10
29.6670492574
 20
16.7293655574
 30
0.0
 10
29.6661394537
 20
16.7662920684
 30
0.0
 10
29.6646912593
 20
16.7943551739
 30
0.0
 10
29.6644871109
 20
16.81674925
 30
0.0
 10
29.6619691028
 20
16.8263366147
 30
0.0
 10
29.6627485808
 20
16.8350566617
 30
0.0
 10
29.6613022271
 20
16.8350566617
 30
0.0
  0
SPLINE
  5
330
100
AcDbEntity
  8
INTFCLR_1
100
AcDbSpline
 62
7
  6
BYLAYER
 70
0
 71
3
 72
43
 73
39
 74
0
 42
0.0000001
 43
0.0000001
 44
0.0000000001
 40
0.0
 40
0.0
 40
0.0
 40
0.0
 40
0.0019653645
 40
0.0076789859
 40
0.0171299994
 40
0.0302351967
 40
0.0469436472
 40
0.0671061764
 40
0.0905650064
 40
0.1170906704
 40
0.1465264444
 40
0.1786827053
 40
0.2132884856
 40
0.2500658829
 40
0.2887306451
 40
0.3290628252
 40
0.3706877349
 40
0.4132827996
 40
0.4565231044
 40
0.5000818158
 40
0.5436317829
 40
0.5868462743
 40
0.6294018354
 40
0.6709805992
 40
0.7112671154
 40
0.7498924681
 40
0.7866389825
 40
0.8212251439
 40
0.8533821762
 40
0.8828436397
 40
0.9093963054
 40
0.9328650955
 40
0.9530279534
 40
0.9697354477
 40
0.982843502
 40
0.9923031046
 40
0.99802822
 40
1.0
 40
1.0
 40
1.0
 40
1.0
 10
27.6611528484
 20
16.8350567805
 30
0.0
 10
27.6625945327
 20
16.8350567805
 30
0.0
 10
27.661821519
 20
16.8263588064
 30
0.0
 10
27.6643339929
 20
16.8167855366
 30
0.0
 10
27.6645400554
 20
16.794409323
 30
0.0
 10
27.6659881045
 20
16.7663541313
 30
0.0
 10
27.6668984092
 20
16.7294290767
 30
0.0
 10
27.6679702771
 20
16.685285593
 30
0.0
 10
27.6689268442
 20
16.6338051737
 30
0.0
 10
27.6698504758
 20
16.5755647603
 30
0.0
 10
27.6707034615
 20
16.5109286239
 30
0.0
 10
27.6714885714
 20
16.4403685024
 30
0.0
 10
27.6721961964
 20
16.3644205631
 30
0.0
 10
27.6728212432
 20
16.2836978711
 30
0.0
 10
27.673358812
 20
16.1987737725
 30
0.0
 10
27.6738046082
 20
16.1102932613
 30
0.0
 10
27.6741549944
 20
16.0189292355
 30
0.0
 10
27.6744070664
 20
15.9254316398
 30
0.0
 10
27.6745589508
 20
15.8305152945
 30
0.0
 10
27.674609565
 20
15.7348983773
 30
0.0
 10
27.6745585888
 20
15.6393003956
 30
0.0
 10
27.6744064543
 20
15.5444383781
 30
0.0
 10
27.6741543343
 20
15.451022546
 30
0.0
 10
27.673804145
 20
15.3597548446
 30
0.0
 10
27.6733587746
 20
15.2713705878
 30
0.0
 10
27.6728218052
 20
15.1865315465
 30
0.0
 10
27.6721974508
 20
15.1058748051
 30
0.0
 10
27.6714904644
 20
15.0299633415
 30
0.0
 10
27.6707056864
 20
14.9593981965
 30
0.0
 10
27.669852588
 20
14.8947228394
 30
0.0
 10
27.6689285539
 20
14.8364364753
 30
0.0
 10
27.6679717663
 20
14.7849287027
 30
0.0
 10
27.6668999857
 20
14.7407783101
 30
0.0
 10
27.6659901814
 20
14.7038517996
 30
0.0
 10
27.6645419886
 20
14.6757886888
 30
0.0
 10
27.6643378364
 20
14.6533946207
 30
0.0
 10
27.6618198277
 20
14.6438072109
 30
0.0
 10
27.6625993161
 20
14.6350870953
 30
0.0
 10
27.6611529257
 20
14.6350870953
 30
0.0
  0
SPLINE
  5
331
100
AcDbEntity
  8
INTFCLR_1
100
AcDbSpline
 62
7
  6
BYLAYER
 70
0
 71
3
 72
43
 73
39
 74
0
 42
0.0000001
 43
0.0000001
 44
0.0000000001
 40
0.0
 40
0.0
 40
0.0
 40
0.0
 40
0.0019653584
 40
0.0076789804
 40
0.0171299945
 40
0.030235192
 40
0.0469436428
 40
0.0671061724
 40
0.0905650028
 40
0.1170906672
 40
0.1465264416
 40
0.1786827028
 40
0.2132884834
 40
0.250065881
 40
0.2887306435
 40
0.3290628238
 40
0.3706877338
 40
0.4132827986
 40
0.4565231037
 40
0.5000818152
 40
0.5436317824
 40
0.5868462739
 40
0.629401835
 40
0.6709805987
 40
0.7112671148
 40
0.7498924673
 40
0.7866389815
 40
0.8212251426
 40
0.8533821746
 40
0.8828436378
 40
0.9093963031
 40
0.9328650927
 40
0.9530279501
 40
0.9697354438
 40
0.9828434976
 40
0.9923030997
 40
0.9980282145
 40
1.0
 40
1.0
 40
1.0
 40
1.0
 10
27.6611529257
 20
14.6350870953
 30
0.0
 10
27.6597112459
 20
14.6350870953
 30
0.0
 10
27.6604842496
 20
14.6437850593
 30
0.0
 10
27.6579717838
 20
14.6533583266
 30
0.0
 10
27.6577657172
 20
14.6757345413
 30
0.0
 10
27.6563176699
 20
14.7037897338
 30
0.0
 10
27.6554073646
 20
14.740714789
 30
0.0
 10
27.6543354969
 20
14.7848582735
 30
0.0
 10
27.6533789297
 20
14.8363386937
 30
0.0
 10
27.6524552981
 20
14.8945791079
 30
0.0
 10
27.6516023124
 20
14.9592152451
 30
0.0
 10
27.6508172026
 20
15.0297753674
 30
0.0
 10
27.6501095776
 20
15.1057233074
 30
0.0
 10
27.6494845307
 20
15.186446
 30
0.0
 10
27.6489469619
 20
15.2713700992
 30
0.0
 10
27.6485011658
 20
15.359850611
 30
0.0
 10
27.6481507796
 20
15.4512146373
 30
0.0
 10
27.6478987076
 20
15.5447122334
 30
0.0
 10
27.6477468232
 20
15.6396285791
 30
0.0
 10
27.6476962091
 20
15.7352454967
 30
0.0
 10
27.6477471852
 20
15.8308434786
 30
0.0
 10
27.6478993198
 20
15.9257054962
 30
0.0
 10
27.6481514398
 20
16.0191213283
 30
0.0
 10
27.6485016291
 20
16.1103890295
 30
0.0
 10
27.6489469995
 20
16.1987732861
 30
0.0
 10
27.6494839689
 20
16.283612327
 30
0.0
 10
27.6501083233
 20
16.3642690679
 30
0.0
 10
27.6508153097
 20
16.440180531
 30
0.0
 10
27.6516000877
 20
16.5107456753
 30
0.0
 10
27.6524531862
 20
16.5754210316
 30
0.0
 10
27.6533772203
 20
16.6337073948
 30
0.0
 10
27.6543340078
 20
16.6852151664
 30
0.0
 10
27.6554057887
 20
16.7293655578
 30
0.0
 10
27.6563155923
 20
16.7662920673
 30
0.0
 10
27.6577637869
 20
16.7943551768
 30
0.0
 10
27.6579679351
 20
16.8167492438
 30
0.0
 10
27.6604859516
 20
16.8263366557
 30
0.0
 10
27.6597064539
 20
16.8350567805
 30
0.0
 10
27.6611528484
 20
16.8350567805
 30
0.0
  0
SPLINE
  5
332
100
AcDbEntity
  8
INTFCLR_1
100
AcDbSpline
 62
7
  6
BYLAYER
 70
0
 71
3
 72
27
 73
23
 74
0
 42
0.0000001
 43
0.0000001
 44
0.0000000001
 40
0.0
 40
0.0
 40
0.0
 40
0.0
 40
0.0784384659
 40
0.1563913534
 40
0.2333663258
 40
0.3088789324
 40
0.3826613411
 40
0.4540547857
 40
0.5226103644
 40
0.5879097377
 40
0.6495560577
 40
0.7071782348
 40
0.7604299899
 40
0.8089908071
 40
0.852567975
 40
0.8908987056
 40
0.9237500902
 40
0.9509158879
 40
0.9721813426
 40
0.9874972278
 40
0.9967692003
 40
1.0
 40
1.0
 40
1.0
 40
1.0
 10
27.6739815473
 20
35.0870033903
 30
0.0
 10
27.6739815473
 20
35.1327736708
 30
0.0
 10
27.6740251558
 20
35.2240308943
 30
0.0
 10
27.6742216353
 20
35.3602042955
 30
0.0
 10
27.6745474561
 20
35.4946701533
 30
0.0
 10
27.6750009385
 20
35.6267020776
 30
0.0
 10
27.6755794578
 20
35.7554765585
 30
0.0
 10
27.6762796413
 20
35.8801908266
 30
0.0
 10
27.6770963547
 20
35.9999542594
 30
0.0
 10
27.678024194
 20
36.1140291281
 30
0.0
 10
27.6790572121
 20
36.2217228272
 30
0.0
 10
27.6801883668
 20
36.3223856529
 30
0.0
 10
27.6814113413
 20
36.4154094367
 30
0.0
 10
27.6827144987
 20
36.5002414259
 30
0.0
 10
27.6841002274
 20
36.5763460767
 30
0.0
 10
27.6855233232
 20
36.6433374664
 30
0.0
 10
27.6870786574
 20
36.7005798496
 30
0.0
 10
27.6884446842
 20
36.7483393175
 30
0.0
 10
27.6904277446
 20
36.7845884723
 30
0.0
 10
27.690968812
 20
36.8133979547
 30
0.0
 10
27.6941493206
 20
36.8258453088
 30
0.0
 10
27.6934778117
 20
36.8370161806
 30
0.0
 10
27.6953630425
 20
36.8370161806
 30
0.0
  0
SPLINE
  5
333
100
AcDbEntity
  8
INTFCLR_1
100
AcDbSpline
 62
7
  6
BYLAYER
 70
0
 71
3
 72
27
 73
23
 74
0
 42
0.0000001
 43
0.0000001
 44
0.0000000001
 40
0.0
 40
0.0
 40
0.0
 40
0.0
 40
0.003227323
 40
0.0125024057
 40
0.0278415029
 40
0.0491548546
 40
0.0763904368
 40
0.1093272843
 40
0.1477516702
 40
0.1914204118
 40
0.2400592382
 40
0.2933670672
 40
0.3510167104
 40
0.4126561717
 40
0.4779111383
 40
0.5463886278
 40
0.6176778164
 40
0.6913386917
 40
0.7667286267
 40
0.8436061499
 40
0.9215174342
 40
1.0
 40
1.0
 40
1.0
 40
1.0
 10
27.6953630425
 20
36.8370161806
 30
0.0
 10
27.6972462446
 20
36.8370161806
 30
0.0
 10
27.6965770817
 20
36.8258471028
 30
0.0
 10
27.6997589903
 20
36.8133894634
 30
0.0
 10
27.7003005172
 20
36.7845323072
 30
0.0
 10
27.7022869474
 20
36.7482037613
 30
0.0
 10
27.7036548497
 20
36.7003245199
 30
0.0
 10
27.7052124054
 20
36.6429373531
 30
0.0
 10
27.7066369543
 20
36.5757878591
 30
0.0
 10
27.7080235176
 20
36.4995296314
 30
0.0
 10
27.7093267513
 20
36.4145659407
 30
0.0
 10
27.7105491052
 20
36.3214478728
 30
0.0
 10
27.7116790454
 20
36.2207402824
 30
0.0
 10
27.7127104012
 20
36.113060452
 30
0.0
 10
27.7136363243
 20
35.9990610476
 30
0.0
 10
27.7144510862
 20
35.8794299148
 30
0.0
 10
27.7151494892
 20
35.7548929545
 30
0.0
 10
27.7157265726
 20
35.6263217986
 30
0.0
 10
27.7161790924
 20
35.4944892296
 30
0.0
 10
27.716504465
 20
35.3601760878
 30
0.0
 10
27.7167009044
 20
35.2240580888
 30
0.0
 10
27.7167445379
 20
35.1327994055
 30
0.0
 10
27.7167445379
 20
35.0870033904
 30
0.0
  0
SPLINE
  5
334
100
AcDbEntity
  8
INTFCLR_1
100
AcDbSpline
 62
7
  6
BYLAYER
 70
0
 71
3
 72
40
 73
36
 74
0
 42
0.0000001
 43
0.0000001
 44
0.0000000001
 40
0.0
 40
0.0
 40
0.0
 40
0.0
 40
0.0023332712
 40
0.0091283847
 40
0.0203561842
 40
0.0358973085
 40
0.05567922
 40
0.0794856778
 40
0.1071024178
 40
0.1382026896
 40
0.1726028275
 40
0.2100035667
 40
0.2500299115
 40
0.2922998986
 40
0.3364730806
 40
0.3822240745
 40
0.4290142918
 40
0.4764136735
 40
0.5239886323
 40
0.5713183979
 40
0.6179978542
 40
0.6636272784
 40
0.7076956271
 40
0.7498910219
 40
0.7898769544
 40
0.827273409
 40
0.8617032182
 40
0.8928408071
 40
0.9204739135
 40
0.9442824933
 40
0.9640638175
 40
0.9796087991
 40
0.99084789
 40
0.9976582605
 40
1.0
 40
1.0
 40
1.0
 40
1.0
 10
27.6489349998
 20
27.2350602751
 30
0.0
 10
27.6476124386
 20
27.2350602751
 30
0.0
 10
27.6485195615
 20
27.2270164646
 30
0.0
 10
27.6461613753
 20
27.2182665498
 30
0.0
 10
27.646128377
 20
27.1977083447
 30
0.0
 10
27.6448584924
 20
27.1720142007
 30
0.0
 10
27.6441279621
 20
27.1382491202
 30
0.0
 10
27.6432379964
 20
27.0979888335
 30
0.0
 10
27.6424632302
 20
27.0511880726
 30
0.0
 10
27.6417213122
 20
26.9984217315
 30
0.0
 10
27.6410492278
 20
26.9400953357
 30
0.0
 10
27.6404439808
 20
26.8767124281
 30
0.0
 10
27.6399146996
 20
26.8088666473
 30
0.0
 10
27.6394656076
 20
26.7371817679
 30
0.0
 10
27.639100945
 20
26.6622513821
 30
0.0
 10
27.6388243489
 20
26.5847584456
 30
0.0
 10
27.6386386735
 20
26.5054365285
 30
0.0
 10
27.6385457032
 20
26.4250805784
 30
0.0
 10
27.6385460982
 20
26.3444187434
 30
0.0
 10
27.6386396788
 20
26.2641650367
 30
0.0
 10
27.6388255206
 20
26.1850142722
 30
0.0
 10
27.6391017825
 20
26.1077124494
 30
0.0
 10
27.6394657299
 20
26.0329526747
 30
0.0
 10
27.6399139444
 20
25.9613924023
 30
0.0
 10
27.6404424299
 20
25.8936142345
 30
0.0
 10
27.6410472147
 20
25.830239839
 30
0.0
 10
27.6417192981
 20
25.7718778976
 30
0.0
 10
27.6424615359
 20
25.7190643149
 30
0.0
 10
27.643236529
 20
25.6722319208
 30
0.0
 10
27.644126451
 20
25.6319614262
 30
0.0
 10
27.6448565663
 20
25.5981934836
 30
0.0
 10
27.6461265297
 20
25.5724908136
 30
0.0
 10
27.6461577482
 20
25.5519144326
 30
0.0
 10
27.6485214166
 20
25.5431499756
 30
0.0
 10
27.6476075877
 20
25.5350835854
 30
0.0
 10
27.648934949
 20
25.5350835862
 30
0.0
  0
SPLINE
  5
335
100
AcDbEntity
  8
INTFCLR_1
100
AcDbSpline
 62
7
  6
BYLAYER
 70
0
 71
3
 72
40
 73
36
 74
0
 42
0.0000001
 43
0.0000001
 44
0.0000000001
 40
0.0
 40
0.0
 40
0.0
 40
0.0
 40
0.002333272
 40
0.0091283861
 40
0.0203561861
 40
0.0358973108
 40
0.0556792226
 40
0.0794856806
 40
0.1071024207
 40
0.1382026925
 40
0.1726028303
 40
0.2100035693
 40
0.2500299139
 40
0.2922999007
 40
0.3364730822
 40
0.3822240757
 40
0.4290142925
 40
0.4764136737
 40
0.523988632
 40
0.5713183972
 40
0.617997853
 40
0.6636272767
 40
0.7076956251
 40
0.7498910195
 40
0.7898769517
 40
0.8272734061
 40
0.8617032153
 40
0.8928408042
 40
0.9204739107
 40
0.9442824906
 40
0.9640638151
 40
0.9796087972
 40
0.9908478886
 40
0.9976582597
 40
1.0
 40
1.0
 40
1.0
 40
1.0
 10
27.648934949
 20
25.5350835862
 30
0.0
 10
27.6502575107
 20
25.5350835871
 30
0.0
 10
27.6493503869
 20
25.5431273972
 30
0.0
 10
27.6517085737
 20
25.5518773147
 30
0.0
 10
27.6517415717
 20
25.5724355196
 30
0.0
 10
27.6530114564
 20
25.5981296647
 30
0.0
 10
27.6537419866
 20
25.6318947456
 30
0.0
 10
27.6546319523
 20
25.6721550327
 30
0.0
 10
27.6554067185
 20
25.7189557937
 30
0.0
 10
27.6561486366
 20
25.7717221348
 30
0.0
 10
27.6568207209
 20
25.8300485304
 30
0.0
 10
27.6574259679
 20
25.8934314378
 30
0.0
 10
27.6579552491
 20
25.9612772181
 30
0.0
 10
27.6584043411
 20
26.0329620969
 30
0.0
 10
27.6587690037
 20
26.107892482
 30
0.0
 10
27.6590455998
 20
26.1853854178
 30
0.0
 10
27.6592312752
 20
26.2647073341
 30
0.0
 10
27.6593242455
 20
26.3450632833
 30
0.0
 10
27.6593238505
 20
26.4257251175
 30
0.0
 10
27.6592302698
 20
26.5059788234
 30
0.0
 10
27.6590444281
 20
26.5851295871
 30
0.0
 10
27.6587681662
 20
26.6624314091
 30
0.0
 10
27.6584042188
 20
26.7371911831
 30
0.0
 10
27.6579560043
 20
26.808751455
 30
0.0
 10
27.6574275188
 20
26.8765296223
 30
0.0
 10
27.6568227341
 20
26.9399040176
 30
0.0
 10
27.6561506507
 20
26.9982659588
 30
0.0
 10
27.6554084129
 20
27.0510795415
 30
0.0
 10
27.6546334197
 20
27.0979119358
 30
0.0
 10
27.6537434977
 20
27.1381824308
 30
0.0
 10
27.6530133825
 20
27.1719503737
 30
0.0
 10
27.651743419
 20
27.1976530449
 30
0.0
 10
27.6517122008
 20
27.2182294257
 30
0.0
 10
27.6493485318
 20
27.2269938854
 30
0.0
 10
27.6502623616
 20
27.2350602751
 30
0.0
 10
27.6489349998
 20
27.2350602751
 30
0.0
  0
SPLINE
  5
336
100
AcDbEntity
  8
INTFCLR_1
100
AcDbSpline
 62
7
  6
BYLAYER
 70
0
 71
3
 72
14
 73
10
 74
0
 42
0.0000001
 43
0.0000001
 44
0.0000000001
 40
0.0
 40
0.0
 40
0.0
 40
0.0
 40
0.2608218656
 40
0.4837634434
 40
0.6677334418
 40
0.8118397864
 40
0.9154047569
 40
0.9780143013
 40
1.0
 40
1.0
 40
1.0
 40
1.0
 10
29.6628401472
 20
30.4422101129
 30
0.0
 10
29.6624282364
 20
30.4241634873
 30
0.0
 10
29.6616168527
 20
30.3906655617
 30
0.0
 10
29.6602097599
 20
30.3445727803
 30
0.0
 10
29.6589350333
 20
30.3061857581
 30
0.0
 10
29.6572378211
 20
30.2770586217
 30
0.0
 10
29.6565417948
 20
30.2539972028
 30
0.0
 10
29.6540564694
 20
30.243929234
 30
0.0
 10
29.6542712373
 20
30.2350719282
 30
0.0
 10
29.6527496202
 20
30.2350719282
 30
0.0
  0
SPLINE
  5
337
100
AcDbEntity
  8
INTFCLR_1
100
AcDbSpline
 62
7
  6
BYLAYER
 70
0
 71
3
 72
14
 73
10
 74
0
 42
0.0000001
 43
0.0000001
 44
0.0000000001
 40
0.0
 40
0.0
 40
0.0
 40
0.0
 40
0.0612107098
 40
0.154652906
 40
0.2778983904
 40
0.4279022866
 40
0.601061607
 40
0.7932732367
 40
1.0
 40
1.0
 40
1.0
 40
1.0
 10
29.0714692745
 20
20.4170581039
 30
0.0
 10
29.0713818187
 20
20.4155809474
 30
0.0
 10
29.0712489314
 20
20.4118440571
 30
0.0
 10
29.0710826162
 20
20.4051282318
 30
0.0
 10
29.0709314602
 20
20.3962647382
 30
0.0
 10
29.0707953976
 20
20.3854738734
 30
0.0
 10
29.070681155
 20
20.3730153929
 30
0.0
 10
29.0705912432
 20
20.3591854558
 30
0.0
 10
29.0705506239
 20
20.3495413636
 30
0.0
 10
29.0705345738
 20
20.3445438569
 30
0.0
  0
SPLINE
  5
338
100
AcDbEntity
  8
INTFCLR_1
100
AcDbSpline
 62
7
  6
BYLAYER
 70
0
 71
3
 72
12
 73
8
 74
0
 42
0.0000001
 43
0.0000001
 44
0.0000000001
 40
0.0
 40
0.0
 40
0.0
 40
0.0
 40
0.3507182564
 40
0.6304362887
 40
0.8340540657
 40
0.9578798627
 40
1.0
 40
1.0
 40
1.0
 40
1.0
 10
29.0679141632
 20
20.2934485652
 30
0.0
 10
29.0678421092
 20
20.2981998124
 30
0.0
 10
29.0677577352
 20
20.3068303233
 30
0.0
 10
29.0672911311
 20
20.3178185748
 30
0.0
 10
29.0675006417
 20
20.3267436389
 30
0.0
 10
29.066403144
 20
20.3304914972
 30
0.0
 10
29.0670785025
 20
20.3340486182
 30
0.0
 10
29.0665078273
 20
20.3340486182
 30
0.0
  0
SPLINE
  5
339
100
AcDbEntity
  8
INTFCLR_1
100
AcDbSpline
 62
7
  6
BYLAYER
 70
0
 71
3
 72
15
 73
11
 74
0
 42
0.0000001
 43
0.0000001
 44
0.0000000001
 40
0.0
 40
0.0
 40
0.0
 40
0.0
 40
0.0175285096
 40
0.0690028961
 40
0.1535734167
 40
0.2696951882
 40
0.4152622495
 40
0.5876532946
 40
0.7837812635
 40
1.0
 40
1.0
 40
1.0
 40
1.0
 10
29.0665078273
 20
20.3340486182
 30
0.0
 10
29.0659359824
 20
20.3340486182
 30
0.0
 10
29.066613016
 20
20.3304867781
 30
0.0
 10
29.0655147152
 20
20.3267364917
 30
0.0
 10
29.0657236031
 20
20.3178124844
 30
0.0
 10
29.0652618547
 20
20.3068212398
 30
0.0
 10
29.0650978987
 20
20.292548163
 30
0.0
 10
29.0648538031
 20
20.2758175647
 30
0.0
 10
29.0646734719
 20
20.2567290806
 30
0.0
 10
29.0645709584
 20
20.2432804437
 30
0.0
 10
29.0645254756
 20
20.2362267341
 30
0.0
  0
SPLINE
  5
33A
100
AcDbEntity
  8
INTFCLR_1
100
AcDbSpline
 62
7
  6
BYLAYER
 70
0
 71
3
 72
12
 73
8
 74
0
 42
0.0000001
 43
0.0000001
 44
0.0000000001
 40
0.0
 40
0.0
 40
0.0
 40
0.0
 40
0.3507182785
 40
0.6304363024
 40
0.8340540729
 40
0.9578798653
 40
1.0
 40
1.0
 40
1.0
 40
1.0
 10
29.0619312733
 20
20.1923956104
 30
0.0
 10
29.0618592193
 20
20.1971468579
 30
0.0
 10
29.0617748453
 20
20.2057773692
 30
0.0
 10
29.0613082412
 20
20.216765621
 30
0.0
 10
29.0615177518
 20
20.225690685
 30
0.0
 10
29.0604202541
 20
20.2294385432
 30
0.0
 10
29.0610956125
 20
20.2329956641
 30
0.0
 10
29.0605249374
 20
20.2329956641
 30
0.0
  0
SPLINE
  5
33B
100
AcDbEntity
  8
INTFCLR_1
100
AcDbSpline
 62
7
  6
BYLAYER
 70
0
 71
3
 72
15
 73
11
 74
0
 42
0.0000001
 43
0.0000001
 44
0.0000000001
 40
0.0
 40
0.0
 40
0.0
 40
0.0
 40
0.0175285109
 40
0.0690029
 40
0.1535734244
 40
0.269695201
 40
0.4152622685
 40
0.5876533211
 40
0.7837812985
 40
1.0
 40
1.0
 40
1.0
 40
1.0
 10
29.0605249374
 20
20.2329956641
 30
0.0
 10
29.0599530925
 20
20.2329956641
 30
0.0
 10
29.0606301261
 20
20.229433824
 30
0.0
 10
29.0595318253
 20
20.2256835377
 30
0.0
 10
29.0597407132
 20
20.2167595305
 30
0.0
 10
29.0592789648
 20
20.205768286
 30
0.0
 10
29.0591150088
 20
20.1914952095
 30
0.0
 10
29.0588709132
 20
20.1747646114
 30
0.0
 10
29.058690582
 20
20.1556761289
 30
0.0
 10
29.0585880685
 20
20.1422274937
 30
0.0
 10
29.0585425857
 20
20.1351737857
 30
0.0
  0
SPLINE
  5
33C
100
AcDbEntity
  8
INTFCLR_1
100
AcDbSpline
 62
7
  6
BYLAYER
 70
0
 71
3
 72
12
 73
8
 74
0
 42
0.0000001
 43
0.0000001
 44
0.0000000001
 40
0.0
 40
0.0
 40
0.0
 40
0.0
 40
0.350718295
 40
0.6304363115
 40
0.8340540768
 40
0.9578798661
 40
1.0
 40
1.0
 40
1.0
 40
1.0
 10
29.0559483834
 20
20.0913426568
 30
0.0
 10
29.0558763294
 20
20.0960939048
 30
0.0
 10
29.0557919554
 20
20.1047244165
 30
0.0
 10
29.0553253513
 20
20.1157126688
 30
0.0
 10
29.0555348619
 20
20.124637733
 30
0.0
 10
29.0544373642
 20
20.1283855913
 30
0.0
 10
29.0551127227
 20
20.1319427123
 30
0.0
 10
29.0545420475
 20
20.1319427123
 30
0.0
  0
SPLINE
  5
33D
100
AcDbEntity
  8
INTFCLR_1
100
AcDbSpline
 62
7
  6
BYLAYER
 70
0
 71
3
 72
15
 73
11
 74
0
 42
0.0000001
 43
0.0000001
 44
0.0000000001
 40
0.0
 40
0.0
 40
0.0
 40
0.0
 40
0.0175285112
 40
0.0690029015
 40
0.1535734279
 40
0.2696952073
 40
0.4152622782
 40
0.5876533348
 40
0.7837813167
 40
1.0
 40
1.0
 40
1.0
 40
1.0
 10
29.0545420475
 20
20.1319427123
 30
0.0
 10
29.0539702026
 20
20.1319427123
 30
0.0
 10
29.0546472362
 20
20.1283808722
 30
0.0
 10
29.0535489354
 20
20.1246305858
 30
0.0
 10
29.0537578233
 20
20.1157065786
 30
0.0
 10
29.0532960749
 20
20.104715334
 30
0.0
 10
29.0531321189
 20
20.0904422573
 30
0.0
 10
29.0528880233
 20
20.0737116591
 30
0.0
 10
29.0527076921
 20
20.0546231773
 30
0.0
 10
29.0526051786
 20
20.0411745427
 30
0.0
 10
29.0525596958
 20
20.0341208354
 30
0.0
  0
SPLINE
  5
33E
100
AcDbEntity
  8
INTFCLR_1
100
AcDbSpline
 62
7
  6
BYLAYER
 70
0
 71
3
 72
12
 73
8
 74
0
 42
0.0000001
 43
0.0000001
 44
0.0000000001
 40
0.0
 40
0.0
 40
0.0
 40
0.0
 40
0.3507183253
 40
0.6304363311
 40
0.8340540875
 40
0.9578798703
 40
1.0
 40
1.0
 40
1.0
 40
1.0
 10
29.0499654936
 20
19.9902897012
 30
0.0
 10
29.0498934395
 20
19.9950409496
 30
0.0
 10
29.0498090655
 20
20.0036714617
 30
0.0
 10
29.0493424614
 20
20.0146597143
 30
0.0
 10
29.049551972
 20
20.0235847782
 30
0.0
 10
29.0484544743
 20
20.0273326363
 30
0.0
 10
29.0491298327
 20
20.0308897571
 30
0.0
 10
29.0485591576
 20
20.0308897571
 30
0.0
  0
SPLINE
  5
33F
100
AcDbEntity
  8
INTFCLR_1
100
AcDbSpline
 62
7
  6
BYLAYER
 70
0
 71
3
 72
15
 73
11
 74
0
 42
0.0000001
 43
0.0000001
 44
0.0000000001
 40
0.0
 40
0.0
 40
0.0
 40
0.0
 40
0.0175285119
 40
0.0690029021
 40
0.1535734274
 40
0.2696952049
 40
0.4152622733
 40
0.5876533269
 40
0.7837813056
 40
1.0
 40
1.0
 40
1.0
 40
1.0
 10
29.0485591576
 20
20.0308897571
 30
0.0
 10
29.0479873127
 20
20.0308897571
 30
0.0
 10
29.0486643463
 20
20.027327917
 30
0.0
 10
29.0475660455
 20
20.0235776306
 30
0.0
 10
29.0477749334
 20
20.0146536236
 30
0.0
 10
29.047313185
 20
20.0036623792
 30
0.0
 10
29.047149229
 20
19.9893893029
 30
0.0
 10
29.0469051334
 20
19.9726587051
 30
0.0
 10
29.0467248022
 20
19.9535702233
 30
0.0
 10
29.0466222887
 20
19.9401215885
 30
0.0
 10
29.0465768059
 20
19.9330678809
 30
0.0
  0
SPLINE
  5
340
100
AcDbEntity
  8
INTFCLR_1
100
AcDbSpline
 62
7
  6
BYLAYER
 70
0
 71
3
 72
12
 73
8
 74
0
 42
0.0000001
 43
0.0000001
 44
0.0000000001
 40
0.0
 40
0.0
 40
0.0
 40
0.0
 40
0.3507181254
 40
0.6304362241
 40
0.8340540448
 40
0.9578798632
 40
1.0
 40
1.0
 40
1.0
 40
1.0
 10
29.0439826035
 20
19.8892367642
 30
0.0
 10
29.0439105495
 20
19.8939880077
 30
0.0
 10
29.0438261754
 20
19.9026185141
 30
0.0
 10
29.0433595716
 20
19.9136067608
 30
0.0
 10
29.043569082
 20
19.9225318232
 30
0.0
 10
29.0424715846
 20
19.9262796806
 30
0.0
 10
29.0431469426
 20
19.9298368005
 30
0.0
 10
29.0425762677
 20
19.9298368005
 30
0.0
  0
SPLINE
  5
341
100
AcDbEntity
  8
INTFCLR_1
100
AcDbSpline
 62
7
  6
BYLAYER
 70
0
 71
3
 72
15
 73
11
 74
0
 42
0.0000001
 43
0.0000001
 44
0.0000000001
 40
0.0
 40
0.0
 40
0.0
 40
0.0
 40
0.0175285146
 40
0.0690029064
 40
0.1535734324
 40
0.2696952099
 40
0.415262278
 40
0.5876533315
 40
0.7837813107
 40
1.0
 40
1.0
 40
1.0
 40
1.0
 10
29.0425762677
 20
19.9298368005
 30
0.0
 10
29.0420044227
 20
19.9298368005
 30
0.0
 10
29.0426814564
 20
19.9262749602
 30
0.0
 10
29.0415831555
 20
19.9225246737
 30
0.0
 10
29.0417920434
 20
19.9136006667
 30
0.0
 10
29.041330295
 20
19.9026094224
 30
0.0
 10
29.041166339
 20
19.8883363462
 30
0.0
 10
29.0409222434
 20
19.8716057486
 30
0.0
 10
29.0407419122
 20
19.8525172671
 30
0.0
 10
29.0406393986
 20
19.8390686326
 30
0.0
 10
29.0405939159
 20
19.8320149252
 30
0.0
  0
SPLINE
  5
342
100
AcDbEntity
  8
INTFCLR_1
100
AcDbSpline
 62
7
  6
BYLAYER
 70
0
 71
3
 72
12
 73
8
 74
0
 42
0.0000001
 43
0.0000001
 44
0.0000000001
 40
0.0
 40
0.0
 40
0.0
 40
0.0
 40
0.3507181413
 40
0.6304362335
 40
0.8340540494
 40
0.9578798646
 40
1.0
 40
1.0
 40
1.0
 40
1.0
 10
29.0379997136
 20
19.7881838101
 30
0.0
 10
29.0379276596
 20
19.7929350539
 30
0.0
 10
29.0378432855
 20
19.8015655607
 30
0.0
 10
29.0373766817
 20
19.8125538078
 30
0.0
 10
29.0375861921
 20
19.8214788702
 30
0.0
 10
29.0364886947
 20
19.8252267277
 30
0.0
 10
29.0371640527
 20
19.8287838475
 30
0.0
 10
29.0365933778
 20
19.8287838475
 30
0.0
  0
SPLINE
  5
343
100
AcDbEntity
  8
INTFCLR_1
100
AcDbSpline
 62
7
  6
BYLAYER
 70
0
 71
3
 72
15
 73
11
 74
0
 42
0.0000001
 43
0.0000001
 44
0.0000000001
 40
0.0
 40
0.0
 40
0.0
 40
0.0
 40
0.0175285149
 40
0.0690029071
 40
0.1535734337
 40
0.2696952119
 40
0.4152622808
 40
0.5876533352
 40
0.7837813155
 40
1.0
 40
1.0
 40
1.0
 40
1.0
 10
29.0365933778
 20
19.8287838475
 30
0.0
 10
29.0360215328
 20
19.8287838475
 30
0.0
 10
29.0366985665
 20
19.8252220072
 30
0.0
 10
29.0356002656
 20
19.8214717208
 30
0.0
 10
29.0358091535
 20
19.8125477137
 30
0.0
 10
29.0353474051
 20
19.8015564694
 30
0.0
 10
29.0351834491
 20
19.7872833933
 30
0.0
 10
29.0349393535
 20
19.7705527957
 30
0.0
 10
29.0347590223
 20
19.7514643145
 30
0.0
 10
29.0346565087
 20
19.7380156802
 30
0.0
 10
29.034611026
 20
19.730961973
 30
0.0
  0
SPLINE
  5
344
100
AcDbEntity
  8
INTFCLR_1
100
AcDbSpline
 62
7
  6
BYLAYER
 70
0
 71
3
 72
12
 73
8
 74
0
 42
0.0000001
 43
0.0000001
 44
0.0000000001
 40
0.0
 40
0.0
 40
0.0
 40
0.0
 40
0.3507181624
 40
0.6304362467
 40
0.8340540563
 40
0.957879867
 40
1.0
 40
1.0
 40
1.0
 40
1.0
 10
29.0320168237
 20
19.6871308553
 30
0.0
 10
29.0319447697
 20
19.6918820995
 30
0.0
 10
29.0318603957
 20
19.7005126067
 30
0.0
 10
29.0313937918
 20
19.711500854
 30
0.0
 10
29.0316033022
 20
19.7204259163
 30
0.0
 10
29.0305058048
 20
19.7241737737
 30
0.0
 10
29.0311811628
 20
19.7277308935
 30
0.0
 10
29.0306104879
 20
19.7277308935
 30
0.0
  0
SPLINE
  5
345
100
AcDbEntity
  8
INTFCLR_1
100
AcDbSpline
 62
7
  6
BYLAYER
 70
0
 71
3
 72
15
 73
11
 74
0
 42
0.0000001
 43
0.0000001
 44
0.0000000001
 40
0.0
 40
0.0
 40
0.0
 40
0.0
 40
0.0175285153
 40
0.0690029077
 40
0.1535734341
 40
0.2696952119
 40
0.4152622803
 40
0.5876533339
 40
0.7837813136
 40
1.0
 40
1.0
 40
1.0
 40
1.0
 10
29.0306104879
 20
19.7277308935
 30
0.0
 10
29.0300386428
 20
19.7277308935
 30
0.0
 10
29.0307156766
 20
19.7241690531
 30
0.0
 10
29.0296173757
 20
19.7204187667
 30
0.0
 10
29.0298262636
 20
19.7114947598
 30
0.0
 10
29.0293645152
 20
19.7005035157
 30
0.0
 10
29.0292005592
 20
19.6862304397
 30
0.0
 10
29.0289564636
 20
19.6694998424
 30
0.0
 10
29.0287761324
 20
19.6504113613
 30
0.0
 10
29.0286736188
 20
19.6369627271
 30
0.0
 10
29.0286281361
 20
19.6299090199
 30
0.0
  0
SPLINE
  5
346
100
AcDbEntity
  8
INTFCLR_1
100
AcDbSpline
 62
7
  6
BYLAYER
 70
0
 71
3
 72
12
 73
8
 74
0
 42
0.0000001
 43
0.0000001
 44
0.0000000001
 40
0.0
 40
0.0
 40
0.0
 40
0.0
 40
0.3507181776
 40
0.630436255
 40
0.8340540597
 40
0.9578798677
 40
1.0
 40
1.0
 40
1.0
 40
1.0
 10
29.0260339338
 20
19.5860779018
 30
0.0
 10
29.0259618799
 20
19.5908291464
 30
0.0
 10
29.0258775058
 20
19.599459654
 30
0.0
 10
29.0254109019
 20
19.6104479018
 30
0.0
 10
29.0256204123
 20
19.6193729644
 30
0.0
 10
29.0245229149
 20
19.6231208218
 30
0.0
 10
29.0251982729
 20
19.6266779416
 30
0.0
 10
29.024627598
 20
19.6266779416
 30
0.0
  0
SPLINE
  5
347
100
AcDbEntity
  8
INTFCLR_1
100
AcDbSpline
 62
7
  6
BYLAYER
 70
0
 71
3
 72
15
 73
11
 74
0
 42
0.0000001
 43
0.0000001
 44
0.0000000001
 40
0.0
 40
0.0
 40
0.0
 40
0.0
 40
0.0175285156
 40
0.0690029091
 40
0.1535734374
 40
0.269695218
 40
0.4152622897
 40
0.5876533474
 40
0.7837813315
 40
1.0
 40
1.0
 40
1.0
 40
1.0
 10
29.024627598
 20
19.6266779416
 30
0.0
 10
29.0240557529
 20
19.6266779416
 30
0.0
 10
29.0247327867
 20
19.6231161013
 30
0.0
 10
29.0236344858
 20
19.6193658149
 30
0.0
 10
29.0238433737
 20
19.6104418078
 30
0.0
 10
29.0233816253
 20
19.5994505636
 30
0.0
 10
29.0232176693
 20
19.5851774876
 30
0.0
 10
29.0229735737
 20
19.5684468901
 30
0.0
 10
29.0227932425
 20
19.5493584096
 30
0.0
 10
29.0226907289
 20
19.5359097761
 30
0.0
 10
29.0226452462
 20
19.5288560696
 30
0.0
  0
SPLINE
  5
348
100
AcDbEntity
  8
INTFCLR_1
100
AcDbSpline
 62
7
  6
BYLAYER
 70
0
 71
3
 72
12
 73
8
 74
0
 42
0.0000001
 43
0.0000001
 44
0.0000000001
 40
0.0
 40
0.0
 40
0.0
 40
0.0
 40
0.3457345695
 40
0.6254893058
 40
0.8312688473
 40
0.9572241806
 40
1.0
 40
1.0
 40
1.0
 40
1.0
 10
29.0200510243
 20
19.4850265068
 30
0.0
 10
29.0200326301
 20
19.4867265355
 30
0.0
 10
29.0200182033
 20
19.4898346019
 30
0.0
 10
29.0198640379
 20
19.4938086625
 30
0.0
 10
29.0199797295
 20
19.4970753599
 30
0.0
 10
29.0195621357
 20
19.4984471253
 30
0.0
 10
29.0198612839
 20
19.4997680956
 30
0.0
 10
29.0196509365
 20
19.4997680956
 30
0.0
  0
SPLINE
  5
349
100
AcDbEntity
  8
INTFCLR_1
100
AcDbSpline
 62
7
  6
BYLAYER
 70
0
 71
3
 72
12
 73
8
 74
0
 42
0.0000001
 43
0.0000001
 44
0.0000000001
 40
0.0
 40
0.0
 40
0.0
 40
0.0
 40
0.0427757383
 40
0.1687310323
 40
0.3745105765
 40
0.6542653547
 40
1.0
 40
1.0
 40
1.0
 40
1.0
 10
29.0196509365
 20
19.4997680956
 30
0.0
 10
29.0194405895
 20
19.4997680956
 30
0.0
 10
29.019739737
 20
19.4984471264
 30
0.0
 10
29.0193221436
 20
19.4970753615
 30
0.0
 10
29.019437835
 20
19.493808664
 30
0.0
 10
29.0192836696
 20
19.4898346029
 30
0.0
 10
29.0192692428
 20
19.4867265358
 30
0.0
 10
29.0192508487
 20
19.4850265068
 30
0.0
  0
SPLINE
  5
34A
100
AcDbEntity
  8
INTFCLR_1
100
AcDbSpline
 62
7
  6
BYLAYER
 70
0
 71
3
 72
43
 73
39
 74
0
 42
0.0000001
 43
0.0000001
 44
0.0000000001
 40
0.0
 40
0.0
 40
0.0
 40
0.0
 40
0.001971943
 40
0.0076888146
 40
0.0171436175
 40
0.0302521606
 40
0.0469638005
 40
0.0671303448
 40
0.0905942458
 40
0.1171260031
 40
0.1465638572
 40
0.178715001
 40
0.2133129065
 40
0.250085106
 40
0.2887484094
 40
0.3290818817
 40
0.3707086171
 40
0.4133023911
 40
0.4565348866
 40
0.5000808721
 40
0.5436181268
 40
0.586824848
 40
0.6293791746
 40
0.6709598602
 40
0.7112478282
 40
0.749871927
 40
0.7866134292
 40
0.8211918248
 40
0.8533437232
 40
0.8828070919
 40
0.9093657554
 40
0.9328398545
 40
0.9530071123
 40
0.9697181336
 40
0.9828297333
 40
0.9922932064
 40
0.9980215786
 40
1.0
 40
1.0
 40
1.0
 40
1.0
 10
29.6613021904
 20
14.6350873307
 30
0.0
 10
29.6598556812
 20
14.6350873307
 30
0.0
 10
29.6606374182
 20
14.6437996836
 30
0.0
 10
29.6581171897
 20
14.6533804086
 30
0.0
 10
29.6579146915
 20
14.6757648361
 30
0.0
 10
29.6564651214
 20
14.7038274596
 30
0.0
 10
29.6555554348
 20
14.7407602673
 30
0.0
 10
29.6544834035
 20
14.78491273
 30
0.0
 10
29.653526935
 20
14.8364042669
 30
0.0
 10
29.6526033649
 20
14.8946543706
 30
0.0
 10
29.6517505783
 20
14.9592927219
 30
0.0
 10
29.6509657413
 20
15.02984481
 30
0.0
 10
29.650258382
 20
15.1057793734
 30
0.0
 10
29.6496335232
 20
15.1864913704
 30
0.0
 10
29.649096065
 20
15.2714114959
 30
0.0
 10
29.6486503396
 20
15.3598931843
 30
0.0
 10
29.6483000207
 20
15.4512585091
 30
0.0
 10
29.648048028
 20
15.5447507264
 30
0.0
 10
29.6478962156
 20
15.6396510183
 30
0.0
 10
29.6478456302
 20
15.7352435034
 30
0.0
 10
29.6478965733
 20
15.8308170817
 30
0.0
 10
29.6480486316
 20
15.9256631257
 30
0.0
 10
29.6483006685
 20
16.0190737197
 30
0.0
 10
29.6486507872
 20
16.110342949
 30
0.0
 10
29.6490960845
 20
16.198728721
 30
0.0
 10
29.6496329419
 20
16.2835641928
 30
0.0
 10
29.6502571075
 20
16.3642106056
 30
0.0
 10
29.6509638267
 20
16.4401088972
 30
0.0
 10
29.6517483271
 20
16.5106659481
 30
0.0
 10
29.6526012188
 20
16.5753433094
 30
0.0
 10
29.6535251829
 20
16.6336393405
 30
0.0
 10
29.6544818725
 20
16.6851586172
 30
0.0
 10
29.6555538182
 20
16.7293186933
 30
0.0
 10
29.6564630329
 20
16.7662536335
 30
0.0
 10
29.6579127158
 20
16.794324633
 30
0.0
 10
29.6581134158
 20
16.816727103
 30
0.0
 10
29.6606390056
 20
16.8263221302
 30
0.0
 10
29.6598509656
 20
16.8350566617
 30
0.0
 10
29.6613022271
 20
16.8350566617
 30
0.0
  0
SPLINE
  5
34B
100
AcDbEntity
  8
INTFCLR_1
100
AcDbSpline
 62
7
  6
BYLAYER
 70
0
 71
3
 72
39
 73
35
 74
0
 42
0.0000001
 43
0.0000001
 44
0.0000000001
 40
0.0
 40
0.0
 40
0.0
 40
0.0
 40
0.0176329489
 40
0.0377255661
 40
0.0601593075
 40
0.0848024963
 40
0.111577679
 40
0.1403194066
 40
0.1708776686
 40
0.2030683387
 40
0.2367839125
 40
0.2718476374
 40
0.3080671124
 40
0.3452538984
 40
0.3832573949
 40
0.4218757866
 40
0.4608802609
 40
0.5000694771
 40
0.5392434464
 40
0.5782105124
 40
0.616782059
 40
0.6547416725
 40
0.6918947611
 40
0.7280919256
 40
0.7631466771
 40
0.796869632
 40
0.8290769812
 40
0.8596437794
 40
0.8883861175
 40
0.9151595243
 40
0.9398028886
 40
0.9622419062
 40
0.9823465469
 40
1.0
 40
1.0
 40
1.0
 40
1.0
 10
29.1879793864
 20
15.7350719312
 30
0.0
 10
29.1872301596
 20
15.7632761114
 30
0.0
 10
29.1857844464
 20
15.8236229474
 30
0.0
 10
29.183832096
 20
15.9198629977
 30
0.0
 10
29.18196458
 20
16.0273235537
 30
0.0
 10
29.1801920783
 20
16.1454796419
 30
0.0
 10
29.1785245497
 20
16.273731451
 30
0.0
 10
29.1769708717
 20
16.4114499124
 30
0.0
 10
29.1755403449
 20
16.5578353517
 30
0.0
 10
29.1742398654
 20
16.7121808466
 30
0.0
 10
29.1730759003
 20
16.8737367234
 30
0.0
 10
29.1720542675
 20
17.0417400934
 30
0.0
 10
29.1711806163
 20
17.2152985851
 30
0.0
 10
29.1704593539
 20
17.3935616841
 30
0.0
 10
29.1698942242
 20
17.5756638225
 30
0.0
 10
29.1694884114
 20
17.7606748385
 30
0.0
 10
29.1692442446
 20
17.9475833858
 30
0.0
 10
29.1691629488
 20
18.1353810432
 30
0.0
 10
29.1692447759
 20
18.323118844
 30
0.0
 10
29.1694891875
 20
18.5098681823
 30
0.0
 10
29.1698948326
 20
18.6946741696
 30
0.0
 10
29.1704594351
 20
18.8765772179
 30
0.0
 10
29.1711799662
 20
19.054680485
 30
0.0
 10
29.1720528684
 20
19.2281350037
 30
0.0
 10
29.1730739458
 20
19.3961001298
 30
0.0
 10
29.1742377291
 20
19.5576801488
 30
0.0
 10
29.1755383301
 20
19.7120778016
 30
0.0
 10
29.176968995
 20
19.8585045649
 30
0.0
 10
29.1785225438
 20
19.9962348223
 30
0.0
 10
29.1801897466
 20
20.1244850514
 30
0.0
 10
29.1819619694
 20
20.242647026
 30
0.0
 10
29.1838295586
 20
20.3501355466
 30
0.0
 10
29.1857827512
 20
20.4464360817
 30
0.0
 10
29.1872295669
 20
20.5068349537
 30
0.0
 10
29.1879796649
 20
20.5350719307
 30
0.0
  0
SPLINE
  5
34C
100
AcDbEntity
  8
INTFCLR_1
100
AcDbSpline
 62
7
  6
BYLAYER
 70
0
 71
3
 72
27
 73
23
 74
0
 42
0.0000001
 43
0.0000001
 44
0.0000000001
 40
0.0
 40
0.0
 40
0.0
 40
0.0
 40
0.0784079996
 40
0.1563574182
 40
0.2333435619
 40
0.3088694946
 40
0.3826590652
 40
0.4540520525
 40
0.5226036678
 40
0.5878986412
 40
0.6495424176
 40
0.7071635594
 40
0.7604151574
 40
0.8089762219
 40
0.8525541688
 40
0.8908872593
 40
0.9237432773
 40
0.9509160314
 40
0.9721880255
 40
0.9875071004
 40
0.9967781918
 40
1.0
 40
1.0
 40
1.0
 40
1.0
 10
27.6739817444
 20
31.9850719271
 30
0.0
 10
27.6739817444
 20
31.9393200938
 30
0.0
 10
27.6739380253
 20
31.8480840076
 30
0.0
 10
27.6737418192
 20
31.711925882
 30
0.0
 10
27.6734160915
 20
31.5774497217
 30
0.0
 10
27.6729626646
 20
31.4454012561
 30
0.0
 10
27.6723841739
 20
31.3166169716
 30
0.0
 10
27.6716840471
 20
31.1919029291
 30
0.0
 10
27.6708674291
 20
31.0721463955
 30
0.0
 10
27.6699397041
 20
30.9580795601
 30
0.0
 10
27.6689067979
 20
30.8503920922
 30
0.0
 10
27.6677757384
 20
30.7497329191
 30
0.0
 10
27.6665528502
 20
30.6567110474
 30
0.0
 10
27.6652497621
 20
30.5718797918
 30
0.0
 10
27.6638641199
 20
30.495774278
 30
0.0
 10
27.6624409665
 20
30.4287793297
 30
0.0
 10
27.6608857588
 20
30.3715296679
 30
0.0
 10
27.6595189361
 20
30.3237602087
 30
0.0
 10
27.6575369984
 20
30.2875021977
 30
0.0
 10
27.656992136
 20
30.2586874752
 30
0.0
 10
27.6538189775
 20
30.2462429696
 30
0.0
 10
27.6544810894
 20
30.2350851797
 30
0.0
 10
27.6526011328
 20
30.2350851797
 30
0.0
  0
SPLINE
  5
34D
100
AcDbEntity
  8
INTFCLR_1
100
AcDbSpline
 62
7
  6
BYLAYER
 70
0
 71
3
 72
14
 73
10
 74
0
 42
0.0000001
 43
0.0000001
 44
0.0000000001
 40
0.0
 40
0.0
 40
0.0
 40
0.0
 40
0.2516983075
 40
0.4721585834
 40
0.6577397943
 40
0.805380114
 40
0.9126511601
 40
0.9778129221
 40
1.0
 40
1.0
 40
1.0
 40
1.0
 10
4.2106173367
 20
19.5572287306
 30
0.0
 10
4.2105608281
 20
19.5630592858
 30
0.0
 10
4.2104480923
 20
19.574006171
 30
0.0
 10
4.2102103861
 20
19.5892053872
 30
0.0
 10
4.2100446471
 20
19.602132838
 30
0.0
 10
4.2096176635
 20
19.6120622878
 30
0.0
 10
4.2097795222
 20
19.620102474
 30
0.0
 10
4.2088004584
 20
19.623482309
 30
0.0
 10
4.2093751659
 20
19.6266775229
 30
0.0
 10
4.2088611813
 20
19.6266775229
 30
0.0
  0
SPLINE
  5
34E
100
AcDbEntity
  8
INTFCLR_1
100
AcDbSpline
 62
7
  6
BYLAYER
 70
0
 71
3
 72
12
 73
8
 74
0
 42
0.0000001
 43
0.0000001
 44
0.0000000001
 40
0.0
 40
0.0
 40
0.0
 40
0.0
 40
0.0421204503
 40
0.1659495419
 40
0.3695736268
 40
0.6493009581
 40
1.0
 40
1.0
 40
1.0
 40
1.0
 10
4.2088611813
 20
19.6266775229
 30
0.0
 10
4.2082905298
 20
19.6266775229
 30
0.0
 10
4.2089658385
 20
19.6231205076
 30
0.0
 10
4.2078683796
 20
19.6193727321
 30
0.0
 10
4.2080778717
 20
19.610447825
 30
0.0
 10
4.2076112893
 20
19.5994601634
 30
0.0
 10
4.2075269114
 20
19.5908302139
 30
0.0
 10
4.2074548649
 20
19.5860794594
 30
0.0
  0
SPLINE
  5
34F
100
AcDbEntity
  8
INTFCLR_1
100
AcDbSpline
 62
7
  6
BYLAYER
 70
0
 71
3
 72
15
 73
11
 74
0
 42
0.0000001
 43
0.0000001
 44
0.0000000001
 40
0.0
 40
0.0
 40
0.0
 40
0.0
 40
0.2161663164
 40
0.4123092785
 40
0.5847123674
 40
0.7302886875
 40
0.8464172172
 40
0.9309923743
 40
0.9824697235
 40
1.0
 40
1.0
 40
1.0
 40
1.0
 10
4.204860584
 20
19.6299155905
 30
0.0
 10
4.2048151156
 20
19.6369670769
 30
0.0
 10
4.204712616
 20
19.6504135152
 30
0.0
 10
4.204532303
 20
19.6694997826
 30
0.0
 10
4.2042882048
 20
19.6862303447
 30
0.0
 10
4.2041242498
 20
19.7005033052
 30
0.0
 10
4.2036624989
 20
19.7114944073
 30
0.0
 10
4.2038713945
 20
19.7204182689
 30
0.0
 10
4.2027730804
 20
19.7241685165
 30
0.0
 10
4.2034501523
 20
19.7277303561
 30
0.0
 10
4.2028782914
 20
19.7277303561
 30
0.0
  0
SPLINE
  5
350
100
AcDbEntity
  8
INTFCLR_1
100
AcDbSpline
 62
7
  6
BYLAYER
 70
0
 71
3
 72
12
 73
8
 74
0
 42
0.0000001
 43
0.0000001
 44
0.0000000001
 40
0.0
 40
0.0
 40
0.0
 40
0.0
 40
0.0421189245
 40
0.1659472724
 40
0.3695714024
 40
0.6492995181
 40
1.0
 40
1.0
 40
1.0
 40
1.0
 10
4.2028782914
 20
19.7277303561
 30
0.0
 10
4.2023076622
 20
19.7277303561
 30
0.0
 10
4.2029829279
 20
19.7241734102
 30
0.0
 10
4.2018854968
 20
19.7204256704
 30
0.0
 10
4.2020949784
 20
19.7115007838
 30
0.0
 10
4.2016284
 20
19.7005131252
 30
0.0
 10
4.2015440216
 20
19.691883169
 30
0.0
 10
4.201471975
 20
19.6871324084
 30
0.0
  0
SPLINE
  5
351
100
AcDbEntity
  8
INTFCLR_1
100
AcDbSpline
 62
7
  6
BYLAYER
 70
0
 71
3
 72
15
 73
11
 74
0
 42
0.0000001
 43
0.0000001
 44
0.0000000001
 40
0.0
 40
0.0
 40
0.0
 40
0.0
 40
0.2161663275
 40
0.4123092931
 40
0.5847123843
 40
0.7302887051
 40
0.8464172336
 40
0.9309923874
 40
0.9824697311
 40
1.0
 40
1.0
 40
1.0
 40
1.0
 10
4.1988776941
 20
19.7309685461
 30
0.0
 10
4.1988322257
 20
19.7380200327
 30
0.0
 10
4.198729726
 20
19.7514664711
 30
0.0
 10
4.1985494131
 20
19.7705527385
 30
0.0
 10
4.1983053149
 20
19.7872833003
 30
0.0
 10
4.1981413598
 20
19.8015562605
 30
0.0
 10
4.197679609
 20
19.812547362
 30
0.0
 10
4.1978885044
 20
19.8214712231
 30
0.0
 10
4.1967901907
 20
19.8252214702
 30
0.0
 10
4.1974672621
 20
19.8287833088
 30
0.0
 10
4.1968954015
 20
19.8287833088
 30
0.0
  0
SPLINE
  5
352
100
AcDbEntity
  8
INTFCLR_1
100
AcDbSpline
 62
7
  6
BYLAYER
 70
0
 71
3
 72
12
 73
8
 74
0
 42
0.0000001
 43
0.0000001
 44
0.0000000001
 40
0.0
 40
0.0
 40
0.0
 40
0.0
 40
0.042118941
 40
0.1659472969
 40
0.3695714265
 40
0.6492995338
 40
1.0
 40
1.0
 40
1.0
 40
1.0
 10
4.1968954015
 20
19.8287833088
 30
0.0
 10
4.1963247721
 20
19.8287833088
 30
0.0
 10
4.1970000382
 20
19.8252263627
 30
0.0
 10
4.1959026069
 20
19.8214786229
 30
0.0
 10
4.1961120886
 20
19.8125537373
 30
0.0
 10
4.1956455103
 20
19.80156608
 30
0.0
 10
4.1955611319
 20
19.792936125
 30
0.0
 10
4.1954890853
 20
19.788185365
 30
0.0
  0
SPLINE
  5
353
100
AcDbEntity
  8
INTFCLR_1
100
AcDbSpline
 62
7
  6
BYLAYER
 70
0
 71
3
 72
15
 73
11
 74
0
 42
0.0000001
 43
0.0000001
 44
0.0000000001
 40
0.0
 40
0.0
 40
0.0
 40
0.0
 40
0.2161663703
 40
0.4123093209
 40
0.5847123994
 40
0.7302887102
 40
0.8464172319
 40
0.9309923826
 40
0.9824697268
 40
1.0
 40
1.0
 40
1.0
 40
1.0
 10
4.1928948042
 20
19.8320214966
 30
0.0
 10
4.1928493358
 20
19.8390729848
 30
0.0
 10
4.1927468361
 20
19.8525194247
 30
0.0
 10
4.1925665231
 20
19.8716056932
 30
0.0
 10
4.1923224249
 20
19.8883362544
 30
0.0
 10
4.1921584699
 20
19.9026092141
 30
0.0
 10
4.191696719
 20
19.9136003155
 30
0.0
 10
4.1919056146
 20
19.9225241766
 30
0.0
 10
4.1908073006
 20
19.9262744238
 30
0.0
 10
4.1914843724
 20
19.9298362629
 30
0.0
 10
4.1909125116
 20
19.9298362629
 30
0.0
  0
SPLINE
  5
354
100
AcDbEntity
  8
INTFCLR_1
100
AcDbSpline
 62
7
  6
BYLAYER
 70
0
 71
3
 72
12
 73
8
 74
0
 42
0.0000001
 43
0.0000001
 44
0.0000000001
 40
0.0
 40
0.0
 40
0.0
 40
0.0
 40
0.042118929
 40
0.1659472787
 40
0.3695714083
 40
0.6492995216
 40
1.0
 40
1.0
 40
1.0
 40
1.0
 10
4.1909125116
 20
19.9298362629
 30
0.0
 10
4.1903418824
 20
19.9298362629
 30
0.0
 10
4.1910171481
 20
19.9262793174
 30
0.0
 10
4.1899197171
 20
19.9225315781
 30
0.0
 10
4.1901291986
 20
19.9136066929
 30
0.0
 10
4.1896626204
 20
19.902619036
 30
0.0
 10
4.1895782419
 20
19.8939890812
 30
0.0
 10
4.1895061953
 20
19.8892383213
 30
0.0
  0
SPLINE
  5
355
100
AcDbEntity
  8
INTFCLR_1
100
AcDbSpline
 62
7
  6
BYLAYER
 70
0
 71
3
 72
15
 73
11
 74
0
 42
0.0000001
 43
0.0000001
 44
0.0000000001
 40
0.0
 40
0.0
 40
0.0
 40
0.0
 40
0.2161661748
 40
0.4123091807
 40
0.5847123064
 40
0.7302886556
 40
0.8464172062
 40
0.9309923757
 40
0.9824697285
 40
1.0
 40
1.0
 40
1.0
 40
1.0
 10
4.1869119143
 20
19.9330744718
 30
0.0
 10
4.1868664459
 20
19.940125952
 30
0.0
 10
4.1867639463
 20
19.953572384
 30
0.0
 10
4.1865836334
 20
19.972658645
 30
0.0
 10
4.1863395351
 20
19.9893892068
 30
0.0
 10
4.1861755801
 20
20.003662167
 30
0.0
 10
4.1857138292
 20
20.0146532684
 30
0.0
 10
4.1859227246
 20
20.0235771294
 30
0.0
 10
4.184824411
 20
20.0273273764
 30
0.0
 10
4.1855014823
 20
20.0308892149
 30
0.0
 10
4.1849296217
 20
20.0308892149
 30
0.0
  0
SPLINE
  5
356
100
AcDbEntity
  8
INTFCLR_1
100
AcDbSpline
 62
7
  6
BYLAYER
 70
0
 71
3
 72
12
 73
8
 74
0
 42
0.0000001
 43
0.0000001
 44
0.0000000001
 40
0.0
 40
0.0
 40
0.0
 40
0.0
 40
0.0421189425
 40
0.1659472987
 40
0.369571428
 40
0.6492995344
 40
1.0
 40
1.0
 40
1.0
 40
1.0
 10
4.1849296217
 20
20.0308892149
 30
0.0
 10
4.1843589923
 20
20.0308892149
 30
0.0
 10
4.1850342584
 20
20.0273322687
 30
0.0
 10
4.1839368271
 20
20.0235845289
 30
0.0
 10
4.1841463088
 20
20.0146596432
 30
0.0
 10
4.1836797304
 20
20.0036719859
 30
0.0
 10
4.183595352
 20
19.9950420309
 30
0.0
 10
4.1835233054
 20
19.990291271
 30
0.0
  0
SPLINE
  5
357
100
AcDbEntity
  8
INTFCLR_1
100
AcDbSpline
 62
7
  6
BYLAYER
 70
0
 71
3
 72
15
 73
11
 74
0
 42
0.0000001
 43
0.0000001
 44
0.0000000001
 40
0.0
 40
0.0
 40
0.0
 40
0.0
 40
0.2161662106
 40
0.4123092037
 40
0.5847123186
 40
0.7302886595
 40
0.8464172046
 40
0.9309923715
 40
0.9824697249
 40
1.0
 40
1.0
 40
1.0
 40
1.0
 10
4.1809290244
 20
20.0341274233
 30
0.0
 10
4.180883556
 20
20.041178905
 30
0.0
 10
4.1807810564
 20
20.0546253384
 30
0.0
 10
4.1806007435
 20
20.0737116007
 30
0.0
 10
4.1803566452
 20
20.0904421622
 30
0.0
 10
4.1801926902
 20
20.1047151222
 30
0.0
 10
4.1797309393
 20
20.1157062237
 30
0.0
 10
4.1799398348
 20
20.1246300848
 30
0.0
 10
4.1788415209
 20
20.128380332
 30
0.0
 10
4.1795185926
 20
20.131942171
 30
0.0
 10
4.1789467317
 20
20.131942171
 30
0.0
  0
SPLINE
  5
358
100
AcDbEntity
  8
INTFCLR_1
100
AcDbSpline
 62
7
  6
BYLAYER
 70
0
 71
3
 72
12
 73
8
 74
0
 42
0.0000001
 43
0.0000001
 44
0.0000000001
 40
0.0
 40
0.0
 40
0.0
 40
0.0
 40
0.0421189325
 40
0.1659472837
 40
0.369571413
 40
0.6492995245
 40
1.0
 40
1.0
 40
1.0
 40
1.0
 10
4.1789467317
 20
20.131942171
 30
0.0
 10
4.1783761025
 20
20.131942171
 30
0.0
 10
4.1790513683
 20
20.1283852252
 30
0.0
 10
4.1779539372
 20
20.1246374857
 30
0.0
 10
4.1781634188
 20
20.1157126002
 30
0.0
 10
4.1776968405
 20
20.1047249429
 30
0.0
 10
4.177612462
 20
20.0960949878
 30
0.0
 10
4.1775404154
 20
20.0913442278
 30
0.0
  0
SPLINE
  5
359
100
AcDbEntity
  8
INTFCLR_1
100
AcDbSpline
 62
7
  6
BYLAYER
 70
0
 71
3
 72
15
 73
11
 74
0
 42
0.0000001
 43
0.0000001
 44
0.0000000001
 40
0.0
 40
0.0
 40
0.0
 40
0.0
 40
0.2161662867
 40
0.4123092587
 40
0.5847123557
 40
0.7302886822
 40
0.8464172162
 40
0.9309923757
 40
0.9824697252
 40
1.0
 40
1.0
 40
1.0
 40
1.0
 10
4.1749461345
 20
20.135180363
 30
0.0
 10
4.1749006661
 20
20.142231848
 30
0.0
 10
4.1747981665
 20
20.1556782851
 30
0.0
 10
4.1746178535
 20
20.174764551
 30
0.0
 10
4.1743737553
 20
20.191495113
 30
0.0
 10
4.1742098003
 20
20.2057680735
 30
0.0
 10
4.1737480494
 20
20.2167591753
 30
0.0
 10
4.1739569449
 20
20.2256830368
 30
0.0
 10
4.1728586309
 20
20.2294332842
 30
0.0
 10
4.1735357027
 20
20.2329951235
 30
0.0
 10
4.1729638418
 20
20.2329951235
 30
0.0
  0
SPLINE
  5
35A
100
AcDbEntity
  8
INTFCLR_1
100
AcDbSpline
 62
7
  6
BYLAYER
 70
0
 71
3
 72
12
 73
8
 74
0
 42
0.0000001
 43
0.0000001
 44
0.0000000001
 40
0.0
 40
0.0
 40
0.0
 40
0.0
 40
0.0421189298
 40
0.16594728
 40
0.3695714099
 40
0.6492995229
 40
1.0
 40
1.0
 40
1.0
 40
1.0
 10
4.1729638418
 20
20.2329951235
 30
0.0
 10
4.1723932126
 20
20.2329951235
 30
0.0
 10
4.1730684784
 20
20.2294381775
 30
0.0
 10
4.1719710473
 20
20.2256904377
 30
0.0
 10
4.1721805289
 20
20.2167655514
 30
0.0
 10
4.1717139505
 20
20.2057778931
 30
0.0
 10
4.1716295721
 20
20.1971479373
 30
0.0
 10
4.1715575255
 20
20.1923971769
 30
0.0
  0
SPLINE
  5
35B
100
AcDbEntity
  8
INTFCLR_1
100
AcDbSpline
 62
7
  6
BYLAYER
 70
0
 71
3
 72
15
 73
11
 74
0
 42
0.0000001
 43
0.0000001
 44
0.0000000001
 40
0.0
 40
0.0
 40
0.0
 40
0.0
 40
0.2161662883
 40
0.4123092556
 40
0.5847123492
 40
0.7302886735
 40
0.846417207
 40
0.9309923677
 40
0.9824697203
 40
1.0
 40
1.0
 40
1.0
 40
1.0
 10
4.1689632446
 20
20.2362333186
 30
0.0
 10
4.1689177762
 20
20.2432848037
 30
0.0
 10
4.1688152765
 20
20.2567312405
 30
0.0
 10
4.1686349636
 20
20.2758175062
 30
0.0
 10
4.1683908653
 20
20.2925480677
 30
0.0
 10
4.1682269103
 20
20.3068210279
 30
0.0
 10
4.1677651594
 20
20.3178121296
 30
0.0
 10
4.167974055
 20
20.3267359912
 30
0.0
 10
4.1668757409
 20
20.3304862388
 30
0.0
 10
4.167552813
 20
20.3340480785
 30
0.0
 10
4.1669809519
 20
20.3340480785
 30
0.0
  0
SPLINE
  5
35C
100
AcDbEntity
  8
INTFCLR_1
100
AcDbSpline
 62
7
  6
BYLAYER
 70
0
 71
3
 72
12
 73
8
 74
0
 42
0.0000001
 43
0.0000001
 44
0.0000000001
 40
0.0
 40
0.0
 40
0.0
 40
0.0
 40
0.0421189186
 40
0.1659472631
 40
0.3695713929
 40
0.6492995116
 40
1.0
 40
1.0
 40
1.0
 40
1.0
 10
4.1669809519
 20
20.3340480785
 30
0.0
 10
4.1664103229
 20
20.3340480785
 30
0.0
 10
4.1670855883
 20
20.3304911331
 30
0.0
 10
4.1659881574
 20
20.3267433937
 30
0.0
 10
4.1661976389
 20
20.3178185077
 30
0.0
 10
4.1657310606
 20
20.3068308497
 30
0.0
 10
4.1656466822
 20
20.2982008939
 30
0.0
 10
4.1655746355
 20
20.2934501335
 30
0.0
  0
SPLINE
  5
35D
100
AcDbEntity
  8
INTFCLR_1
100
AcDbSpline
 62
7
  6
BYLAYER
 70
0
 71
3
 72
14
 73
10
 74
0
 42
0.0000001
 43
0.0000001
 44
0.0000000001
 40
0.0
 40
0.0
 40
0.0
 40
0.0
 40
0.2067285026
 40
0.39893947
 40
0.5720982231
 40
0.7221016934
 40
0.8453469318
 40
0.9387890929
 40
1.0
 40
1.0
 40
1.0
 40
1.0
 10
4.1629541976
 20
20.3445436804
 30
0.0
 10
4.1629381474
 20
20.3495412412
 30
0.0
 10
4.16289754
 20
20.3591853829
 30
0.0
 10
4.162807623
 20
20.3730153659
 30
0.0
 10
4.1626933813
 20
20.3854738366
 30
0.0
 10
4.1625573183
 20
20.3962646977
 30
0.0
 10
4.1624061627
 20
20.4051281956
 30
0.0
 10
4.1622398467
 20
20.4118440352
 30
0.0
 10
4.1621069609
 20
20.4155809386
 30
0.0
 10
4.1620195047
 20
20.4170581034
 30
0.0
  0
SPLINE
  5
35E
100
AcDbEntity
  8
INTFCLR_1
100
AcDbSpline
 62
7
  6
BYLAYER
 70
0
 71
3
 72
43
 73
39
 74
0
 42
0.0000001
 43
0.0000001
 44
0.0000000001
 40
0.0
 40
0.0
 40
0.0
 40
0.0
 40
0.0019715347
 40
0.0076885073
 40
0.017143423
 40
0.0302520914
 40
0.0469638692
 40
0.0671305594
 40
0.0905946227
 40
0.1171265558
 40
0.1465646074
 40
0.1787159313
 40
0.2133140041
 40
0.2500863677
 40
0.2887498391
 40
0.329083527
 40
0.3707104657
 40
0.4133044423
 40
0.4565371321
 40
0.5000833046
 40
0.5436207449
 40
0.5868276565
 40
0.6293821788
 40
0.6709630582
 40
0.71125123
 40
0.7498754846
 40
0.7866171418
 40
0.8211956997
 40
0.8533477736
 40
0.8828113355
 40
0.9093701756
 40
0.9328444386
 40
0.9530118428
 40
0.9697230018
 40
0.982834726
 40
0.992298311
 40
0.9980267835
 40
1.0
 40
1.0
 40
1.0
 40
1.0
 10
3.572186881
 20
16.8351483771
 30
0.0
 10
3.5726848922
 20
16.8337763167
 30
0.0
 10
3.574165415
 20
16.8283368664
 30
0.0
 10
3.5745438082
 20
16.8156562554
 30
0.0
 10
3.5759523149
 20
16.7950145116
 30
0.0
 10
3.5768750573
 20
16.7661867568
 30
0.0
 10
3.5779876645
 20
16.7295439257
 30
0.0
 10
3.5789876975
 20
16.6852830028
 30
0.0
 10
3.5799685023
 20
16.6338217383
 30
0.0
 10
3.5808843292
 20
16.5755548746
 30
0.0
 10
3.5817396458
 20
16.5109140703
 30
0.0
 10
3.582523803
 20
16.4403543893
 30
0.0
 10
3.5832314504
 20
16.3644132022
 30
0.0
 10
3.583856299
 20
16.2836937562
 30
0.0
 10
3.5843938245
 20
16.1987659052
 30
0.0
 10
3.5848395846
 20
16.1102761187
 30
0.0
 10
3.5851899366
 20
16.0189024309
 30
0.0
 10
3.5854419514
 20
15.9254016793
 30
0.0
 10
3.5855937774
 20
15.8304927439
 30
0.0
 10
3.5856443673
 20
15.7348915677
 30
0.0
 10
3.5855934196
 20
15.6393093028
 30
0.0
 10
3.5854413474
 20
15.5444546289
 30
0.0
 10
3.5851892883
 20
15.4510355224
 30
0.0
 10
3.5848391365
 20
15.3597579592
 30
0.0
 10
3.5843938046
 20
15.2713641221
 30
0.0
 10
3.58385688
 20
15.1865209564
 30
0.0
 10
3.5832327247
 20
15.1058671196
 30
0.0
 10
3.5825257177
 20
15.0299622208
 30
0.0
 10
3.5817418973
 20
14.9593975874
 30
0.0
 10
3.5808864728
 20
14.8947177768
 30
0.0
 10
3.5799702626
 20
14.836404978
 30
0.0
 10
3.5789892183
 20
14.7849159632
 30
0.0
 10
3.5779892871
 20
14.7406474985
 30
0.0
 10
3.5768771246
 20
14.7040023003
 30
0.0
 10
3.5759545448
 20
14.6751664841
 30
0.0
 10
3.5745461441
 20
14.654507515
 30
0.0
 10
3.5741680542
 20
14.641811007
 30
0.0
 10
3.5726872427
 20
14.6363616035
 30
0.0
 10
3.5721896885
 20
14.634988117
 30
0.0
  0
SPLINE
  5
35F
100
AcDbEntity
  8
INTFCLR_1
100
AcDbSpline
 62
7
  6
BYLAYER
 70
0
 71
3
 72
43
 73
39
 74
0
 42
0.0000001
 43
0.0000001
 44
0.0000000001
 40
0.0
 40
0.0
 40
0.0
 40
0.0
 40
0.0019758303
 40
0.0076915758
 40
0.0171453922
 40
0.0302530983
 40
0.046964055
 40
0.0671300636
 40
0.0905935908
 40
0.1171251268
 40
0.1465629219
 40
0.1787140977
 40
0.2133121251
 40
0.2500845419
 40
0.2887481584
 40
0.3290821035
 40
0.3707093533
 40
0.4133036876
 40
0.4565367606
 40
0.5000833265
 40
0.5436211589
 40
0.5868284496
 40
0.6293833228
 40
0.6709645044
 40
0.7112529231
 40
0.7498773126
 40
0.7866190157
 40
0.8211975243
 40
0.8533494474
 40
0.8828127514
 40
0.9093711961
 40
0.9328449246
 40
0.9530116478
 40
0.9697219858
 40
0.9828327478
 40
0.9922952332
 40
0.998022478
 40
1.0
 40
1.0
 40
1.0
 40
1.0
 10
3.5721896885
 20
14.634988117
 30
0.0
 10
3.5716900327
 20
14.6363630246
 30
0.0
 10
3.5702080856
 20
14.6418044052
 30
0.0
 10
3.5698292443
 20
14.6544865239
 30
0.0
 10
3.5684208983
 20
14.675125838
 30
0.0
 10
3.5674980846
 20
14.7039515052
 30
0.0
 10
3.5663854813
 20
14.740592541
 30
0.0
 10
3.5653854214
 20
14.7848519935
 30
0.0
 10
3.5644045976
 20
14.8363121
 30
0.0
 10
3.5634887482
 20
14.8945781224
 30
0.0
 10
3.5626334106
 20
14.9592183732
 30
0.0
 10
3.561849233
 20
15.0297777622
 30
0.0
 10
3.5611415668
 20
15.1057188873
 30
0.0
 10
3.5605167011
 20
15.1864384891
 30
0.0
 10
3.5599791604
 20
15.2713667202
 30
0.0
 10
3.5595333873
 20
15.359857078
 30
0.0
 10
3.559183025
 20
15.4512314946
 30
0.0
 10
3.5589310027
 20
15.5447330686
 30
0.0
 10
3.5587791722
 20
15.6396428876
 30
0.0
 10
3.5587285809
 20
15.735244973
 30
0.0
 10
3.5587795302
 20
15.8308281442
 30
0.0
 10
3.558931607
 20
15.9256836926
 30
0.0
 10
3.5591836736
 20
16.019103607
 30
0.0
 10
3.5595338358
 20
16.1103818801
 30
0.0
 10
3.5599791806
 20
16.1987762668
 30
0.0
 10
3.5605161204
 20
16.2836197922
 30
0.0
 10
3.5611402926
 20
16.364273769
 30
0.0
 10
3.5618473183
 20
16.4401785957
 30
0.0
 10
3.562631159
 20
16.5107429311
 30
0.0
 10
3.5634866046
 20
16.5754221866
 30
0.0
 10
3.5644028372
 20
16.6337341454
 30
0.0
 10
3.5653839006
 20
16.685222005
 30
0.0
 10
3.5663838587
 20
16.729489001
 30
0.0
 10
3.5674960173
 20
16.7661324045
 30
0.0
 10
3.5684186686
 20
16.794966133
 30
0.0
 10
3.5698269079
 20
16.8156226721
 30
0.0
 10
3.5702054471
 20
16.828320694
 30
0.0
 10
3.5716876825
 20
16.8337720354
 30
0.0
 10
3.572186881
 20
16.8351483771
 30
0.0
  0
SPLINE
  5
360
100
AcDbEntity
  8
INTFCLR_1
100
AcDbSpline
 62
7
  6
BYLAYER
 70
0
 71
3
 72
27
 73
23
 74
0
 42
0.0000001
 43
0.0000001
 44
0.0000000001
 40
0.0
 40
0.0
 40
0.0
 40
0.0
 40
0.0784440829
 40
0.1564038438
 40
0.2333866007
 40
0.3089075516
 40
0.3826990803
 40
0.4541012567
 40
0.5226650604
 40
0.5879718127
 40
0.6496243433
 40
0.7072512562
 40
0.7605059903
 40
0.8090677809
 40
0.8526437063
 40
0.8909708132
 40
0.9238160639
 40
0.9509732017
 40
0.9722272029
 40
0.9875290313
 40
0.9967843914
 40
1.0
 40
1.0
 40
1.0
 40
1.0
 10
5.5167441299
 20
35.0870033871
 30
0.0
 10
5.5167439574
 20
35.1327784665
 30
0.0
 10
5.5167871328
 20
35.2240460114
 30
0.0
 10
5.5169832882
 20
35.3602357697
 30
0.0
 10
5.5173087746
 20
35.4947195196
 30
0.0
 10
5.5177620031
 20
35.6267705659
 30
0.0
 10
5.518340325
 20
35.7555646146
 30
0.0
 10
5.5190403764
 20
35.8802982419
 30
0.0
 10
5.5198570057
 20
36.0000798674
 30
0.0
 10
5.5207848477
 20
36.1141712202
 30
0.0
 10
5.5218178098
 20
36.2218793199
 30
0.0
 10
5.5229493248
 20
36.3225531867
 30
0.0
 10
5.5241714665
 20
36.4155865566
 30
0.0
 10
5.5254778448
 20
36.500418316
 30
0.0
 10
5.5268539961
 20
36.5765378973
 30
0.0
 10
5.5283072695
 20
36.6434799335
 30
0.0
 10
5.5297740224
 20
36.700847117
 30
0.0
 10
5.5313891666
 20
36.7482179983
 30
0.0
 10
5.5327273918
 20
36.7854195885
 30
0.0
 10
5.5347418451
 20
36.8119863126
 30
0.0
 10
5.5353015893
 20
36.8283549568
 30
0.0
 10
5.5374116619
 20
36.8353145954
 30
0.0
 10
5.5381257366
 20
36.837072758
 30
0.0
  0
SPLINE
  5
361
100
AcDbEntity
  8
INTFCLR_1
100
AcDbSpline
 62
7
  6
BYLAYER
 70
0
 71
3
 72
27
 73
23
 74
0
 42
0.0000001
 43
0.0000001
 44
0.0000000001
 40
0.0
 40
0.0
 40
0.0
 40
0.0
 40
0.0032073233
 40
0.0124672983
 40
0.027793667
 40
0.0490967233
 40
0.0763246143
 40
0.1092561251
 40
0.1476775053
 40
0.1913454426
 40
0.239985502
 40
0.2932964002
 40
0.3509507134
 40
0.412596182
 40
0.4778582092
 40
0.5463435219
 40
0.617640996
 40
0.6913105203
 40
0.7667084259
 40
0.8435934764
 40
0.9215115816
 40
1.0
 40
1.0
 40
1.0
 40
1.0
 10
5.5381257366
 20
36.837072758
 30
0.0
 10
5.5388392322
 20
36.8353195557
 30
0.0
 10
5.5409531492
 20
36.828363335
 30
0.0
 10
5.5415079859
 20
36.8119808477
 30
0.0
 10
5.5435282942
 20
36.7853696318
 30
0.0
 10
5.5448669448
 20
36.7480832803
 30
0.0
 10
5.5464852287
 20
36.7005923692
 30
0.0
 10
5.547953755
 20
36.6430784609
 30
0.0
 10
5.5494086334
 20
36.5759773887
 30
0.0
 10
5.5507855817
 20
36.4997033924
 30
0.0
 10
5.5520920542
 20
36.4147394605
 30
0.0
 10
5.5533135804
 20
36.3216116145
 30
0.0
 10
5.5544438919
 20
36.2208930642
 30
0.0
 10
5.5554752053
 20
36.1131991529
 30
0.0
 10
5.5564011487
 20
35.9991837808
 30
0.0
 10
5.5572158483
 20
35.8795351142
 30
0.0
 10
5.5579141463
 20
35.7549795428
 30
0.0
 10
5.5584910631
 20
35.6263895509
 30
0.0
 10
5.5589433722
 20
35.4945384805
 30
0.0
 10
5.5592684327
 20
35.3602078208
 30
0.0
 10
5.5594646752
 20
35.2240734799
 30
0.0
 10
5.5595077124
 20
35.132804348
 30
0.0
 10
5.5595075189
 20
35.0870033857
 30
0.0
  0
SPLINE
  5
362
100
AcDbEntity
  8
INTFCLR_1
100
AcDbSpline
 62
7
  6
BYLAYER
 70
0
 71
3
 72
43
 73
39
 74
0
 42
0.0000001
 43
0.0000001
 44
0.0000000001
 40
0.0
 40
0.0
 40
0.0
 40
0.0
 40
0.001968871
 40
0.0076846614
 40
0.0171385494
 40
0.0302463534
 40
0.0469574338
 40
0.0671235903
 40
0.0905872886
 40
0.1171190167
 40
0.1465570237
 40
0.1787084285
 40
0.2133066999
 40
0.2500793736
 40
0.2887432576
 40
0.32907748
 40
0.3707050124
 40
0.4132996319
 40
0.45653299
 40
0.5000798382
 40
0.5436179477
 40
0.5868255079
 40
0.6293806406
 40
0.6709620689
 40
0.7112507194
 40
0.7498753218
 40
0.7866172183
 40
0.8211958993
 40
0.8533479723
 40
0.882811402
 40
0.909369946
 40
0.9328437468
 40
0.953010514
 40
0.9697208673
 40
0.9828316157
 40
0.9922940586
 40
0.9980212325
 40
1.0
 40
1.0
 40
1.0
 40
1.0
 10
5.5723348134
 20
16.8351437831
 30
0.0
 10
5.5718372093
 20
16.8337736703
 30
0.0
 10
5.5703563822
 20
16.8283372596
 30
0.0
 10
5.5699790328
 20
16.815660024
 30
0.0
 10
5.568569933
 20
16.7950208232
 30
0.0
 10
5.5676474483
 20
16.7661950538
 30
0.0
 10
5.5665347181
 20
16.7295539948
 30
0.0
 10
5.5655347031
 20
16.6852944792
 30
0.0
 10
5.5645538642
 20
16.6338343148
 30
0.0
 10
5.5636380198
 20
16.5755682252
 30
0.0
 10
5.5627826809
 20
16.5109279048
 30
0.0
 10
5.5619985041
 20
16.4403684438
 30
0.0
 10
5.5612908383
 20
16.3644272468
 30
0.0
 10
5.5606659733
 20
16.2837075739
 30
0.0
 10
5.5601284334
 20
16.1987792729
 30
0.0
 10
5.5596826614
 20
16.1102888482
 30
0.0
 10
5.5593323002
 20
16.0189143691
 30
0.0
 10
5.5590802791
 20
15.9254127401
 30
0.0
 10
5.55892845
 20
15.8305028747
 30
0.0
 10
5.5588778602
 20
15.7349007532
 30
0.0
 10
5.5589288111
 20
15.6393175573
 30
0.0
 10
5.5590808896
 20
15.5444619964
 30
0.0
 10
5.5593329581
 20
15.4510420832
 30
0.0
 10
5.5596831221
 20
15.3597638258
 30
0.0
 10
5.5601284688
 20
15.2713694714
 30
0.0
 10
5.5606654105
 20
15.1865259956
 30
0.0
 10
5.5612895847
 20
15.1058720865
 30
0.0
 10
5.5619966123
 20
15.0299673448
 30
0.0
 10
5.562780455
 20
14.9594031114
 30
0.0
 10
5.5636359021
 20
14.8947239757
 30
0.0
 10
5.5645521372
 20
14.8364121547
 30
0.0
 10
5.5655332
 20
14.784924451
 30
0.0
 10
5.5665331658
 20
14.7406576297
 30
0.0
 10
5.5676453076
 20
14.7040144139
 30
0.0
 10
5.5685680062
 20
14.6751808983
 30
0.0
 10
5.5699761361
 20
14.654524563
 30
0.0
 10
5.5703549013
 20
14.6418258102
 30
0.0
 10
5.571837393
 20
14.636373685
 30
0.0
 10
5.5723369849
 20
14.6349965035
 30
0.0
  0
SPLINE
  5
363
100
AcDbEntity
  8
INTFCLR_1
100
AcDbSpline
 62
7
  6
BYLAYER
 70
0
 71
3
 72
43
 73
39
 74
0
 42
0.0000001
 43
0.0000001
 44
0.0000000001
 40
0.0
 40
0.0
 40
0.0
 40
0.0
 40
0.0019690041
 40
0.0076848815
 40
0.0171388435
 40
0.0302467079
 40
0.0469578346
 40
0.0671240239
 40
0.0905877408
 40
0.1171194743
 40
0.1465574733
 40
0.1787088597
 40
0.2133071028
 40
0.250079739
 40
0.2887435768
 40
0.3290777427
 40
0.3707052134
 40
0.4132997669
 40
0.4565330566
 40
0.5000798354
 40
0.5436178756
 40
0.5868253678
 40
0.6293804351
 40
0.6709618025
 40
0.7112503974
 40
0.7498749545
 40
0.7866168142
 40
0.8211954674
 40
0.8533475222
 40
0.882810944
 40
0.9093694933
 40
0.9328433126
 40
0.9530101125
 40
0.9697205122
 40
0.982831321
 40
0.992293838
 40
0.9980210989
 40
1.0
 40
1.0
 40
1.0
 40
1.0
 10
5.5723369849
 20
14.6349965035
 30
0.0
 10
5.5728345996
 20
14.6363667159
 30
0.0
 10
5.5743153917
 20
14.6418033037
 30
0.0
 10
5.5746928053
 20
14.6544807366
 30
0.0
 10
5.5761018663
 20
14.6751201113
 30
0.0
 10
5.5770243665
 20
14.7039460081
 30
0.0
 10
5.5781370877
 20
14.7405871712
 30
0.0
 10
5.5791371027
 20
14.7848467576
 30
0.0
 10
5.5801179383
 20
14.8363069636
 30
0.0
 10
5.5810337805
 20
14.8945730645
 30
0.0
 10
5.581889117
 20
14.959213369
 30
0.0
 10
5.5826732916
 20
15.0297727894
 30
0.0
 10
5.5833809553
 20
15.1057139242
 30
0.0
 10
5.5840058185
 20
15.1864335145
 30
0.0
 10
5.5845433568
 20
15.2713617119
 30
0.0
 10
5.5849891275
 20
15.3598520154
 30
0.0
 10
5.5853394876
 20
15.4512263587
 30
0.0
 10
5.5855915079
 20
15.5447278432
 30
0.0
 10
5.5857433365
 20
15.6396375583
 30
0.0
 10
5.5857939261
 20
15.7352395273
 30
0.0
 10
5.5857429754
 20
15.8308225708
 30
0.0
 10
5.5855908974
 20
15.9256779823
 30
0.0
 10
5.5853388297
 20
16.0190977524
 30
0.0
 10
5.5849886668
 20
16.1103758756
 30
0.0
 10
5.5845433214
 20
16.1987701109
 30
0.0
 10
5.5840063813
 20
16.283613485
 30
0.0
 10
5.5833822089
 20
16.3642673129
 30
0.0
 10
5.5826751834
 20
16.4401719934
 30
0.0
 10
5.5818913429
 20
16.5107361868
 30
0.0
 10
5.5810358982
 20
16.5754153069
 30
0.0
 10
5.5801196653
 20
16.633727139
 30
0.0
 10
5.5791386058
 20
16.6852148842
 30
0.0
 10
5.57813864
 20
16.7294817761
 30
0.0
 10
5.5770265072
 20
16.7661250961
 30
0.0
 10
5.5761037932
 20
16.7949587392
 30
0.0
 10
5.5746957019
 20
16.8156152485
 30
0.0
 10
5.5743168726
 20
16.8283141991
 30
0.0
 10
5.5728344159
 20
16.8337665017
 30
0.0
 10
5.5723348134
 20
16.8351437831
 30
0.0
  0
SPLINE
  5
364
100
AcDbEntity
  8
INTFCLR_1
100
AcDbSpline
 62
7
  6
BYLAYER
 70
0
 71
3
 72
40
 73
36
 74
0
 42
0.0000001
 43
0.0000001
 44
0.0000000001
 40
0.0
 40
0.0
 40
0.0
 40
0.0
 40
0.0023332111
 40
0.0091283246
 40
0.0203561241
 40
0.0358972484
 40
0.0556791599
 40
0.0794856176
 40
0.1071023576
 40
0.1382026294
 40
0.1726027673
 40
0.2100035064
 40
0.2500298513
 40
0.2922998384
 40
0.3364730203
 40
0.3822240143
 40
0.4290142316
 40
0.4764136132
 40
0.523988572
 40
0.5713183377
 40
0.617997794
 40
0.6636272181
 40
0.7076955669
 40
0.7498909616
 40
0.7898768941
 40
0.8272733487
 40
0.8617031579
 40
0.8928407469
 40
0.9204738532
 40
0.944282433
 40
0.9640637572
 40
0.9796087389
 40
0.9908478298
 40
0.9976582003
 40
1.0
 40
1.0
 40
1.0
 40
1.0
 10
5.5845538049
 20
25.5350836834
 30
0.0
 10
5.5858763321
 20
25.5350836826
 30
0.0
 10
5.5849692203
 20
25.5431274317
 30
0.0
 10
5.5873274069
 20
25.5518773031
 30
0.0
 10
5.587360401
 20
25.572435518
 30
0.0
 10
5.5886302875
 20
25.5981296576
 30
0.0
 10
5.589360817
 20
25.6318947398
 30
0.0
 10
5.590250783
 20
25.6721550259
 30
0.0
 10
5.5910255491
 20
25.7189557869
 30
0.0
 10
5.5917674671
 20
25.7717221279
 30
0.0
 10
5.5924395515
 20
25.8300485237
 30
0.0
 10
5.5930447985
 20
25.8934314313
 30
0.0
 10
5.5935740797
 20
25.9612772121
 30
0.0
 10
5.5940231717
 20
26.0329620914
 30
0.0
 10
5.5943878343
 20
26.1078924772
 30
0.0
 10
5.5946644304
 20
26.1853854137
 30
0.0
 10
5.5948501058
 20
26.2647073308
 30
0.0
 10
5.5949430761
 20
26.3450632809
 30
0.0
 10
5.5949426811
 20
26.4257251159
 30
0.0
 10
5.5948491005
 20
26.5059788226
 30
0.0
 10
5.5946632588
 20
26.5851295871
 30
0.0
 10
5.5943869969
 20
26.6624314099
 30
0.0
 10
5.5940230495
 20
26.7371911846
 30
0.0
 10
5.5935748349
 20
26.808751457
 30
0.0
 10
5.5930463494
 20
26.8765296248
 30
0.0
 10
5.5924415647
 20
26.9399040203
 30
0.0
 10
5.5917694813
 20
26.9982659617
 30
0.0
 10
5.5910272435
 20
27.0510795444
 30
0.0
 10
5.5902522502
 20
27.0979119383
 30
0.0
 10
5.5893623285
 20
27.1381824336
 30
0.0
 10
5.5886322125
 20
27.1719503745
 30
0.0
 10
5.5873622509
 20
27.1976530489
 30
0.0
 10
5.5873310282
 20
27.2182294199
 30
0.0
 10
5.5849673604
 20
27.2269939205
 30
0.0
 10
5.5858812003
 20
27.2350603723
 30
0.0
 10
5.5845538049
 20
27.2350603723
 30
0.0
  0
SPLINE
  5
365
100
AcDbEntity
  8
INTFCLR_1
100
AcDbSpline
 62
7
  6
BYLAYER
 70
0
 71
3
 72
27
 73
23
 74
0
 42
0.0000001
 43
0.0000001
 44
0.0000000001
 40
0.0
 40
0.0
 40
0.0
 40
0.0
 40
0.0032216807
 40
0.0125008563
 40
0.027849783
 40
0.0491854195
 40
0.0763757002
 40
0.1092582038
 40
0.1476324002
 40
0.1912635266
 40
0.2398836292
 40
0.2931910858
 40
0.3508533916
 40
0.4125100709
 40
0.4777784083
 40
0.5462671709
 40
0.6175706017
 40
0.6912556357
 40
0.7666795312
 40
0.8435917641
 40
0.9215241638
 40
1.0
 40
1.0
 40
1.0
 40
1.0
 10
5.5808876819
 20
30.2350845842
 30
0.0
 10
5.5790077991
 20
30.2350845841
 30
0.0
 10
5.5796701473
 20
30.2462489478
 30
0.0
 10
5.5764930899
 20
30.2587102981
 30
0.0
 10
5.5759485106
 20
30.2875898716
 30
0.0
 10
5.573964125
 20
30.32390986
 30
0.0
 10
5.5725968943
 20
30.3717426229
 30
0.0
 10
5.5710415593
 20
30.4290418728
 30
0.0
 10
5.5696180498
 20
30.4961073748
 30
0.0
 10
5.5682319215
 20
30.5723023661
 30
0.0
 10
5.5669284941
 20
30.6572317368
 30
0.0
 10
5.5657055873
 20
30.7503447085
 30
0.0
 10
5.5645749631
 20
30.8510680671
 30
0.0
 10
5.5635429856
 20
30.9587715868
 30
0.0
 10
5.5626165712
 20
31.0727937807
 30
0.0
 10
5.5618014274
 20
31.1924458871
 30
0.0
 10
5.5611026918
 20
31.3170100462
 30
0.0
 10
5.5605253086
 20
31.4456215819
 30
0.0
 10
5.5600725745
 20
31.5775064274
 30
0.0
 10
5.5597470917
 20
31.7118700348
 30
0.0
 10
5.559550812
 20
31.8480147307
 30
0.0
 10
5.5595070214
 20
31.9392805
 30
0.0
 10
5.5595070214
 20
31.9850719319
 30
0.0
  0
SPLINE
  5
366
100
AcDbEntity
  8
INTFCLR_1
100
AcDbSpline
 62
7
  6
BYLAYER
 70
0
 71
3
 72
27
 73
23
 74
0
 42
0.0000001
 43
0.0000001
 44
0.0000000001
 40
0.0
 40
0.0
 40
0.0
 40
0.0
 40
0.0784635394
 40
0.1564417345
 40
0.2334547533
 40
0.3090286793
 40
0.3826863944
 40
0.4539865902
 40
0.5224909442
 40
0.5877774791
 40
0.6494430093
 40
0.7071035951
 40
0.7604001254
 40
0.8090016869
 40
0.8526098761
 40
0.8909644845
 40
0.9238354109
 40
0.9510175629
 40
0.9722927175
 40
0.9876057647
 40
0.9968544192
 40
1.0
 40
1.0
 40
1.0
 40
1.0
 10
5.5595070837
 20
35.0870033918
 30
0.0
 10
5.5591510287
 20
35.132779579
 30
0.0
 10
5.5584411236
 20
35.2240488001
 30
0.0
 10
5.5573752127
 20
35.3602479134
 30
0.0
 10
5.5563093913
 20
35.4947611035
 30
0.0
 10
5.5552437485
 20
35.6267535396
 30
0.0
 10
5.5541783285
 20
35.7554128643
 30
0.0
 10
5.5531131847
 20
35.8799474826
 30
0.0
 10
5.5520483253
 20
35.999597965
 30
0.0
 10
5.5509838307
 20
36.113627115
 30
0.0
 10
5.5499198801
 20
36.2213294615
 30
0.0
 10
5.5488565911
 20
36.322036175
 30
0.0
 10
5.5477946464
 20
36.4151206471
 30
0.0
 10
5.5467333175
 20
36.5000058991
 30
0.0
 10
5.5456769244
 20
36.5761734064
 30
0.0
 10
5.544614645
 20
36.6431609014
 30
0.0
 10
5.5435832464
 20
36.7005680348
 30
0.0
 10
5.5424849849
 20
36.7479966846
 30
0.0
 10
5.5416003733
 20
36.7852111569
 30
0.0
 10
5.5402777521
 20
36.8118827702
 30
0.0
 10
5.5399469337
 20
36.8281176967
 30
0.0
 10
5.5385801428
 20
36.8352164489
 30
0.0
 10
5.5381257366
 20
36.8370033919
 30
0.0
  0
SPLINE
  5
367
100
AcDbEntity
  8
INTFCLR_1
100
AcDbSpline
 62
7
  6
BYLAYER
 70
0
 71
3
 72
27
 73
23
 74
0
 42
0.0000001
 43
0.0000001
 44
0.0000000001
 40
0.0
 40
0.0
 40
0.0
 40
0.0
 40
0.0031432524
 40
0.0123941407
 40
0.0277273663
 40
0.0490532641
 40
0.0762374764
 40
0.1091167028
 40
0.1474899629
 40
0.1911222722
 40
0.2397456822
 40
0.2930583678
 40
0.3507277095
 40
0.4123931338
 40
0.4776719699
 40
0.5461727322
 40
0.6174895446
 40
0.6911892648
 40
0.7666288246
 40
0.8435576102
 40
0.9215068928
 40
1.0
 40
1.0
 40
1.0
 40
1.0
 10
5.5381257366
 20
36.8370033919
 30
0.0
 10
5.5376715668
 20
36.8352177971
 30
0.0
 10
5.5363042338
 20
36.8281192046
 30
0.0
 10
5.5359736639
 20
36.811872401
 30
0.0
 10
5.5346488665
 20
36.7851582886
 30
0.0
 10
5.5337642048
 20
36.7479011508
 30
0.0
 10
5.5326656054
 20
36.7004368655
 30
0.0
 10
5.5316343281
 20
36.6430127958
 30
0.0
 10
5.5305719116
 20
36.5759955039
 30
0.0
 10
5.5295153148
 20
36.4997902934
 30
0.0
 10
5.5284538222
 20
36.4148687954
 30
0.0
 10
5.5273918241
 20
36.3217570405
 30
0.0
 10
5.5263286022
 20
36.2210358526
 30
0.0
 10
5.5252648259
 20
36.1133329484
 30
0.0
 10
5.5242005339
 20
35.9993104446
 30
0.0
 10
5.5231357556
 20
35.8796568528
 30
0.0
 10
5.5220704278
 20
35.755090128
 30
0.0
 10
5.5210054567
 20
35.6264749911
 30
0.0
 10
5.5199406886
 20
35.4945855795
 30
0.0
 10
5.5188760183
 20
35.3602167882
 30
0.0
 10
5.5178104863
 20
35.2240664335
 30
0.0
 10
5.5171005786
 20
35.1327968293
 30
0.0
 10
5.5167443897
 20
35.0870033916
 30
0.0
  0
SPLINE
  5
368
100
AcDbEntity
  8
INTFCLR_1
100
AcDbSpline
 62
7
  6
BYLAYER
 70
0
 71
3
 72
20
 73
16
 74
0
 42
0.0000001
 43
0.0000001
 44
0.0000000001
 40
0.0
 40
0.0
 40
0.0
 40
0.0
 40
0.119545057
 40
0.2373113089
 40
0.3516282207
 40
0.4608813414
 40
0.5635923444
 40
0.6582138922
 40
0.743371588
 40
0.8178552311
 40
0.880611967
 40
0.9307387677
 40
0.9675885998
 40
0.9906819434
 40
1.0
 40
1.0
 40
1.0
 40
1.0
 10
4.5105949441
 20
14.1350720513
 30
0.0
 10
4.4986244639
 20
14.1350720513
 30
0.0
 10
4.4748615958
 20
14.1350301727
 30
0.0
 10
4.4396522294
 20
14.1348426889
 30
0.0
 10
4.4054742402
 20
14.1345337793
 30
0.0
 10
4.3728054251
 20
14.1341078571
 30
0.0
 10
4.3421097504
 20
14.1335719513
 30
0.0
 10
4.3138323771
 20
14.1329321367
 30
0.0
 10
4.2883749679
 20
14.1322056422
 30
0.0
 10
4.2661425501
 20
14.1313833109
 30
0.0
 10
4.2473354777
 20
14.130543396
 30
0.0
 10
4.2325435426
 20
14.1295289702
 30
0.0
 10
4.2211506568
 20
14.1288104154
 30
0.0
 10
4.2150366733
 20
14.1274977186
 30
0.0
 10
4.2109782726
 20
14.1272051898
 30
0.0
 10
4.2106207801
 20
14.1263433412
 30
0.0
  0
SPLINE
  5
369
100
AcDbEntity
  8
INTFCLR_1
100
AcDbSpline
 62
7
  6
BYLAYER
 70
0
 71
3
 72
24
 73
20
 74
0
 42
0.0000001
 43
0.0000001
 44
0.0000000001
 40
0.0
 40
0.0
 40
0.0
 40
0.0
 40
0.122440058
 40
0.228827415
 40
0.3326641234
 40
0.4295224332
 40
0.5237110438
 40
0.606826095
 40
0.6766608809
 40
0.7365284411
 40
0.7854633954
 40
0.8223861031
 40
0.8473916072
 40
0.8594943186
 40
0.8628423857
 40
0.8770854796
 40
0.9037173723
 40
0.9434603446
 40
1.0
 40
1.0
 40
1.0
 40
1.0
 10
18.8192236138
 20
14.0514154417
 30
0.0
 10
18.8049772347
 20
14.0514241701
 30
0.0
 10
18.7783522763
 20
14.0514736417
 30
0.0
 10
18.7396459598
 20
14.0517052762
 30
0.0
 10
18.7039178389
 20
14.0520621684
 30
0.0
 10
18.6696089673
 20
14.0525645006
 30
0.0
 10
18.6377204598
 20
14.0531896281
 30
0.0
 10
18.6089569553
 20
14.05390211
 30
0.0
 10
18.5842569983
 20
14.0547323462
 30
0.0
 10
18.5633462721
 20
14.0555473215
 30
0.0
 10
18.5468105306
 20
14.0566441122
 30
0.0
 10
18.5329705214
 20
14.0571726085
 30
0.0
 10
18.5264133156
 20
14.0589707138
 30
0.0
 10
18.5188577552
 20
14.0585729635
 30
0.0
 10
18.5205386
 20
14.0623368316
 30
0.0
 10
18.5267302585
 20
14.0614548449
 30
0.0
 10
18.5353352802
 20
14.0635648456
 30
0.0
 10
18.549968678
 20
14.063995096
 30
0.0
 10
18.5610382585
 20
14.0647537208
 30
0.0
 10
18.5676095423
 20
14.0650641281
 30
0.0
  0
SPLINE
  5
36A
100
AcDbEntity
  8
INTFCLR_1
100
AcDbSpline
 62
7
  6
BYLAYER
 70
0
 71
3
 72
24
 73
20
 74
0
 42
0.0000001
 43
0.0000001
 44
0.0000000001
 40
0.0
 40
0.0
 40
0.0
 40
0.0
 40
0.1224400603
 40
0.2288274511
 40
0.3326642283
 40
0.4295225674
 40
0.5237111986
 40
0.6068262005
 40
0.6766609327
 40
0.7365284697
 40
0.7854634027
 40
0.8223861087
 40
0.8473916271
 40
0.8594943487
 40
0.8628424168
 40
0.8770855145
 40
0.9037174038
 40
0.9434603565
 40
1.0
 40
1.0
 40
1.0
 40
1.0
 10
6.6192236162
 20
14.0514154417
 30
0.0
 10
6.6049772376
 20
14.0514241701
 30
0.0
 10
6.5783522764
 20
14.0514736417
 30
0.0
 10
6.5396459498
 20
14.0517052763
 30
0.0
 10
6.5039178155
 20
14.0520621687
 30
0.0
 10
6.4696089319
 20
14.0525645014
 30
0.0
 10
6.4377204261
 20
14.0531896288
 30
0.0
 10
6.4089569327
 20
14.0539021105
 30
0.0
 10
6.3842569916
 20
14.0547323463
 30
0.0
 10
6.3633462782
 20
14.0555473215
 30
0.0
 10
6.3468105425
 20
14.056644112
 30
0.0
 10
6.3329705357
 20
14.0571726077
 30
0.0
 10
6.3264133275
 20
14.0589707141
 30
0.0
 10
6.3188577636
 20
14.0585729616
 30
0.0
 10
6.3205386062
 20
14.0623368324
 30
0.0
 10
6.3267302667
 20
14.0614548452
 30
0.0
 10
6.3353352845
 20
14.0635648459
 30
0.0
 10
6.3499686779
 20
14.0639950966
 30
0.0
 10
6.361038254
 20
14.064753721
 30
0.0
 10
6.367609536
 20
14.0650641281
 30
0.0
  0
SPLINE
  5
36B
100
AcDbEntity
  8
INTFCLR_1
100
AcDbSpline
 62
7
  6
BYLAYER
 70
0
 71
3
 72
18
 73
14
 74
0
 42
0.0000001
 43
0.0000001
 44
0.0000000001
 40
0.0
 40
0.0
 40
0.0
 40
0.0
 40
0.0332812208
 40
0.0827293215
 40
0.1441295144
 40
0.2224787954
 40
0.3138090161
 40
0.3976951961
 40
0.5043095599
 40
0.6185608752
 40
0.7407838607
 40
0.8747582436
 40
1.0
 40
1.0
 40
1.0
 40
1.0
 10
4.3234960406
 20
19.4850265073
 30
0.0
 10
4.3249880518
 20
19.4865354968
 30
0.0
 10
4.3292943142
 20
19.4896582977
 30
0.0
 10
4.3373808955
 20
19.4940764749
 30
0.0
 10
4.3489620385
 20
19.4977314427
 30
0.0
 10
4.363607249
 20
19.4997639945
 30
0.0
 10
4.3798072649
 20
19.4998981563
 30
0.0
 10
4.3977394621
 20
19.4986040108
 30
0.0
 10
4.4170213643
 20
19.4961291366
 30
0.0
 10
4.4386036084
 20
19.4925540136
 30
0.0
 10
4.4619329859
 20
19.4888579229
 30
0.0
 10
4.4860742997
 20
19.485814139
 30
0.0
 10
4.502609324
 20
19.4850207107
 30
0.0
 10
4.5105949293
 20
19.4850265051
 30
0.0
  0
SPLINE
  5
36C
100
AcDbEntity
  8
INTFCLR_1
100
AcDbSpline
 62
7
  6
BYLAYER
 70
0
 71
3
 72
13
 73
9
 74
0
 42
0.0000001
 43
0.0000001
 44
0.0000000001
 40
0.0
 40
0.0
 40
0.0
 40
0.0
 40
0.2923927593
 40
0.5399515401
 40
0.7378185386
 40
0.8820614909
 40
0.9698547538
 40
1.0
 40
1.0
 40
1.0
 40
1.0
 10
29.0200510243
 20
19.4850265068
 30
0.0
 10
29.0200954947
 20
19.4809164489
 30
0.0
 10
29.0202042458
 20
19.4733498171
 30
0.0
 10
29.0203128075
 20
19.4628940327
 30
0.0
 10
29.0206474858
 20
19.4548292568
 30
0.0
 10
29.0204765372
 20
19.4482720525
 30
0.0
 10
29.0212942112
 20
19.4455149921
 30
0.0
 10
29.0207700723
 20
19.4428861752
 30
0.0
 10
29.0211938378
 20
19.4428861752
 30
0.0
  0
SPLINE
  5
36D
100
AcDbEntity
  8
INTFCLR_1
100
AcDbSpline
 62
7
  6
BYLAYER
 70
0
 71
3
 72
12
 73
8
 74
0
 42
0.0000001
 43
0.0000001
 44
0.0000000001
 40
0.0
 40
0.0
 40
0.0
 40
0.0
 40
0.1725392172
 40
0.3536495787
 40
0.549919122
 40
0.7650510699
 40
1.0
 40
1.0
 40
1.0
 40
1.0
 10
4.2457565228
 20
19.4428987259
 30
0.0
 10
4.2509732711
 20
19.4428987259
 30
0.0
 10
4.2617013206
 20
19.4441686917
 30
0.0
 10
4.2774903624
 20
19.4497094952
 30
0.0
 10
4.2931207753
 20
19.4586189454
 30
0.0
 10
4.3086330623
 20
19.4705776751
 30
0.0
 10
4.3185189374
 20
19.4799578568
 30
0.0
 10
4.3234960399
 20
19.4850265071
 30
0.0
  0
SPLINE
  5
36E
100
AcDbEntity
  8
INTFCLR_1
100
AcDbSpline
 62
7
  6
BYLAYER
 70
0
 71
3
 72
16
 73
12
 74
0
 42
0.0000001
 43
0.0000001
 44
0.0000000001
 40
0.0
 40
0.0
 40
0.0
 40
0.0
 40
0.1620354367
 40
0.3139301128
 40
0.4534258346
 40
0.5758636769
 40
0.6845709298
 40
0.7793176721
 40
0.8581001727
 40
0.9288768817
 40
1.0
 40
1.0
 40
1.0
 40
1.0
 10
4.2114164754
 20
19.5288421372
 30
0.0
 10
4.211581624
 20
19.523463147
 30
0.0
 10
4.2121305937
 20
19.513046739
 30
0.0
 10
4.2136893124
 20
19.4980610125
 30
0.0
 10
4.2159505333
 20
19.4844931501
 30
0.0
 10
4.2189117401
 20
19.4725290232
 30
0.0
 10
4.2225798413
 20
19.4623189615
 30
0.0
 10
4.2270132175
 20
19.4540067755
 30
0.0
 10
4.2323038876
 20
19.4477428202
 30
0.0
 10
4.2386178345
 20
19.4437383033
 30
0.0
 10
4.2433943801
 20
19.4428987259
 30
0.0
 10
4.2457565228
 20
19.4428987259
 30
0.0
  0
SPLINE
  5
36F
100
AcDbEntity
  8
INTFCLR_1
100
AcDbSpline
 62
7
  6
BYLAYER
 70
0
 71
3
 72
16
 73
12
 74
0
 42
0.0000001
 43
0.0000001
 44
0.0000000001
 40
0.0
 40
0.0
 40
0.0
 40
0.0
 40
0.014425054
 40
0.0564202939
 40
0.1254308412
 40
0.220130003
 40
0.3386946662
 40
0.4788336598
 40
0.6378389596
 40
0.8126341287
 40
1.0
 40
1.0
 40
1.0
 40
1.0
 10
29.0211938378
 20
19.4428861752
 30
0.0
 10
29.0216073722
 20
19.4428861752
 30
0.0
 10
29.0211042419
 20
19.4454494159
 30
0.0
 10
29.021898179
 20
19.4481405584
 30
0.0
 10
29.0217373099
 20
19.4545382298
 30
0.0
 10
29.0220650139
 20
19.4624118572
 30
0.0
 10
29.0221755725
 20
19.4726232264
 30
0.0
 10
29.0223440598
 20
19.4845690193
 30
0.0
 10
29.0224661941
 20
19.498164358
 30
0.0
 10
29.0225729298
 20
19.51310181
 30
0.0
 10
29.0226236603
 20
19.5234847473
 30
0.0
 10
29.0226452462
 20
19.5288560696
 30
0.0
  0
SPLINE
  5
370
100
AcDbEntity
  8
INTFCLR_1
100
AcDbSpline
 62
7
  6
BYLAYER
 70
0
 71
3
 72
13
 73
9
 74
0
 42
0.0000001
 43
0.0000001
 44
0.0000000001
 40
0.0
 40
0.0
 40
0.0
 40
0.0
 40
0.2923673101
 40
0.5399355019
 40
0.7378097162
 40
0.882057627
 40
0.9698537797
 40
1.0
 40
1.0
 40
1.0
 40
1.0
 10
29.0260339338
 20
19.5860779018
 30
0.0
 10
29.0260783987
 20
19.5819683535
 30
0.0
 10
29.0261871419
 20
19.5744022247
 30
0.0
 10
29.0262956979
 20
19.56394695
 30
0.0
 10
29.0266303765
 20
19.5558821775
 30
0.0
 10
29.0264594289
 20
19.5493249856
 30
0.0
 10
29.0272770995
 20
19.5465679341
 30
0.0
 10
29.0267529644
 20
19.5439391285
 30
0.0
 10
29.0271767279
 20
19.5439391285
 30
0.0
  0
SPLINE
  5
371
100
AcDbEntity
  8
INTFCLR_1
100
AcDbSpline
 62
7
  6
BYLAYER
 70
0
 71
3
 72
13
 73
9
 74
0
 42
0.0000001
 43
0.0000001
 44
0.0000000001
 40
0.0
 40
0.0
 40
0.0
 40
0.0
 40
0.0303776359
 40
0.1181571442
 40
0.2623722263
 40
0.4601950056
 40
0.707690563
 40
1.0
 40
1.0
 40
1.0
 40
1.0
 10
4.2063124409
 20
19.543928941
 30
0.0
 10
4.2067395743
 20
19.543928941
 30
0.0
 10
4.2062086907
 20
19.546565182
 30
0.0
 10
4.2070307728
 20
19.5493257174
 30
0.0
 10
4.2068577915
 20
19.5558827008
 30
0.0
 10
4.2071933355
 20
19.5639477357
 30
0.0
 10
4.2073015602
 20
19.5744032111
 30
0.0
 10
4.2074103966
 20
19.5819696006
 30
0.0
 10
4.2074548649
 20
19.5860794594
 30
0.0
  0
SPLINE
  5
372
100
AcDbEntity
  8
INTFCLR_1
100
AcDbSpline
 62
7
  6
BYLAYER
 70
0
 71
3
 72
16
 73
12
 74
0
 42
0.0000001
 43
0.0000001
 44
0.0000000001
 40
0.0
 40
0.0
 40
0.0
 40
0.0
 40
0.1873970247
 40
0.3621560232
 40
0.5211320201
 40
0.6612462378
 40
0.7797905261
 40
0.874473113
 40
0.9434728016
 40
0.9854603381
 40
1.0
 40
1.0
 40
1.0
 40
1.0
 10
4.204860584
 20
19.6299155905
 30
0.0
 10
4.2048821777
 20
19.6245423337
 30
0.0
 10
4.204932956
 20
19.6141575285
 30
0.0
 10
4.2050396933
 20
19.599218161
 30
0.0
 10
4.2051618099
 20
19.5856227875
 30
0.0
 10
4.2053303585
 20
19.5736767743
 30
0.0
 10
4.2054407378
 20
19.5634653088
 30
0.0
 10
4.2057689246
 20
19.5555912242
 30
0.0
 10
4.2056069379
 20
19.5491940154
 30
0.0
 10
4.2064036178
 20
19.5464991838
 30
0.0
 10
4.2058955402
 20
19.543928941
 30
0.0
 10
4.2063124409
 20
19.543928941
 30
0.0
  0
SPLINE
  5
373
100
AcDbEntity
  8
INTFCLR_1
100
AcDbSpline
 62
7
  6
BYLAYER
 70
0
 71
3
 72
16
 73
12
 74
0
 42
0.0000001
 43
0.0000001
 44
0.0000000001
 40
0.0
 40
0.0
 40
0.0
 40
0.0
 40
0.0144250316
 40
0.0564201747
 40
0.1254306183
 40
0.2201297442
 40
0.3386944329
 40
0.4788335034
 40
0.6378389026
 40
0.8126341504
 40
1.0
 40
1.0
 40
1.0
 40
1.0
 10
29.0271767279
 20
19.5439391285
 30
0.0
 10
29.0275902617
 20
19.5439391285
 30
0.0
 10
29.0270871322
 20
19.5465023639
 30
0.0
 10
29.0278810682
 20
19.5491935018
 30
0.0
 10
29.0277201993
 20
19.5555911656
 30
0.0
 10
29.0280479035
 20
19.5634647894
 30
0.0
 10
29.0281584621
 20
19.5736761602
 30
0.0
 10
29.0283269496
 20
19.5856219584
 30
0.0
 10
29.0284490839
 20
19.599217304
 30
0.0
 10
29.0285558197
 20
19.6141547599
 30
0.0
 10
29.0286065502
 20
19.6245376984
 30
0.0
 10
29.0286281361
 20
19.6299090199
 30
0.0
  0
SPLINE
  5
374
100
AcDbEntity
  8
INTFCLR_1
100
AcDbSpline
 62
7
  6
BYLAYER
 70
0
 71
3
 72
13
 73
9
 74
0
 42
0.0000001
 43
0.0000001
 44
0.0000000001
 40
0.0
 40
0.0
 40
0.0
 40
0.0
 40
0.2923673008
 40
0.5399354824
 40
0.7378096953
 40
0.8820576112
 40
0.9698537699
 40
1.0
 40
1.0
 40
1.0
 40
1.0
 10
29.0320168237
 20
19.6871308553
 30
0.0
 10
29.0320612886
 20
19.6830213071
 30
0.0
 10
29.0321700318
 20
19.6754551784
 30
0.0
 10
29.0322785878
 20
19.6649999038
 30
0.0
 10
29.0326132664
 20
19.6569351313
 30
0.0
 10
29.0324423188
 20
19.6503779391
 30
0.0
 10
29.0332599896
 20
19.6476208873
 30
0.0
 10
29.0327358541
 20
19.6449920812
 30
0.0
 10
29.0331596178
 20
19.6449920812
 30
0.0
  0
SPLINE
  5
375
100
AcDbEntity
  8
INTFCLR_1
100
AcDbSpline
 62
7
  6
BYLAYER
 70
0
 71
3
 72
13
 73
9
 74
0
 42
0.0000001
 43
0.0000001
 44
0.0000000001
 40
0.0
 40
0.0
 40
0.0
 40
0.0
 40
0.0303776713
 40
0.11815709
 40
0.2623720786
 40
0.4601948368
 40
0.7076904674
 40
1.0
 40
1.0
 40
1.0
 40
1.0
 10
4.2003295511
 20
19.6449818908
 30
0.0
 10
4.2007566849
 20
19.6449818908
 30
0.0
 10
4.2002258003
 20
19.647618131
 30
0.0
 10
4.2010478829
 20
19.6503786652
 30
0.0
 10
4.2008749013
 20
19.6569356452
 30
0.0
 10
4.2012104455
 20
19.6650006793
 30
0.0
 10
4.2013186701
 20
19.6754561566
 30
0.0
 10
4.2014275067
 20
19.6830225484
 30
0.0
 10
4.201471975
 20
19.6871324084
 30
0.0
  0
SPLINE
  5
376
100
AcDbEntity
  8
INTFCLR_1
100
AcDbSpline
 62
7
  6
BYLAYER
 70
0
 71
3
 72
16
 73
12
 74
0
 42
0.0000001
 43
0.0000001
 44
0.0000000001
 40
0.0
 40
0.0
 40
0.0
 40
0.0
 40
0.1873970108
 40
0.3621560208
 40
0.5211320311
 40
0.6612462566
 40
0.7797905439
 40
0.8744731202
 40
0.9434727884
 40
0.9854603067
 40
1.0
 40
1.0
 40
1.0
 40
1.0
 10
4.1988776941
 20
19.7309685461
 30
0.0
 10
4.1988992877
 20
19.7255952893
 30
0.0
 10
4.1989500661
 20
19.7152104835
 30
0.0
 10
4.1990568034
 20
19.7002711148
 30
0.0
 10
4.19917892
 20
19.6866757394
 30
0.0
 10
4.1993474687
 20
19.6747297248
 30
0.0
 10
4.1994578479
 20
19.6645182587
 30
0.0
 10
4.1997860349
 20
19.6566441745
 30
0.0
 10
4.1996240479
 20
19.6502469668
 30
0.0
 10
4.2004207285
 20
19.647552135
 30
0.0
 10
4.1999126494
 20
19.6449818908
 30
0.0
 10
4.2003295511
 20
19.6449818908
 30
0.0
  0
SPLINE
  5
377
100
AcDbEntity
  8
INTFCLR_1
100
AcDbSpline
 62
7
  6
BYLAYER
 70
0
 71
3
 72
16
 73
12
 74
0
 42
0.0000001
 43
0.0000001
 44
0.0000000001
 40
0.0
 40
0.0
 40
0.0
 40
0.0
 40
0.0144250358
 40
0.0564201814
 40
0.1254306274
 40
0.2201297537
 40
0.3386944409
 40
0.4788335083
 40
0.6378389036
 40
0.8126341481
 40
1.0
 40
1.0
 40
1.0
 40
1.0
 10
29.0331596178
 20
19.6449920812
 30
0.0
 10
29.0335731517
 20
19.6449920812
 30
0.0
 10
29.033070022
 20
19.647555317
 30
0.0
 10
29.0338639582
 20
19.6502464551
 30
0.0
 10
29.0337030892
 20
19.6566441191
 30
0.0
 10
29.0340307934
 20
19.664517743
 30
0.0
 10
29.0341413521
 20
19.6747291137
 30
0.0
 10
29.0343098395
 20
19.6866749117
 30
0.0
 10
29.0344319738
 20
19.700270257
 30
0.0
 10
29.0345387096
 20
19.7152077128
 30
0.0
 10
29.0345894401
 20
19.7255906514
 30
0.0
 10
29.034611026
 20
19.730961973
 30
0.0
  0
SPLINE
  5
378
100
AcDbEntity
  8
INTFCLR_1
100
AcDbSpline
 62
7
  6
BYLAYER
 70
0
 71
3
 72
13
 73
9
 74
0
 42
0.0000001
 43
0.0000001
 44
0.0000000001
 40
0.0
 40
0.0
 40
0.0
 40
0.0
 40
0.2923673023
 40
0.5399354716
 40
0.7378096787
 40
0.8820575946
 40
0.9698537552
 40
1.0
 40
1.0
 40
1.0
 40
1.0
 10
29.0379997136
 20
19.7881838101
 30
0.0
 10
29.0380441785
 20
19.7840742617
 30
0.0
 10
29.0381529217
 20
19.7765081329
 30
0.0
 10
29.0382614777
 20
19.7660528582
 30
0.0
 10
29.0385961563
 20
19.7579880857
 30
0.0
 10
29.0384252086
 20
19.7514308934
 30
0.0
 10
29.0392428797
 20
19.7486738413
 30
0.0
 10
29.0387187438
 20
19.7460450347
 30
0.0
 10
29.0391425076
 20
19.7460450347
 30
0.0
  0
SPLINE
  5
379
100
AcDbEntity
  8
INTFCLR_1
100
AcDbSpline
 62
7
  6
BYLAYER
 70
0
 71
3
 72
13
 73
9
 74
0
 42
0.0000001
 43
0.0000001
 44
0.0000000001
 40
0.0
 40
0.0
 40
0.0
 40
0.0
 40
0.0303776717
 40
0.1181571874
 40
0.2623722783
 40
0.4601950589
 40
0.7076906075
 40
1.0
 40
1.0
 40
1.0
 40
1.0
 10
4.194346661
 20
19.7460348467
 30
0.0
 10
4.1947737948
 20
19.7460348467
 30
0.0
 10
4.1942429107
 20
19.7486710888
 30
0.0
 10
4.1950649931
 20
19.751431625
 30
0.0
 10
4.1948920117
 20
19.7579886085
 30
0.0
 10
4.1952275557
 20
19.7660536434
 30
0.0
 10
4.1953357803
 20
19.7765091181
 30
0.0
 10
4.195444617
 20
19.7840755069
 30
0.0
 10
4.1954890853
 20
19.788185365
 30
0.0
  0
SPLINE
  5
37A
100
AcDbEntity
  8
INTFCLR_1
100
AcDbSpline
 62
7
  6
BYLAYER
 70
0
 71
3
 72
16
 73
12
 74
0
 42
0.0000001
 43
0.0000001
 44
0.0000000001
 40
0.0
 40
0.0
 40
0.0
 40
0.0
 40
0.1873969593
 40
0.3621560022
 40
0.5211320452
 40
0.6612462953
 40
0.7797905959
 40
0.8744731728
 40
0.9434728276
 40
0.9854603323
 40
1.0
 40
1.0
 40
1.0
 40
1.0
 10
4.1928948042
 20
19.8320214966
 30
0.0
 10
4.1929163978
 20
19.8266482416
 30
0.0
 10
4.1929671762
 20
19.816263437
 30
0.0
 10
4.1930739135
 20
19.8013240688
 30
0.0
 10
4.1931960301
 20
19.7877286916
 30
0.0
 10
4.1933645788
 20
19.7757826758
 30
0.0
 10
4.193474958
 20
19.7655712092
 30
0.0
 10
4.1938031451
 20
19.7576971255
 30
0.0
 10
4.1936411582
 20
19.751299919
 30
0.0
 10
4.1944378382
 20
19.7486050886
 30
0.0
 10
4.1939297601
 20
19.7460348467
 30
0.0
 10
4.194346661
 20
19.7460348467
 30
0.0
  0
SPLINE
  5
37B
100
AcDbEntity
  8
INTFCLR_1
100
AcDbSpline
 62
7
  6
BYLAYER
 70
0
 71
3
 72
16
 73
12
 74
0
 42
0.0000001
 43
0.0000001
 44
0.0000000001
 40
0.0
 40
0.0
 40
0.0
 40
0.0
 40
0.0144250434
 40
0.0564201916
 40
0.1254306406
 40
0.2201297678
 40
0.3386944542
 40
0.4788335196
 40
0.6378389123
 40
0.8126341551
 40
1.0
 40
1.0
 40
1.0
 40
1.0
 10
29.0391425076
 20
19.7460450347
 30
0.0
 10
29.0395560418
 20
19.7460450347
 30
0.0
 10
29.0390529118
 20
19.7486082709
 30
0.0
 10
29.0398468481
 20
19.7512994093
 30
0.0
 10
29.0396859791
 20
19.7576970734
 30
0.0
 10
29.0400136833
 20
19.7655706973
 30
0.0
 10
29.040124242
 20
19.7757820678
 30
0.0
 10
29.0402927294
 20
19.7877278655
 30
0.0
 10
29.0404148637
 20
19.8013232104
 30
0.0
 10
29.0405215995
 20
19.8162606657
 30
0.0
 10
29.04057233
 20
19.8266436038
 30
0.0
 10
29.0405939159
 20
19.8320149252
 30
0.0
  0
SPLINE
  5
37C
100
AcDbEntity
  8
INTFCLR_1
100
AcDbSpline
 62
7
  6
BYLAYER
 70
0
 71
3
 72
13
 73
9
 74
0
 42
0.0000001
 43
0.0000001
 44
0.0000000001
 40
0.0
 40
0.0
 40
0.0
 40
0.0
 40
0.2923672915
 40
0.5399354497
 40
0.7378096477
 40
0.8820575571
 40
0.9698537137
 40
1.0
 40
1.0
 40
1.0
 40
1.0
 10
29.0439826035
 20
19.8892367642
 30
0.0
 10
29.0440270684
 20
19.8851272158
 30
0.0
 10
29.0441358116
 20
19.877561087
 30
0.0
 10
29.0442443676
 20
19.8671058123
 30
0.0
 10
29.0445790462
 20
19.8590410396
 30
0.0
 10
29.0444080984
 20
19.8524838475
 30
0.0
 10
29.0452257698
 20
19.8497267947
 30
0.0
 10
29.0447016332
 20
19.8470979868
 30
0.0
 10
29.0451253977
 20
19.8470979868
 30
0.0
  0
SPLINE
  5
37D
100
AcDbEntity
  8
INTFCLR_1
100
AcDbSpline
 62
7
  6
BYLAYER
 70
0
 71
3
 72
13
 73
9
 74
0
 42
0.0000001
 43
0.0000001
 44
0.0000000001
 40
0.0
 40
0.0
 40
0.0
 40
0.0
 40
0.0303776929
 40
0.1181571609
 40
0.2623721964
 40
0.4601949478
 40
0.7076905012
 40
1.0
 40
1.0
 40
1.0
 40
1.0
 10
4.1883637714
 20
19.8470877989
 30
0.0
 10
4.1887909056
 20
19.8470877989
 30
0.0
 10
4.1882600201
 20
19.849724041
 30
0.0
 10
4.1890821035
 20
19.8524845767
 30
0.0
 10
4.1889091215
 20
19.8590415588
 30
0.0
 10
4.1892446658
 20
19.8671065934
 30
0.0
 10
4.1893528903
 20
19.8775620702
 30
0.0
 10
4.189461727
 20
19.8851284613
 30
0.0
 10
4.1895061953
 20
19.8892383213
 30
0.0
  0
SPLINE
  5
37E
100
AcDbEntity
  8
INTFCLR_1
100
AcDbSpline
 62
7
  6
BYLAYER
 70
0
 71
3
 72
16
 73
12
 74
0
 42
0.0000001
 43
0.0000001
 44
0.0000000001
 40
0.0
 40
0.0
 40
0.0
 40
0.0
 40
0.1873972436
 40
0.3621562386
 40
0.5211322386
 40
0.6612464516
 40
0.7797907111
 40
0.8744732437
 40
0.9434728519
 40
0.9854603219
 40
1.0
 40
1.0
 40
1.0
 40
1.0
 10
4.1869119143
 20
19.9330744718
 30
0.0
 10
4.186933508
 20
19.9277012072
 30
0.0
 10
4.1869842862
 20
19.9173163931
 30
0.0
 10
4.1870910237
 20
19.9023770153
 30
0.0
 10
4.1872131403
 20
19.8887816382
 30
0.0
 10
4.187381689
 20
19.8768356226
 30
0.0
 10
4.1874920683
 20
19.8666241568
 30
0.0
 10
4.1878202552
 20
19.8587500747
 30
0.0
 10
4.1876582686
 20
19.8523528705
 30
0.0
 10
4.1884549482
 20
19.8496580406
 30
0.0
 10
4.1879468701
 20
19.8470877989
 30
0.0
 10
4.1883637714
 20
19.8470877989
 30
0.0
  0
SPLINE
  5
37F
100
AcDbEntity
  8
INTFCLR_1
100
AcDbSpline
 62
7
  6
BYLAYER
 70
0
 71
3
 72
16
 73
12
 74
0
 42
0.0000001
 43
0.0000001
 44
0.0000000001
 40
0.0
 40
0.0
 40
0.0
 40
0.0
 40
0.0144250646
 40
0.0564202161
 40
0.1254306693
 40
0.2201297983
 40
0.3386944844
 40
0.4788335469
 40
0.637838943
 40
0.8126341886
 40
1.0
 40
1.0
 40
1.0
 40
1.0
 10
29.0451253977
 20
19.8470979868
 30
0.0
 10
29.0455389325
 20
19.8470979868
 30
0.0
 10
29.045035801
 20
19.8496612247
 30
0.0
 10
29.0458297384
 20
19.8523523639
 30
0.0
 10
29.0456688688
 20
19.8587500285
 30
0.0
 10
29.0459965733
 20
19.8666236529
 30
0.0
 10
29.0461071319
 20
19.8768350238
 30
0.0
 10
29.0462756193
 20
19.8887808219
 30
0.0
 10
29.0463977537
 20
19.9023761675
 30
0.0
 10
29.0465044894
 20
19.9173136226
 30
0.0
 10
29.0465552201
 20
19.9276965603
 30
0.0
 10
29.0465768059
 20
19.9330678809
 30
0.0
  0
SPLINE
  5
380
100
AcDbEntity
  8
INTFCLR_1
100
AcDbSpline
 62
7
  6
BYLAYER
 70
0
 71
3
 72
13
 73
9
 74
0
 42
0.0000001
 43
0.0000001
 44
0.0000000001
 40
0.0
 40
0.0
 40
0.0
 40
0.0
 40
0.2923670019
 40
0.5399352463
 40
0.7378095208
 40
0.8820574937
 40
0.9698536921
 40
1.0
 40
1.0
 40
1.0
 40
1.0
 10
29.0499654936
 20
19.9902897012
 30
0.0
 10
29.0500099584
 20
19.9861801583
 30
0.0
 10
29.0501187016
 20
19.9786140352
 30
0.0
 10
29.0502272575
 20
19.9681587662
 30
0.0
 10
29.0505619361
 20
19.9600939935
 30
0.0
 10
29.0503909882
 20
19.953536801
 30
0.0
 10
29.0512086598
 20
19.9507797479
 30
0.0
 10
29.050684523
 20
19.9481509396
 30
0.0
 10
29.0511082876
 20
19.9481509396
 30
0.0
  0
SPLINE
  5
381
100
AcDbEntity
  8
INTFCLR_1
100
AcDbSpline
 62
7
  6
BYLAYER
 70
0
 71
3
 72
13
 73
9
 74
0
 42
0.0000001
 43
0.0000001
 44
0.0000000001
 40
0.0
 40
0.0
 40
0.0
 40
0.0
 40
0.030377605
 40
0.1181569912
 40
0.262371948
 40
0.4601946993
 40
0.7076903547
 40
1.0
 40
1.0
 40
1.0
 40
1.0
 10
4.1823808814
 20
19.9481407541
 30
0.0
 10
4.1828080142
 20
19.9481407541
 30
0.0
 10
4.1822771313
 20
19.9507769916
 30
0.0
 10
4.1830992128
 20
19.9535375241
 30
0.0
 10
4.1829262316
 20
19.9600945031
 30
0.0
 10
4.1832617757
 20
19.9681595368
 30
0.0
 10
4.1833700004
 20
19.9786150159
 30
0.0
 10
4.1834788371
 20
19.9861814094
 30
0.0
 10
4.1835233054
 20
19.990291271
 30
0.0
  0
SPLINE
  5
382
100
AcDbEntity
  8
INTFCLR_1
100
AcDbSpline
 62
7
  6
BYLAYER
 70
0
 71
3
 72
16
 73
12
 74
0
 42
0.0000001
 43
0.0000001
 44
0.0000000001
 40
0.0
 40
0.0
 40
0.0
 40
0.0
 40
0.187397203
 40
0.3621562291
 40
0.5211322602
 40
0.6612464967
 40
0.7797907686
 40
0.8744733012
 40
0.9434728954
 40
0.9854603514
 40
1.0
 40
1.0
 40
1.0
 40
1.0
 10
4.1809290244
 20
20.0341274233
 30
0.0
 10
4.1809506181
 20
20.0287541601
 30
0.0
 10
4.1810013963
 20
20.0183693467
 30
0.0
 10
4.1811081338
 20
20.0034299689
 30
0.0
 10
4.1812302504
 20
19.9898345899
 30
0.0
 10
4.1813987991
 20
19.977888573
 30
0.0
 10
4.1815091784
 20
19.9676771066
 30
0.0
 10
4.1818373653
 20
19.9598030249
 30
0.0
 10
4.1816753789
 20
19.9534058217
 30
0.0
 10
4.1824720578
 20
19.9507109933
 30
0.0
 10
4.1819639809
 20
19.9481407541
 30
0.0
 10
4.1823808814
 20
19.9481407541
 30
0.0
  0
SPLINE
  5
383
100
AcDbEntity
  8
INTFCLR_1
100
AcDbSpline
 62
7
  6
BYLAYER
 70
0
 71
3
 72
16
 73
12
 74
0
 42
0.0000001
 43
0.0000001
 44
0.0000000001
 40
0.0
 40
0.0
 40
0.0
 40
0.0
 40
0.0144250684
 40
0.0564202217
 40
0.1254306763
 40
0.2201298042
 40
0.338694487
 40
0.4788335445
 40
0.6378389342
 40
0.8126341737
 40
1.0
 40
1.0
 40
1.0
 40
1.0
 10
29.0511082876
 20
19.9481509396
 30
0.0
 10
29.0515218225
 20
19.9481509396
 30
0.0
 10
29.0510186908
 20
19.9507141778
 30
0.0
 10
29.0518126284
 20
19.9534053172
 30
0.0
 10
29.0516517588
 20
19.959802982
 30
0.0
 10
29.0519794632
 20
19.9676766064
 30
0.0
 10
29.0520900218
 20
19.9778879773
 30
0.0
 10
29.0522585092
 20
19.9898337752
 30
0.0
 10
29.0523806436
 20
20.0034291206
 30
0.0
 10
29.0524873793
 20
20.0183665761
 30
0.0
 10
29.05253811
 20
20.0287495142
 30
0.0
 10
29.0525596958
 20
20.0341208354
 30
0.0
  0
SPLINE
  5
384
100
AcDbEntity
  8
INTFCLR_1
100
AcDbSpline
 62
7
  6
BYLAYER
 70
0
 71
3
 72
13
 73
9
 74
0
 42
0.0000001
 43
0.0000001
 44
0.0000000001
 40
0.0
 40
0.0
 40
0.0
 40
0.0
 40
0.2923670138
 40
0.5399352414
 40
0.737809507
 40
0.8820574778
 40
0.969853677
 40
1.0
 40
1.0
 40
1.0
 40
1.0
 10
29.0559483834
 20
20.0913426568
 30
0.0
 10
29.0559928483
 20
20.0872331136
 30
0.0
 10
29.0561015915
 20
20.0796669901
 30
0.0
 10
29.0562101474
 20
20.0692117207
 30
0.0
 10
29.0565448261
 20
20.061146948
 30
0.0
 10
29.056373878
 20
20.0545897553
 30
0.0
 10
29.05719155
 20
20.0518327019
 30
0.0
 10
29.0566674126
 20
20.049203893
 30
0.0
 10
29.0570911775
 20
20.049203893
 30
0.0
  0
SPLINE
  5
385
100
AcDbEntity
  8
INTFCLR_1
100
AcDbSpline
 62
7
  6
BYLAYER
 70
0
 71
3
 72
13
 73
9
 74
0
 42
0.0000001
 43
0.0000001
 44
0.0000000001
 40
0.0
 40
0.0
 40
0.0
 40
0.0
 40
0.0303775493
 40
0.1181568915
 40
0.262371801
 40
0.4601945346
 40
0.7076902117
 40
1.0
 40
1.0
 40
1.0
 40
1.0
 10
4.1763979913
 20
20.0491937097
 30
0.0
 10
4.1768251234
 20
20.0491937097
 30
0.0
 10
4.1762942422
 20
20.0518299446
 30
0.0
 10
4.1771163223
 20
20.0545904757
 30
0.0
 10
4.1769433417
 20
20.0611474532
 30
0.0
 10
4.1772788856
 20
20.0692124866
 30
0.0
 10
4.1773871105
 20
20.0796679681
 30
0.0
 10
4.1774959471
 20
20.0872343642
 30
0.0
 10
4.1775404154
 20
20.0913442278
 30
0.0
  0
SPLINE
  5
386
100
AcDbEntity
  8
INTFCLR_1
100
AcDbSpline
 62
7
  6
BYLAYER
 70
0
 71
3
 72
16
 73
12
 74
0
 42
0.0000001
 43
0.0000001
 44
0.0000000001
 40
0.0
 40
0.0
 40
0.0
 40
0.0
 40
0.1873971076
 40
0.3621561768
 40
0.5211322493
 40
0.6612465167
 40
0.7797908072
 40
0.8744733447
 40
0.9434729288
 40
0.9854603733
 40
1.0
 40
1.0
 40
1.0
 40
1.0
 10
4.1749461345
 20
20.135180363
 30
0.0
 10
4.1749677282
 20
20.1298071035
 30
0.0
 10
4.1750185065
 20
20.1194222935
 30
0.0
 10
4.1751252439
 20
20.1044829188
 30
0.0
 10
4.1752473605
 20
20.090887539
 30
0.0
 10
4.1754159093
 20
20.0789415217
 30
0.0
 10
4.1755262886
 20
20.0687300556
 30
0.0
 10
4.1758544755
 20
20.060855975
 30
0.0
 10
4.1756924892
 20
20.0544587735
 30
0.0
 10
4.1764891677
 20
20.0517639467
 30
0.0
 10
4.1759810915
 20
20.0491937097
 30
0.0
 10
4.1763979913
 20
20.0491937097
 30
0.0
  0
SPLINE
  5
387
100
AcDbEntity
  8
INTFCLR_1
100
AcDbSpline
 62
7
  6
BYLAYER
 70
0
 71
3
 72
16
 73
12
 74
0
 42
0.0000001
 43
0.0000001
 44
0.0000000001
 40
0.0
 40
0.0
 40
0.0
 40
0.0
 40
0.0144250766
 40
0.0564202334
 40
0.1254306924
 40
0.2201298232
 40
0.3386945077
 40
0.4788335661
 40
0.6378389568
 40
0.8126341985
 40
1.0
 40
1.0
 40
1.0
 40
1.0
 10
29.0570911775
 20
20.049203893
 30
0.0
 10
29.0575047126
 20
20.049203893
 30
0.0
 10
29.0570015806
 20
20.0517671317
 30
0.0
 10
29.0577955183
 20
20.0544582715
 30
0.0
 10
29.0576346487
 20
20.0608559363
 30
0.0
 10
29.0579623531
 20
20.0687295607
 30
0.0
 10
29.0580729117
 20
20.0789409313
 30
0.0
 10
29.0582413991
 20
20.090886729
 30
0.0
 10
29.0583635335
 20
20.104482074
 30
0.0
 10
29.0584702692
 20
20.1194195283
 30
0.0
 10
29.0585209999
 20
20.1298024654
 30
0.0
 10
29.0585425857
 20
20.1351737857
 30
0.0
  0
SPLINE
  5
388
100
AcDbEntity
  8
INTFCLR_1
100
AcDbSpline
 62
7
  6
BYLAYER
 70
0
 71
3
 72
13
 73
9
 74
0
 42
0.0000001
 43
0.0000001
 44
0.0000000001
 40
0.0
 40
0.0
 40
0.0
 40
0.0
 40
0.2923670541
 40
0.5399353071
 40
0.7378095936
 40
0.8820575811
 40
0.9698537905
 40
1.0
 40
1.0
 40
1.0
 40
1.0
 10
29.0619312733
 20
20.1923956104
 30
0.0
 10
29.0619757382
 20
20.188286067
 30
0.0
 10
29.0620844813
 20
20.1807199434
 30
0.0
 10
29.0621930374
 20
20.1702646739
 30
0.0
 10
29.0625277157
 20
20.1621999012
 30
0.0
 10
29.0623567686
 20
20.1556427083
 30
0.0
 10
29.0631744384
 20
20.1528856564
 30
0.0
 10
29.0626503043
 20
20.150256851
 30
0.0
 10
29.0630740676
 20
20.150256851
 30
0.0
  0
SPLINE
  5
389
100
AcDbEntity
  8
INTFCLR_1
100
AcDbSpline
 62
7
  6
BYLAYER
 70
0
 71
3
 72
13
 73
9
 74
0
 42
0.0000001
 43
0.0000001
 44
0.0000000001
 40
0.0
 40
0.0
 40
0.0
 40
0.0
 40
0.0303776791
 40
0.1181571515
 40
0.2623721967
 40
0.4601949704
 40
0.7076905627
 40
1.0
 40
1.0
 40
1.0
 40
1.0
 10
4.1704151016
 20
20.1502466595
 30
0.0
 10
4.1708422356
 20
20.1502466595
 30
0.0
 10
4.1703113507
 20
20.1528829009
 30
0.0
 10
4.1711334336
 20
20.1556434363
 30
0.0
 10
4.1709604519
 20
20.1622004182
 30
0.0
 10
4.171295996
 20
20.1702654528
 30
0.0
 10
4.1714042206
 20
20.1807209283
 30
0.0
 10
4.1715130572
 20
20.1882873182
 30
0.0
 10
4.1715575255
 20
20.1923971769
 30
0.0
  0
SPLINE
  5
38A
100
AcDbEntity
  8
INTFCLR_1
100
AcDbSpline
 62
7
  6
BYLAYER
 70
0
 71
3
 72
16
 73
12
 74
0
 42
0.0000001
 43
0.0000001
 44
0.0000000001
 40
0.0
 40
0.0
 40
0.0
 40
0.0
 40
0.1873970524
 40
0.3621560409
 40
0.5211320295
 40
0.6612462397
 40
0.7797905203
 40
0.8744730992
 40
0.9434727801
 40
0.9854603106
 40
1.0
 40
1.0
 40
1.0
 40
1.0
 10
4.1689632446
 20
20.2362333186
 30
0.0
 10
4.1689848382
 20
20.2308600604
 30
0.0
 10
4.1690356166
 20
20.2204752535
 30
0.0
 10
4.1691423539
 20
20.2055358841
 30
0.0
 10
4.1692644704
 20
20.1919405098
 30
0.0
 10
4.1694330191
 20
20.179994496
 30
0.0
 10
4.1695433983
 20
20.16978303
 30
0.0
 10
4.1698715853
 20
20.1619089451
 30
0.0
 10
4.1697095983
 20
20.1555117364
 30
0.0
 10
4.1705062788
 20
20.152816904
 30
0.0
 10
4.1699982
 20
20.1502466595
 30
0.0
 10
4.1704151016
 20
20.1502466595
 30
0.0
  0
SPLINE
  5
38B
100
AcDbEntity
  8
INTFCLR_1
100
AcDbSpline
 62
7
  6
BYLAYER
 70
0
 71
3
 72
16
 73
12
 74
0
 42
0.0000001
 43
0.0000001
 44
0.0000000001
 40
0.0
 40
0.0
 40
0.0
 40
0.0
 40
0.0144250209
 40
0.0564201852
 40
0.1254306543
 40
0.2201297973
 40
0.3386944949
 40
0.4788335669
 40
0.6378389718
 40
0.8126342296
 40
1.0
 40
1.0
 40
1.0
 40
1.0
 10
29.0630740676
 20
20.150256851
 30
0.0
 10
29.063487601
 20
20.150256851
 30
0.0
 10
29.0629844715
 20
20.1528200865
 30
0.0
 10
29.0637784079
 20
20.1555112245
 30
0.0
 10
29.0636175387
 20
20.1619088899
 30
0.0
 10
29.063945243
 20
20.1697825143
 30
0.0
 10
29.0640558016
 20
20.179993885
 30
0.0
 10
29.064224289
 20
20.1919396824
 30
0.0
 10
29.0643464234
 20
20.2055350272
 30
0.0
 10
29.0644531591
 20
20.2204724798
 30
0.0
 10
29.0645038898
 20
20.2308554153
 30
0.0
 10
29.0645254756
 20
20.2362267341
 30
0.0
  0
SPLINE
  5
38C
100
AcDbEntity
  8
INTFCLR_1
100
AcDbSpline
 62
7
  6
BYLAYER
 70
0
 71
3
 72
13
 73
9
 74
0
 42
0.0000001
 43
0.0000001
 44
0.0000000001
 40
0.0
 40
0.0
 40
0.0
 40
0.0
 40
0.2923356929
 40
0.5398727298
 40
0.7377183996
 40
0.8819426199
 40
0.9697232548
 40
1.0
 40
1.0
 40
1.0
 40
1.0
 10
29.0679141632
 20
20.2934485652
 30
0.0
 10
29.0679586293
 20
20.2893389038
 30
0.0
 10
29.0680674277
 20
20.281772617
 30
0.0
 10
29.0681757935
 20
20.2713172596
 30
0.0
 10
29.0685109762
 20
20.2632524228
 30
0.0
 10
29.0683388708
 20
20.256695636
 30
0.0
 10
29.0691590254
 20
20.2539367792
 30
0.0
 10
29.0686310741
 20
20.2513039487
 30
0.0
 10
29.0690567302
 20
20.2513039487
 30
0.0
  0
SPLINE
  5
38D
100
AcDbEntity
  8
INTFCLR_1
100
AcDbSpline
 62
7
  6
BYLAYER
 70
0
 71
3
 72
13
 73
9
 74
0
 42
0.0000001
 43
0.0000001
 44
0.0000000001
 40
0.0
 40
0.0
 40
0.0
 40
0.0
 40
0.0304108036
 40
0.1181813391
 40
0.2623852518
 40
0.4601982262
 40
0.7076885725
 40
1.0
 40
1.0
 40
1.0
 40
1.0
 10
4.1644322466
 20
20.2512980484
 30
0.0
 10
4.1648598619
 20
20.2512980484
 30
0.0
 10
4.1643280661
 20
20.2539352053
 30
0.0
 10
4.1651507063
 20
20.2566961207
 30
0.0
 10
4.1649774648
 20
20.2632528112
 30
0.0
 10
4.1653131292
 20
20.2713178119
 30
0.0
 10
4.1654213123
 20
20.2817734739
 30
0.0
 10
4.1655301653
 20
20.2893400968
 30
0.0
 10
4.1655746355
 20
20.2934501335
 30
0.0
  0
SPLINE
  5
38E
100
AcDbEntity
  8
INTFCLR_1
100
AcDbSpline
 62
7
  6
BYLAYER
 70
0
 71
3
 72
16
 73
12
 74
0
 42
0.0000001
 43
0.0000001
 44
0.0000000001
 40
0.0
 40
0.0
 40
0.0
 40
0.0
 40
0.1848718318
 40
0.3585795301
 40
0.5174212614
 40
0.6580159616
 40
0.7773767945
 40
0.8729671214
 40
0.942764958
 40
0.9852893278
 40
1.0
 40
1.0
 40
1.0
 40
1.0
 10
4.1629541976
 20
20.3445436804
 30
0.0
 10
4.1629726585
 20
20.3387955117
 30
0.0
 10
4.1630182935
 20
20.3276455843
 30
0.0
 10
4.1631204386
 20
20.3115608494
 30
0.0
 10
4.1632403427
 20
20.2968401039
 30
0.0
 10
4.1634123542
 20
20.2838498575
 30
0.0
 10
4.1635203334
 20
20.2727072976
 30
0.0
 10
4.1638721461
 20
20.2640928952
 30
0.0
 10
4.163675887
 20
20.257078008
 30
0.0
 10
4.1645563103
 20
20.2541240667
 30
0.0
 10
4.1639748494
 20
20.2512980484
 30
0.0
 10
4.1644322466
 20
20.2512980484
 30
0.0
  0
SPLINE
  5
38F
100
AcDbEntity
  8
INTFCLR_1
100
AcDbSpline
 62
7
  6
BYLAYER
 70
0
 71
3
 72
16
 73
12
 74
0
 42
0.0000001
 43
0.0000001
 44
0.0000000001
 40
0.0
 40
0.0
 40
0.0
 40
0.0
 40
0.0146488119
 40
0.0571752432
 40
0.1269749226
 40
0.2225682331
 40
0.3419326902
 40
0.4825328664
 40
0.6413829194
 40
0.8151044632
 40
1.0
 40
1.0
 40
1.0
 40
1.0
 10
29.0690567302
 20
20.2513039487
 30
0.0
 10
29.0695121762
 20
20.2513039487
 30
0.0
 10
29.0689335857
 20
20.2541259097
 30
0.0
 10
29.0698124619
 20
20.2570776595
 30
0.0
 10
29.0696168247
 20
20.2640927159
 30
0.0
 10
29.069968366
 20
20.2727066929
 30
0.0
 10
29.0700764439
 20
20.2838490119
 30
0.0
 10
29.0702484216
 20
20.2968389879
 30
0.0
 10
29.0703683376
 20
20.3115597042
 30
0.0
 10
29.0704704903
 20
20.327644884
 30
0.0
 10
29.0705161117
 20
20.338795301
 30
0.0
 10
29.0705345738
 20
20.3445438569
 30
0.0
  0
SPLINE
  5
390
100
AcDbEntity
  8
INTFCLR_1
100
AcDbSpline
 62
7
  6
BYLAYER
 70
0
 71
3
 72
10
 73
6
 74
0
 42
0.0000001
 43
0.0000001
 44
0.0000000001
 40
0.0
 40
0.0
 40
0.0
 40
0.0
 40
0.3483606867
 40
0.6820524627
 40
1.0
 40
1.0
 40
1.0
 40
1.0
 10
4.2114164692
 20
19.5288421367
 30
0.0
 10
4.2112875065
 20
19.5321372807
 30
0.0
 10
4.2110463942
 20
19.5385892874
 30
0.0
 10
4.2107604082
 20
19.5480513125
 30
0.0
 10
4.2106465055
 20
19.5542191028
 30
0.0
 10
4.2106173368
 20
19.55722873
 30
0.0
  0
SPLINE
  5
391
100
AcDbEntity
  8
INTFCLR_1
100
AcDbSpline
 62
7
  6
BYLAYER
 70
0
 71
3
 72
19
 73
15
 74
0
 42
0.0000001
 43
0.0000001
 44
0.0000000001
 40
0.0
 40
0.0
 40
0.0
 40
0.0
 40
0.1330754649
 40
0.2696567348
 40
0.3850020402
 40
0.4850731574
 40
0.5893973489
 40
0.6782413914
 40
0.7433471033
 40
0.8057180278
 40
0.8650292714
 40
0.9161245394
 40
0.9642398424
 40
1.0
 40
1.0
 40
1.0
 40
1.0
 10
4.510594945
 20
19.4850265043
 30
0.0
 10
4.5021001992
 20
19.4851619383
 30
0.0
 10
4.4848848501
 20
19.4860020282
 30
0.0
 10
4.4604900011
 20
19.4891063136
 30
0.0
 10
4.4382682339
 20
19.4924477485
 30
0.0
 10
4.4181309993
 20
19.4957953239
 30
0.0
 10
4.3996222089
 20
19.4986111225
 30
0.0
 10
4.3832002229
 20
19.5002749009
 30
0.0
 10
4.3693742668
 20
19.5004298788
 30
0.0
 10
4.3574665491
 20
19.4995182849
 30
0.0
 10
4.346601084
 20
19.497419693
 30
0.0
 10
4.337037525
 20
19.4939723907
 30
0.0
 10
4.3294524779
 20
19.4898524062
 30
0.0
 10
4.3250939191
 20
19.4866571087
 30
0.0
 10
4.3234960312
 20
19.4850265047
 30
0.0
  0
SPLINE
  5
392
100
AcDbEntity
  8
INTFCLR_1
100
AcDbSpline
 62
7
  6
BYLAYER
 70
0
 71
3
 72
12
 73
8
 74
0
 42
0.0000001
 43
0.0000001
 44
0.0000000001
 40
0.0
 40
0.0
 40
0.0
 40
0.0
 40
0.2631740532
 40
0.488266514
 40
0.6856090807
 40
0.8576971966
 40
1.0
 40
1.0
 40
1.0
 40
1.0
 10
4.3234960312
 20
19.4850265047
 30
0.0
 10
4.3173740079
 20
19.4801532318
 30
0.0
 10
4.3057974359
 20
19.4713709969
 30
0.0
 10
4.2886271162
 20
19.4603475839
 30
0.0
 10
4.2730138128
 20
19.4520049376
 30
0.0
 10
4.2589343216
 20
19.4461842029
 30
0.0
 10
4.2499157534
 20
19.4435800852
 30
0.0
 10
4.2457562886
 20
19.4428052308
 30
0.0
  0
SPLINE
  5
393
100
AcDbEntity
  8
INTFCLR_1
100
AcDbSpline
 62
7
  6
BYLAYER
 70
0
 71
3
 72
15
 73
11
 74
0
 42
0.0000001
 43
0.0000001
 44
0.0000000001
 40
0.0
 40
0.0
 40
0.0
 40
0.0
 40
0.0896403475
 40
0.169736224
 40
0.2547635313
 40
0.3533091928
 40
0.4781322377
 40
0.6088010763
 40
0.7743254764
 40
1.0
 40
1.0
 40
1.0
 40
1.0
 10
4.2457562886
 20
19.4428052308
 30
0.0
 10
4.2427670117
 20
19.4430841209
 30
0.0
 10
4.2370773273
 20
19.4442433148
 30
0.0
 10
4.229787791
 20
19.4490129058
 30
0.0
 10
4.2242297324
 20
19.4560196258
 30
0.0
 10
4.2198694742
 20
19.4654523468
 30
0.0
 10
4.2166684984
 20
19.4769048505
 30
0.0
 10
4.2142524072
 20
19.490809633
 30
0.0
 10
4.2124238577
 20
19.5082023628
 30
0.0
 10
4.2117264348
 20
19.5212901438
 30
0.0
 10
4.2114164692
 20
19.5288421367
 30
0.0
  0
SPLINE
  5
394
100
AcDbEntity
  8
INTFCLR_1
100
AcDbSpline
 62
7
  6
BYLAYER
 70
0
 71
3
 72
12
 73
8
 74
0
 42
0.0000001
 43
0.0000001
 44
0.0000000001
 40
0.0
 40
0.0
 40
0.0
 40
0.0
 40
0.2949565801
 40
0.5393139459
 40
0.73231169
 40
0.8802274354
 40
1.0
 40
1.0
 40
1.0
 40
1.0
 10
26.8658792395
 20
19.2086938131
 30
0.0
 10
26.8716683897
 20
19.2105337697
 30
0.0
 10
26.8821516808
 20
19.2142445815
 30
0.0
 10
26.8958402104
 20
19.2206597912
 30
0.0
 10
26.905929034
 20
19.2273673906
 30
0.0
 10
26.9124866992
 20
19.2344238048
 30
0.0
 10
26.9142896498
 20
19.2399412202
 30
0.0
 10
26.9142896498
 20
19.242407888
 30
0.0
  0
SPLINE
  5
395
100
AcDbEntity
  8
INTFCLR_1
100
AcDbSpline
 62
7
  6
BYLAYER
 70
0
 71
3
 72
12
 73
8
 74
0
 42
0.0000001
 43
0.0000001
 44
0.0000000001
 40
0.0
 40
0.0
 40
0.0
 40
0.0
 40
0.0454679553
 40
0.1687780515
 40
0.3706169102
 40
0.6487205136
 40
1.0
 40
1.0
 40
1.0
 40
1.0
 10
26.9142515382
 20
14.060252224
 30
0.0
 10
26.9142515382
 20
14.0609922537
 30
0.0
 10
26.9103610861
 20
14.0615078045
 30
0.0
 10
26.9055045018
 20
14.0625655833
 30
0.0
 10
26.8951063123
 20
14.0633609053
 30
0.0
 10
26.8818800949
 20
14.0643057408
 30
0.0
 10
26.8715687115
 20
14.0648060265
 30
0.0
 10
26.8658572121
 20
14.0650651275
 30
0.0
  0
SPLINE
  5
396
100
AcDbEntity
  8
INTFCLR_1
100
AcDbSpline
 62
7
  6
BYLAYER
 70
0
 71
3
 72
24
 73
20
 74
0
 42
0.0000001
 43
0.0000001
 44
0.0000000001
 40
0.0
 40
0.0
 40
0.0
 40
0.0
 40
0.0582368745
 40
0.0998269626
 40
0.1316292079
 40
0.1547589411
 40
0.1771204248
 40
0.2013557783
 40
0.2325976726
 40
0.2739195157
 40
0.3258362061
 40
0.3847533033
 40
0.453271808
 40
0.5311560017
 40
0.6162543022
 40
0.7046514486
 40
0.795413369
 40
0.8918503249
 40
1.0
 40
1.0
 40
1.0
 40
1.0
 10
18.5676095405
 20
19.2086938131
 30
0.0
 10
18.5606540297
 20
19.2110060062
 30
0.0
 10
18.5488003871
 20
19.2152302796
 30
0.0
 10
18.5339539394
 20
19.2227179333
 30
0.0
 10
18.524185184
 20
19.2300785056
 30
0.0
 10
18.5187082765
 20
19.2386609062
 30
0.0
 10
18.5195699613
 20
19.2480190009
 30
0.0
 10
18.5256164593
 20
19.2560875319
 30
0.0
 10
18.5356307425
 20
19.2631783499
 30
0.0
 10
18.5497808432
 20
19.2700054255
 30
0.0
 10
18.5678472581
 20
19.2764261817
 30
0.0
 10
18.5895920772
 20
19.2825344301
 30
0.0
 10
18.6148574558
 20
19.2880260315
 30
0.0
 10
18.6436035787
 20
19.2928352987
 30
0.0
 10
18.6749929462
 20
19.2968511953
 30
0.0
 10
18.7081037382
 20
19.3000450634
 30
0.0
 10
18.7427155708
 20
19.3023887479
 30
0.0
 10
18.779861647
 20
19.3039137822
 30
0.0
 10
18.8056118972
 20
19.3042598516
 30
0.0
 10
18.8192236167
 20
19.3043173159
 30
0.0
  0
SPLINE
  5
397
100
AcDbEntity
  8
INTFCLR_1
100
AcDbSpline
 62
7
  6
BYLAYER
 70
0
 71
3
 72
25
 73
21
 74
0
 42
0.0000001
 43
0.0000001
 44
0.0000000001
 40
0.0
 40
0.0
 40
0.0
 40
0.0
 40
0.0932134801
 40
0.1857191271
 40
0.2750068471
 40
0.3608426777
 40
0.4422343852
 40
0.5180313826
 40
0.5870807365
 40
0.648097197
 40
0.7005091134
 40
0.7447997437
 40
0.7814755308
 40
0.8099049306
 40
0.8320153177
 40
0.8515962923
 40
0.8764683163
 40
0.9094563383
 40
0.9510046443
 40
1.0
 40
1.0
 40
1.0
 40
1.0
 10
18.8192236152
 20
19.3043173153
 30
0.0
 10
18.8074980301
 20
19.3043099763
 30
0.0
 10
18.7841348282
 20
19.3039986862
 30
0.0
 10
18.7495644812
 20
19.3026265474
 30
0.0
 10
18.7159656642
 20
19.3004470168
 30
0.0
 10
18.6838269794
 20
19.2975203031
 30
0.0
 10
18.6534679831
 20
19.2938897015
 30
0.0
 10
18.6253282086
 20
19.2895999626
 30
0.0
 10
18.5998902324
 20
19.2847071759
 30
0.0
 10
18.577575812
 20
19.2792786942
 30
0.0
 10
18.5586159917
 20
19.2733691885
 30
0.0
 10
18.5430947261
 20
19.266920014
 30
0.0
 10
18.5311075894
 20
19.2600486401
 30
0.0
 10
18.5227332063
 20
19.2528175901
 30
0.0
 10
18.5185062312
 20
19.2445512715
 30
0.0
 10
18.5200787382
 20
19.2358178139
 30
0.0
 10
18.5265650203
 20
19.2281990175
 30
0.0
 10
18.5369167025
 20
19.2210963481
 30
0.0
 10
18.5510017943
 20
19.2144145105
 30
0.0
 10
18.5617419644
 20
19.2105903623
 30
0.0
 10
18.5676095416
 20
19.2087042639
 30
0.0
  0
SPLINE
  5
398
100
AcDbEntity
  8
INTFCLR_1
100
AcDbSpline
 62
7
  6
BYLAYER
 70
0
 71
3
 72
25
 73
21
 74
0
 42
0.0000001
 43
0.0000001
 44
0.0000000001
 40
0.0
 40
0.0
 40
0.0
 40
0.0
 40
0.0504573739
 40
0.090304669
 40
0.1186681955
 40
0.1350687102
 40
0.139921264
 40
0.1485996587
 40
0.1692724029
 40
0.201532584
 40
0.2449455813
 40
0.2987558039
 40
0.3625782982
 40
0.4356661314
 40
0.5170005756
 40
0.6052037742
 40
0.6985765302
 40
0.7965089115
 40
0.8974654433
 40
1.0
 40
1.0
 40
1.0
 40
1.0
 10
18.5676095416
 20
14.0650641281
 30
0.0
 10
18.5617450494
 20
14.0647469771
 30
0.0
 10
18.5512074766
 20
14.0640566524
 30
0.0
 10
18.5375806075
 20
14.0633055006
 30
0.0
 10
18.5274510356
 20
14.0617417352
 30
0.0
 10
18.5222876125
 20
14.0618609139
 30
0.0
 10
18.5181788036
 20
14.0595277451
 30
0.0
 10
18.5246640309
 20
14.0584461354
 30
0.0
 10
18.5299378747
 20
14.0577337325
 30
0.0
 10
18.5420792233
 20
14.0567538486
 30
0.0
 10
18.5567240423
 20
14.0559071079
 30
0.0
 10
18.5755998047
 20
14.055056279
 30
0.0
 10
18.5977339906
 20
14.0542799531
 30
0.0
 10
18.6231441085
 20
14.0535687251
 30
0.0
 10
18.6513727222
 20
14.0529432168
 30
0.0
 10
18.681971695
 20
14.0524127175
 30
0.0
 10
18.7145022898
 20
14.0519853841
 30
0.0
 10
18.7485192484
 20
14.0516671187
 30
0.0
 10
18.7836033148
 20
14.0514623462
 30
0.0
 10
18.8072889557
 20
14.0514046018
 30
0.0
 10
18.8192236152
 20
14.0513950063
 30
0.0
  0
SPLINE
  5
399
100
AcDbEntity
  8
INTFCLR_1
100
AcDbSpline
 62
7
  6
BYLAYER
 70
0
 71
3
 72
20
 73
16
 74
0
 42
0.0000001
 43
0.0000001
 44
0.0000000001
 40
0.0
 40
0.0
 40
0.0
 40
0.0
 40
0.1203106102
 40
0.2388864764
 40
0.3539853411
 40
0.4639219439
 40
0.5671770956
 40
0.6621512675
 40
0.7474553375
 40
0.821865549
 40
0.8843182456
 40
0.9338864339
 40
0.9699176598
 40
0.9919383975
 40
1.0
 40
1.0
 40
1.0
 40
1.0
 10
26.614265164
 20
14.0514153173
 30
0.0
 10
26.6263148176
 20
14.0514153173
 30
0.0
 10
26.6502404112
 20
14.0514578025
 30
0.0
 10
26.6856931856
 20
14.0516476236
 30
0.0
 10
26.7201061883
 20
14.0519609017
 30
0.0
 10
26.752982871
 20
14.0523929334
 30
0.0
 10
26.7838436742
 20
14.0529366694
 30
0.0
 10
26.8122294424
 20
14.0535850986
 30
0.0
 10
26.8377402738
 20
14.0543226873
 30
0.0
 10
26.8599364784
 20
14.0551517891
 30
0.0
 10
26.8787024415
 20
14.0560129416
 30
0.0
 10
26.8931998199
 20
14.0570076443
 30
0.0
 10
26.9046391169
 20
14.0578040881
 30
0.0
 10
26.9099382784
 20
14.0589704012
 30
0.0
 10
26.9142515382
 20
14.0594448179
 30
0.0
 10
26.9142515382
 20
14.060252224
 30
0.0
  0
SPLINE
  5
39A
100
AcDbEntity
  8
INTFCLR_1
100
AcDbSpline
 62
7
  6
BYLAYER
 70
0
 71
3
 72
20
 73
16
 74
0
 42
0.0000001
 43
0.0000001
 44
0.0000000001
 40
0.0
 40
0.0
 40
0.0
 40
0.0
 40
0.0255254883
 40
0.0578654014
 40
0.0981454646
 40
0.1492677476
 40
0.2125202408
 40
0.2846488992
 40
0.3667327766
 40
0.4601866369
 40
0.5599113667
 40
0.6641614844
 40
0.7735621151
 40
0.8871279897
 40
1.0
 40
1.0
 40
1.0
 40
1.0
 10
26.9142896498
 20
19.242407888
 30
0.0
 10
26.9142896498
 20
19.2450944192
 30
0.0
 10
26.9121092007
 20
19.2511697937
 30
0.0
 10
26.9046244861
 20
19.2585146884
 30
0.0
 10
26.8935197532
 20
19.26541669
 30
0.0
 10
26.8785883411
 20
19.2719936967
 30
0.0
 10
26.8599432152
 20
19.2781904947
 30
0.0
 10
26.8377703345
 20
19.2839206339
 30
0.0
 10
26.8122196914
 20
19.2891272905
 30
0.0
 10
26.7836034941
 20
19.2936964174
 30
0.0
 10
26.7525277983
 20
19.2975176912
 30
0.0
 10
26.7196782581
 20
19.3005270792
 30
0.0
 10
26.6853041249
 20
19.3027105802
 30
0.0
 10
26.6499782216
 20
19.3040261285
 30
0.0
 10
26.6261448254
 20
19.3043173159
 30
0.0
 10
26.6142651632
 20
19.3043173159
 30
0.0
  0
SPLINE
  5
39B
100
AcDbEntity
  8
INTFCLR_1
100
AcDbSpline
 62
7
  6
BYLAYER
 70
0
 71
3
 72
24
 73
20
 74
0
 42
0.0000001
 43
0.0000001
 44
0.0000000001
 40
0.0
 40
0.0
 40
0.0
 40
0.0
 40
0.0582368745
 40
0.0998269625
 40
0.1316292078
 40
0.1547589411
 40
0.1771204248
 40
0.2013557783
 40
0.2325976726
 40
0.2739195158
 40
0.3258362062
 40
0.3847533034
 40
0.4532718081
 40
0.5311560018
 40
0.6162543023
 40
0.7046514487
 40
0.7954133691
 40
0.8918503249
 40
1.0
 40
1.0
 40
1.0
 40
1.0
 10
6.3676095405
 20
19.208693813
 30
0.0
 10
6.3606540297
 20
19.2110060062
 30
0.0
 10
6.3488003872
 20
19.2152302796
 30
0.0
 10
6.3339539394
 20
19.2227179332
 30
0.0
 10
6.324185184
 20
19.2300785056
 30
0.0
 10
6.3187082765
 20
19.2386609062
 30
0.0
 10
6.3195699613
 20
19.2480190008
 30
0.0
 10
6.3256164593
 20
19.2560875319
 30
0.0
 10
6.3356307425
 20
19.2631783499
 30
0.0
 10
6.3497808432
 20
19.2700054255
 30
0.0
 10
6.3678472581
 20
19.2764261817
 30
0.0
 10
6.3895920772
 20
19.2825344301
 30
0.0
 10
6.4148574558
 20
19.2880260315
 30
0.0
 10
6.4436035787
 20
19.2928352987
 30
0.0
 10
6.4749929462
 20
19.2968511953
 30
0.0
 10
6.5081037383
 20
19.3000450634
 30
0.0
 10
6.5427155708
 20
19.3023887479
 30
0.0
 10
6.579861647
 20
19.3039137822
 30
0.0
 10
6.6056118972
 20
19.3042598516
 30
0.0
 10
6.6192236167
 20
19.3043173159
 30
0.0
  0
SPLINE
  5
39C
100
AcDbEntity
  8
INTFCLR_1
100
AcDbSpline
 62
7
  6
BYLAYER
 70
0
 71
3
 72
20
 73
16
 74
0
 42
0.0000001
 43
0.0000001
 44
0.0000000001
 40
0.0
 40
0.0
 40
0.0
 40
0.0
 40
0.1203106121
 40
0.2388864799
 40
0.3539853463
 40
0.4639219505
 40
0.5671771035
 40
0.6621512765
 40
0.7474553474
 40
0.8218655597
 40
0.8843182569
 40
0.9338864456
 40
0.9699176719
 40
0.9919384097
 40
1.0
 40
1.0
 40
1.0
 40
1.0
 10
14.4142651664
 20
14.0514153173
 30
0.0
 10
14.4263148199
 20
14.0514153173
 30
0.0
 10
14.4502404134
 20
14.0514578025
 30
0.0
 10
14.4856931876
 20
14.0516476236
 30
0.0
 10
14.52010619
 20
14.0519609017
 30
0.0
 10
14.5529828725
 20
14.0523929334
 30
0.0
 10
14.5838436755
 20
14.0529366694
 30
0.0
 10
14.6122294435
 20
14.0535850986
 30
0.0
 10
14.6377402746
 20
14.0543226874
 30
0.0
 10
14.659936479
 20
14.055151789
 30
0.0
 10
14.6787024419
 20
14.0560129417
 30
0.0
 10
14.6931998202
 20
14.0570076441
 30
0.0
 10
14.7046391169
 20
14.0578040887
 30
0.0
 10
14.7099382776
 20
14.0589704001
 30
0.0
 10
14.7142515345
 20
14.0594448182
 30
0.0
 10
14.7142515345
 20
14.060252223
 30
0.0
  0
SPLINE
  5
39D
100
AcDbEntity
  8
INTFCLR_1
100
AcDbSpline
 62
7
  6
BYLAYER
 70
0
 71
3
 72
20
 73
16
 74
0
 42
0.0000001
 43
0.0000001
 44
0.0000000001
 40
0.0
 40
0.0
 40
0.0
 40
0.0
 40
0.0255254883
 40
0.0578654014
 40
0.0981454646
 40
0.1492677476
 40
0.2125202409
 40
0.2846488993
 40
0.3667327767
 40
0.4601866369
 40
0.5599113667
 40
0.6641614844
 40
0.7735621151
 40
0.8871279898
 40
1.0
 40
1.0
 40
1.0
 40
1.0
 10
14.7142896498
 20
19.242407888
 30
0.0
 10
14.7142896498
 20
19.2450944192
 30
0.0
 10
14.7121092007
 20
19.2511697937
 30
0.0
 10
14.7046244861
 20
19.2585146884
 30
0.0
 10
14.6935197531
 20
19.26541669
 30
0.0
 10
14.6785883411
 20
19.2719936967
 30
0.0
 10
14.6599432152
 20
19.2781904947
 30
0.0
 10
14.6377703345
 20
19.2839206339
 30
0.0
 10
14.6122196914
 20
19.2891272905
 30
0.0
 10
14.5836034941
 20
19.2936964174
 30
0.0
 10
14.5525277983
 20
19.2975176912
 30
0.0
 10
14.5196782581
 20
19.3005270792
 30
0.0
 10
14.4853041249
 20
19.3027105802
 30
0.0
 10
14.4499782216
 20
19.3040261285
 30
0.0
 10
14.4261448254
 20
19.3043173158
 30
0.0
 10
14.4142651632
 20
19.3043173159
 30
0.0
  0
SPLINE
  5
39E
100
AcDbEntity
  8
INTFCLR_1
100
AcDbSpline
 62
7
  6
BYLAYER
 70
0
 71
3
 72
12
 73
8
 74
0
 42
0.0000001
 43
0.0000001
 44
0.0000000001
 40
0.0
 40
0.0
 40
0.0
 40
0.0
 40
0.2949565805
 40
0.5393139461
 40
0.7323116901
 40
0.8802274355
 40
1.0
 40
1.0
 40
1.0
 40
1.0
 10
14.6658792395
 20
19.2086938131
 30
0.0
 10
14.6716683897
 20
19.2105337696
 30
0.0
 10
14.6821516808
 20
19.2142445815
 30
0.0
 10
14.6958402104
 20
19.2206597912
 30
0.0
 10
14.705929034
 20
19.2273673906
 30
0.0
 10
14.7124866992
 20
19.2344238048
 30
0.0
 10
14.7142896498
 20
19.2399412202
 30
0.0
 10
14.7142896498
 20
19.242407888
 30
0.0
  0
SPLINE
  5
39F
100
AcDbEntity
  8
INTFCLR_1
100
AcDbSpline
 62
7
  6
BYLAYER
 70
0
 71
3
 72
12
 73
8
 74
0
 42
0.0000001
 43
0.0000001
 44
0.0000000001
 40
0.0
 40
0.0
 40
0.0
 40
0.0
 40
0.0454679002
 40
0.1687780025
 40
0.3706168701
 40
0.6487204861
 40
1.0
 40
1.0
 40
1.0
 40
1.0
 10
14.7142515345
 20
14.060252223
 30
0.0
 10
14.7142515345
 20
14.0609922519
 30
0.0
 10
14.7103610864
 20
14.0615078076
 30
0.0
 10
14.7055045006
 20
14.0625655815
 30
0.0
 10
14.6951063119
 20
14.0633609061
 30
0.0
 10
14.6818800934
 20
14.0643057406
 30
0.0
 10
14.6715687096
 20
14.0648060263
 30
0.0
 10
14.6658572099
 20
14.0650651274
 30
0.0
  0
SPLINE
  5
3A0
100
AcDbEntity
  8
INTFCLR_1
100
AcDbSpline
 62
7
  6
BYLAYER
 70
0
 71
3
 72
25
 73
21
 74
0
 42
0.0000001
 43
0.0000001
 44
0.0000000001
 40
0.0
 40
0.0
 40
0.0
 40
0.0
 40
0.0932134832
 40
0.1857191301
 40
0.2750068501
 40
0.3608426807
 40
0.4422343881
 40
0.5180313855
 40
0.5870807394
 40
0.6480971998
 40
0.7005091162
 40
0.7447997464
 40
0.7814755335
 40
0.8099049333
 40
0.8320153204
 40
0.851596295
 40
0.8764683189
 40
0.9094563409
 40
0.9510046469
 40
1.0
 40
1.0
 40
1.0
 40
1.0
 10
6.6192236164
 20
19.3043173154
 30
0.0
 10
6.6074980309
 20
19.3043099763
 30
0.0
 10
6.5841348286
 20
19.3039986862
 30
0.0
 10
6.5495644812
 20
19.3026265474
 30
0.0
 10
6.5159656642
 20
19.3004470168
 30
0.0
 10
6.4838269794
 20
19.2975203031
 30
0.0
 10
6.4534679831
 20
19.2938897015
 30
0.0
 10
6.4253282086
 20
19.2895999626
 30
0.0
 10
6.3998902324
 20
19.2847071759
 30
0.0
 10
6.377575812
 20
19.2792786942
 30
0.0
 10
6.3586159917
 20
19.2733691885
 30
0.0
 10
6.3430947261
 20
19.266920014
 30
0.0
 10
6.3311075894
 20
19.2600486401
 30
0.0
 10
6.3227332063
 20
19.2528175901
 30
0.0
 10
6.3185062312
 20
19.2445512715
 30
0.0
 10
6.3200787382
 20
19.2358178139
 30
0.0
 10
6.3265650203
 20
19.2281990175
 30
0.0
 10
6.3369167025
 20
19.2210963481
 30
0.0
 10
6.351001794
 20
19.2144145107
 30
0.0
 10
6.3617419638
 20
19.2105903625
 30
0.0
 10
6.3676095406
 20
19.2087042642
 30
0.0
  0
SPLINE
  5
3A1
100
AcDbEntity
  8
INTFCLR_1
100
AcDbSpline
 62
7
  6
BYLAYER
 70
0
 71
3
 72
25
 73
21
 74
0
 42
0.0000001
 43
0.0000001
 44
0.0000000001
 40
0.0
 40
0.0
 40
0.0
 40
0.0
 40
0.0504573755
 40
0.0903046696
 40
0.1186681951
 40
0.1350687086
 40
0.1399212613
 40
0.1485996572
 40
0.1692724025
 40
0.2015325845
 40
0.2449455825
 40
0.2987558056
 40
0.3625783005
 40
0.4356661342
 40
0.5170005788
 40
0.6052037776
 40
0.6985765338
 40
0.7965089151
 40
0.8974654468
 40
1.0
 40
1.0
 40
1.0
 40
1.0
 10
6.3676095406
 20
14.0650641281
 30
0.0
 10
6.3617450483
 20
14.0647469771
 30
0.0
 10
6.3512074755
 20
14.0640566523
 30
0.0
 10
6.3375806063
 20
14.0633055006
 30
0.0
 10
6.3274510351
 20
14.061741735
 30
0.0
 10
6.3222876118
 20
14.061860914
 30
0.0
 10
6.3181788037
 20
14.0595277448
 30
0.0
 10
6.3246640315
 20
14.0584461355
 30
0.0
 10
6.3299378755
 20
14.0577337323
 30
0.0
 10
6.3420792245
 20
14.0567538486
 30
0.0
 10
6.3567240438
 20
14.0559071078
 30
0.0
 10
6.3755998064
 20
14.055056279
 30
0.0
 10
6.3977339924
 20
14.054279953
 30
0.0
 10
6.4231441105
 20
14.053568725
 30
0.0
 10
6.4513727244
 20
14.0529432168
 30
0.0
 10
6.4819716973
 20
14.0524127175
 30
0.0
 10
6.5145022922
 20
14.0519853841
 30
0.0
 10
6.5485192508
 20
14.0516671187
 30
0.0
 10
6.5836033168
 20
14.0514623462
 30
0.0
 10
6.6072889573
 20
14.0514046018
 30
0.0
 10
6.6192236164
 20
14.0513950063
 30
0.0
  0
SPLINE
  5
3A2
100
AcDbEntity
  8
INTFCLR_1
100
AcDbSpline
 62
7
  6
BYLAYER
 70
0
 71
3
 72
28
 73
24
 74
0
 42
0.0000001
 43
0.0000001
 44
0.0000000001
 40
0.0
 40
0.0
 40
0.0
 40
0.0
 40
0.0499381706
 40
0.0975288971
 40
0.1439856501
 40
0.1916571549
 40
0.2355694927
 40
0.2796371938
 40
0.3240164489
 40
0.3690072073
 40
0.4124826911
 40
0.4566567788
 40
0.4989348124
 40
0.5420570695
 40
0.5855930103
 40
0.6274406007
 40
0.6719819984
 40
0.7195555543
 40
0.7693129378
 40
0.8206211397
 40
0.8768327412
 40
0.93483931
 40
1.0
 40
1.0
 40
1.0
 40
1.0
 10
20.4667443897
 20
19.2097764473
 30
0.0
 10
20.4098232949
 20
19.200336751
 30
0.0
 10
20.299021842
 20
19.1796000244
 30
0.0
 10
20.1369202922
 20
19.1419737272
 30
0.0
 10
19.9791741167
 20
19.0978579609
 30
0.0
 10
19.8277596114
 20
19.0475205437
 30
0.0
 10
19.6816984049
 20
18.9904929009
 30
0.0
 10
19.542354341
 20
18.9272891356
 30
0.0
 10
19.4058488208
 20
18.8554161848
 30
0.0
 10
19.274851931
 20
18.7751929091
 30
0.0
 10
19.1499632911
 20
18.6861502504
 30
0.0
 10
19.0344502977
 20
18.5900337979
 30
0.0
 10
18.9271218101
 20
18.4854410175
 30
0.0
 10
18.8291070425
 20
18.3730234217
 30
0.0
 10
18.7412662792
 20
18.2530907766
 30
0.0
 10
18.6629952073
 20
18.1248000861
 30
0.0
 10
18.5937018067
 20
17.9861845954
 30
0.0
 10
18.5333014419
 20
17.8335750335
 30
0.0
 10
18.4840377469
 20
17.6688385157
 30
0.0
 10
18.4464542055
 20
17.4908545301
 30
0.0
 10
18.4218778266
 20
17.3009893457
 30
0.0
 10
18.4106779943
 20
17.0938730292
 30
0.0
 10
18.4130568875
 20
16.9514481548
 30
0.0
 10
18.4167443915
 20
16.8762519127
 30
0.0
  0
SPLINE
  5
3A3
100
AcDbEntity
  8
INTFCLR_1
100
AcDbSpline
 62
7
  6
BYLAYER
 70
0
 71
3
 72
47
 73
43
 74
0
 42
0.0000001
 43
0.0000001
 44
0.0000000001
 40
0.0
 40
0.0
 40
0.0
 40
0.0
 40
0.0295468935
 40
0.0587818577
 40
0.0876809868
 40
0.116217308
 40
0.1443634224
 40
0.1721060906
 40
0.1994184087
 40
0.2262957719
 40
0.2527205653
 40
0.2786964546
 40
0.3042076071
 40
0.3292647971
 40
0.3538691398
 40
0.3780226918
 40
0.4017491755
 40
0.4250616779
 40
0.4479906847
 40
0.4705631895
 40
0.4928157681
 40
0.5147841314
 40
0.5365162513
 40
0.558064812
 40
0.5794832918
 40
0.600836637
 40
0.6221881245
 40
0.6436148973
 40
0.6651877193
 40
0.6869928769
 40
0.7091101186
 40
0.7316333379
 40
0.7546485805
 40
0.7782550678
 40
0.8025425851
 40
0.8276137188
 40
0.8535622983
 40
0.8804922504
 40
0.9084988958
 40
0.9376864237
 40
0.9681533909
 40
1.0
 40
1.0
 40
1.0
 40
1.0
 10
20.4667443897
 20
16.9261617896
 30
0.0
 10
20.4368324694
 20
16.9231917912
 30
0.0
 10
20.3773645229
 20
16.9168695802
 30
0.0
 10
20.2888079544
 20
16.9061425985
 30
0.0
 10
20.2014449711
 20
16.8941939636
 30
0.0
 10
20.1153819631
 20
16.8809972446
 30
0.0
 10
20.0307173187
 20
16.8665238834
 30
0.0
 10
19.947552834
 20
16.8507450672
 30
0.0
 10
19.8659712985
 20
16.8336279358
 30
0.0
 10
19.7860641305
 20
16.8151409167
 30
0.0
 10
19.7078972201
 20
16.7952461844
 30
0.0
 10
19.6315529053
 20
16.773909443
 30
0.0
 10
19.5570915066
 20
16.7510904314
 30
0.0
 10
19.484582272
 20
16.7267514974
 30
0.0
 10
19.4140842512
 20
16.7008516504
 30
0.0
 10
19.3456516647
 20
16.6733486886
 30
0.0
 10
19.279335748
 20
16.6441991912
 30
0.0
 10
19.2151705333
 20
16.6133513923
 30
0.0
 10
19.1531972043
 20
16.5807554295
 30
0.0
 10
19.0934466389
 20
16.5463543285
 30
0.0
 10
19.035956613
 20
16.5100929494
 30
0.0
 10
18.9807585733
 20
16.4719103768
 30
0.0
 10
18.9278828058
 20
16.4317420865
 30
0.0
 10
18.8773581027
 20
16.3895183633
 30
0.0
 10
18.8292129023
 20
16.345164669
 30
0.0
 10
18.7834803466
 20
16.2986056793
 30
0.0
 10
18.7401888274
 20
16.2497555891
 30
0.0
 10
18.6993746021
 20
16.1985302389
 30
0.0
 10
18.661069868
 20
16.1448332178
 30
0.0
 10
18.6253150839
 20
16.0885708656
 30
0.0
 10
18.5921465548
 20
16.0296338041
 30
0.0
 10
18.5616087131
 20
15.9679152393
 30
0.0
 10
18.5337438118
 20
15.9032919156
 30
0.0
 10
18.5086019879
 20
15.8356438721
 30
0.0
 10
18.4862323708
 20
15.7648337333
 30
0.0
 10
18.4666905091
 20
15.6907260376
 30
0.0
 10
18.4500320856
 20
15.6131671228
 30
0.0
 10
18.4363180766
 20
15.5320050415
 30
0.0
 10
18.4256102804
 20
15.4470714561
 30
0.0
 10
18.4179734967
 20
15.3581962026
 30
0.0
 10
18.4134733281
 20
15.2651985081
 30
0.0
 10
18.4126278276
 20
15.2017963495
 30
0.0
 10
18.412713136
 20
15.1693978806
 30
0.0
  0
SPLINE
  5
3A4
100
AcDbEntity
  8
INTFCLR_1
100
AcDbSpline
 62
7
  6
BYLAYER
 70
0
 71
3
 72
28
 73
24
 74
0
 42
0.0000001
 43
0.0000001
 44
0.0000000001
 40
0.0
 40
0.0
 40
0.0
 40
0.0
 40
0.0571180291
 40
0.1129124509
 40
0.1674937452
 40
0.2202050439
 40
0.2711223108
 40
0.3206259953
 40
0.3684984146
 40
0.4145605581
 40
0.4579568315
 40
0.4999910937
 40
0.5415801454
 40
0.5829788855
 40
0.6231202549
 40
0.6632822924
 40
0.7042273635
 40
0.7466905188
 40
0.7912240737
 40
0.8376670336
 40
0.8881673344
 40
0.9406309597
 40
1.0
 40
1.0
 40
1.0
 40
1.0
 10
12.7667443897
 20
16.92616179
 30
0.0
 10
12.8245590987
 20
16.9204212828
 30
0.0
 10
12.9387043072
 20
16.9075409634
 30
0.0
 10
13.107384302
 20
16.883412529
 30
0.0
 10
13.2707683531
 20
16.8545022156
 30
0.0
 10
13.4281257059
 20
16.8205989931
 30
0.0
 10
13.578943683
 20
16.7814639742
 30
0.0
 10
13.7230603807
 20
16.736716175
 30
0.0
 10
13.8599505129
 20
16.6860061383
 30
0.0
 10
13.9878456447
 20
16.6295881871
 30
0.0
 10
14.1064044443
 20
16.5674396026
 30
0.0
 10
14.216201556
 20
16.4990954711
 30
0.0
 10
14.3184330467
 20
16.4231968791
 30
0.0
 10
14.4119946737
 20
16.3396576057
 30
0.0
 10
14.4961504417
 20
16.248606628
 30
0.0
 10
14.5706626726
 20
16.1500734803
 30
0.0
 10
14.6361590185
 20
16.0425468544
 30
0.0
 10
14.692506316
 20
15.9250028313
 30
0.0
 10
14.739065837
 20
15.7972883034
 30
0.0
 10
14.7758244124
 20
15.6579660148
 30
0.0
 10
14.801980455
 20
15.5080852762
 30
0.0
 10
14.8178569226
 20
15.3435962274
 30
0.0
 10
14.8209346236
 20
15.2297856397
 30
0.0
 10
14.8207756454
 20
15.1693971759
 30
0.0
  0
SPLINE
  5
3A5
100
AcDbEntity
  8
INTFCLR_1
100
AcDbSpline
 62
7
  6
BYLAYER
 70
0
 71
3
 72
28
 73
24
 74
0
 42
0.0000001
 43
0.0000001
 44
0.0000000001
 40
0.0
 40
0.0
 40
0.0
 40
0.0
 40
0.0486027739
 40
0.0959415177
 40
0.142266962
 40
0.18940557
 40
0.2333407319
 40
0.2771607743
 40
0.3214668341
 40
0.3662061974
 40
0.4103849542
 40
0.454052206
 40
0.4956348864
 40
0.539112797
 40
0.5840702569
 40
0.6276656463
 40
0.6730522959
 40
0.7200677025
 40
0.7703698109
 40
0.8219467383
 40
0.8778741577
 40
0.935392332
 40
1.0
 40
1.0
 40
1.0
 40
1.0
 10
12.7667443898
 20
19.2097764463
 30
0.0
 10
12.8221432935
 20
19.2005891876
 30
0.0
 10
12.9311501106
 20
19.1802503053
 30
0.0
 10
13.0913651659
 20
19.1432859758
 30
0.0
 10
13.2481625095
 20
19.0997123313
 30
0.0
 10
13.3989753823
 20
19.0499244181
 30
0.0
 10
13.5443687565
 20
18.9935972158
 30
0.0
 10
13.6835840479
 20
18.9309500828
 30
0.0
 10
13.8197514101
 20
18.8598593601
 30
0.0
 10
13.9514428942
 20
18.7799410914
 30
0.0
 10
14.0766408104
 20
18.6914367696
 30
0.0
 10
14.1921001814
 20
18.5961680374
 30
0.0
 10
14.2992909364
 20
18.4928494846
 30
0.0
 10
14.3988131434
 20
18.3800872026
 30
0.0
 10
14.4896154669
 20
18.2572553716
 30
0.0
 10
14.5704792052
 20
18.1250890935
 30
0.0
 10
14.6406512408
 20
17.9842730011
 30
0.0
 10
14.7011818585
 20
17.8306880093
 30
0.0
 10
14.7503089628
 20
17.6655970959
 30
0.0
 10
14.7876854651
 20
17.4869435079
 30
0.0
 10
14.8118782728
 20
17.2976200441
 30
0.0
 10
14.8227977208
 20
17.0920273374
 30
0.0
 10
14.8204005941
 20
16.9508099715
 30
0.0
 10
14.8167443903
 20
16.8762520097
 30
0.0
  0
SPLINE
  5
3A6
100
AcDbEntity
  8
INTFCLR_1
100
AcDbSpline
 62
7
  6
BYLAYER
 70
0
 71
3
 72
40
 73
36
 74
0
 42
0.0000001
 43
0.0000001
 44
0.0000000001
 40
0.0
 40
0.0
 40
0.0
 40
0.0
 40
0.002363348
 40
0.0091525836
 40
0.0203755897
 40
0.0359158239
 40
0.0557009677
 40
0.0795131846
 40
0.1071355551
 40
0.1382366966
 40
0.1726326947
 40
0.2100255436
 40
0.2500451653
 40
0.2923118851
 40
0.3364834849
 40
0.3822308274
 40
0.4290164885
 40
0.4764108249
 40
0.5239807003
 40
0.5713057803
 40
0.6179813456
 40
0.6636080208
 40
0.7076758885
 40
0.7498691532
 40
0.7898494104
 40
0.8272389005
 40
0.8616654499
 40
0.8928048465
 40
0.9204444899
 40
0.9442595683
 40
0.9640446703
 40
0.9795891097
 40
0.9908235931
 40
0.9976281564
 40
1.0
 40
1.0
 40
1.0
 40
1.0
 10
5.5845538049
 20
25.5350167476
 30
0.0
 10
5.5832140931
 20
25.5350167484
 30
0.0
 10
5.5841591594
 20
25.5430964705
 30
0.0
 10
5.5817711814
 20
25.5518560596
 30
0.0
 10
5.5817532052
 20
25.5724086145
 30
0.0
 10
5.5804763063
 20
25.5981032948
 30
0.0
 10
5.5797480865
 20
25.6318756301
 30
0.0
 10
5.5788568685
 20
25.6721472315
 30
0.0
 10
5.5780822106
 20
25.7189585247
 30
0.0
 10
5.5773401082
 20
25.7717302283
 30
0.0
 10
5.5766680636
 20
25.8300547489
 30
0.0
 10
5.5760628372
 20
25.8934318633
 30
0.0
 10
5.5755335621
 20
25.9612726855
 30
0.0
 10
5.5750844408
 20
26.0329564752
 30
0.0
 10
5.574719746
 20
26.1078877602
 30
0.0
 10
5.5744431273
 20
26.1853810609
 30
0.0
 10
5.5742574386
 20
26.2647015186
 30
0.0
 10
5.5741644573
 20
26.3450552766
 30
0.0
 10
5.5741648418
 20
26.4257148694
 30
0.0
 10
5.5742584131
 20
26.5059669571
 30
0.0
 10
5.5744442502
 20
26.5851173417
 30
0.0
 10
5.5747205202
 20
26.6624210269
 30
0.0
 10
5.5750844895
 20
26.7371834684
 30
0.0
 10
5.5755327271
 20
26.8087445045
 30
0.0
 10
5.5760612032
 20
26.8765194722
 30
0.0
 10
5.5766659666
 20
26.9398896915
 30
0.0
 10
5.5773380129
 20
26.9982513158
 30
0.0
 10
5.578080441
 20
27.051071809
 30
0.0
 10
5.5788553391
 20
27.0979162032
 30
0.0
 10
5.5797465196
 20
27.1381992543
 30
0.0
 10
5.5804743606
 20
27.1719753799
 30
0.0
 10
5.5817512925
 20
27.1976791964
 30
0.0
 10
5.5817676243
 20
27.2182502649
 30
0.0
 10
5.584160896
 20
27.2270245864
 30
0.0
 10
5.5832092772
 20
27.2351269207
 30
0.0
 10
5.5845538049
 20
27.2351269207
 30
0.0
  0
LINE
  5
3A7
100
AcDbEntity
  8
INTFCLR_1
100
AcDbLine
 62
7
  6
BYLAYER
 10
5.474104984
 20
20.2350719304
 11
5.4747138701
 21
20.2200576934
  0
LINE
  5
3A8
100
AcDbEntity
  8
INTFCLR_1
100
AcDbLine
 62
7
  6
BYLAYER
 10
6.0453815718
 20
17.6264881573
 11
6.0478635808
 21
16.1924424572
  0
LINE
  5
3A9
100
AcDbEntity
  8
INTFCLR_1
100
AcDbLine
 62
7
  6
BYLAYER
 10
6.0452641875
 20
20.2080147187
 11
5.4747138701
 21
20.2200576933
  0
LINE
  5
3AA
100
AcDbEntity
  8
INTFCLR_1
100
AcDbLine
 62
7
  6
BYLAYER
 10
5.4747138706
 20
16.0500861686
 11
6.045195121
 21
16.0621276702
  0
SPLINE
  5
3AB
100
AcDbEntity
  8
INTFCLR_1
100
AcDbSpline
 62
7
  6
BYLAYER
 70
0
 71
3
 72
21
 73
17
 74
0
 42
0.0000001
 43
0.0000001
 44
0.0000000001
 40
0.0
 40
0.0
 40
0.0
 40
0.0
 40
0.0494529838
 40
0.1035518255
 40
0.1620379331
 40
0.2246316235
 40
0.2909244647
 40
0.3606633556
 40
0.4335468469
 40
0.5092240436
 40
0.587319634
 40
0.6674291377
 40
0.7491249394
 40
0.8320522283
 40
0.91581163
 40
1.0
 40
1.0
 40
1.0
 40
1.0
 10
6.0478637964
 20
16.1924431572
 30
0.0
 10
6.0484474015
 20
16.2244618149
 30
0.0
 10
6.0495812368
 20
16.2915087503
 30
0.0
 10
6.0511134833
 20
16.3964275788
 30
0.0
 10
6.0525561032
 20
16.5098578585
 30
0.0
 10
6.0538984262
 20
16.6311862723
 30
0.0
 10
6.0551343888
 20
16.7598030629
 30
0.0
 10
6.0562577894
 20
16.8950844276
 30
0.0
 10
6.0572636279
 20
17.0364438454
 30
0.0
 10
6.0581468488
 20
17.1832156796
 30
0.0
 10
6.0589027922
 20
17.3346675883
 30
0.0
 10
6.0595274221
 20
17.4900175585
 30
0.0
 10
6.0600176295
 20
17.6484968591
 30
0.0
 10
6.0603710805
 20
17.8093400719
 30
0.0
 10
6.0605859177
 20
17.9717976266
 30
0.0
 10
6.060636284
 20
18.080554575
 30
0.0
 10
6.0606378849
 20
18.1350719392
 30
0.0
  0
SPLINE
  5
3AC
100
AcDbEntity
  8
INTFCLR_1
100
AcDbSpline
 62
7
  6
BYLAYER
 70
0
 71
3
 72
22
 73
18
 74
0
 42
0.0000001
 43
0.0000001
 44
0.0000000001
 40
0.0
 40
0.0
 40
0.0
 40
0.0
 40
0.0817606406
 40
0.1631061761
 40
0.243597476
 40
0.3227997895
 40
0.4004042297
 40
0.47588914
 40
0.5488476851
 40
0.6188986513
 40
0.6856857356
 40
0.7488768957
 40
0.8081480461
 40
0.8631239846
 40
0.9136028739
 40
0.959310625
 40
1.0
 40
1.0
 40
1.0
 40
1.0
 10
6.0606378849
 20
18.1350719392
 30
0.0
 10
6.0606385773
 20
18.1915694508
 30
0.0
 10
6.0605894045
 20
18.3042776387
 30
0.0
 10
6.060365914
 20
18.4726060758
 30
0.0
 10
6.0599934741
 20
18.6391664147
 30
0.0
 10
6.0594740363
 20
18.8031412095
 30
0.0
 10
6.0588102233
 20
18.9636559854
 30
0.0
 10
6.0580054944
 20
19.1198555497
 30
0.0
 10
6.0570646731
 20
19.2708347241
 30
0.0
 10
6.0559929954
 20
19.4158025782
 30
0.0
 10
6.0547962427
 20
19.5540198461
 30
0.0
 10
6.0534807939
 20
19.6847867134
 30
0.0
 10
6.0520540868
 20
19.8073902728
 30
0.0
 10
6.0505242036
 20
19.921207545
 30
0.0
 10
6.0488988996
 20
20.0256500146
 30
0.0
 10
6.0471895289
 20
20.1202175313
 30
0.0
 10
6.0459187556
 20
20.1799055285
 30
0.0
 10
6.0452641875
 20
20.2080147187
 30
0.0
  0
SPLINE
  5
3AD
100
AcDbEntity
  8
INTFCLR_1
100
AcDbSpline
 62
7
  6
BYLAYER
 70
0
 71
3
 72
38
 73
34
 74
0
 42
0.0000001
 43
0.0000001
 44
0.0000000001
 40
0.0
 40
0.0
 40
0.0
 40
0.0
 40
0.0189832469
 40
0.0404381957
 40
0.0642575462
 40
0.090302456
 40
0.1184761392
 40
0.1486174305
 40
0.1805610683
 40
0.2141436386
 40
0.2491990057
 40
0.2855501302
 40
0.3230086557
 40
0.3613783059
 40
0.4004674036
 40
0.4400830927
 40
0.47999979
 40
0.5200111631
 40
0.559914049
 40
0.599509362
 40
0.6385789307
 40
0.6769351481
 40
0.7143898026
 40
0.7507451611
 40
0.7858078719
 40
0.8193953547
 40
0.8513360101
 40
0.8814688413
 40
0.9096411613
 40
0.9356977434
 40
0.9595348408
 40
0.9810063947
 40
1.0
 40
1.0
 40
1.0
 40
1.0
 10
5.2648748025
 20
16.0350719309
 30
0.0
 10
5.2655329929
 20
16.0616415597
 30
0.0
 10
5.2668034102
 20
16.1182435805
 30
0.0
 10
5.2685189098
 20
16.2081920817
 30
0.0
 10
5.2701539891
 20
16.3080303267
 30
0.0
 10
5.2716997652
 20
16.4172776601
 30
0.0
 10
5.2731477321
 20
16.5353781678
 30
0.0
 10
5.274490033
 20
16.6617390135
 30
0.0
 10
5.2757190776
 20
16.7956741354
 30
0.0
 10
5.2768283527
 20
16.9364905471
 30
0.0
 10
5.2778121287
 20
17.0834787993
 30
0.0
 10
5.2786652679
 20
17.2358945421
 30
0.0
 10
5.279383232
 20
17.3929512411
 30
0.0
 10
5.2799622339
 20
17.5538418779
 30
0.0
 10
5.2803992485
 20
17.717753142
 30
0.0
 10
5.280691886
 20
17.8838306964
 30
0.0
 10
5.2808385607
 20
18.0511996895
 30
0.0
 10
5.2808385406
 20
18.2189708408
 30
0.0
 10
5.2806918928
 20
18.386291969
 30
0.0
 10
5.280399436
 20
18.5522943172
 30
0.0
 10
5.2799627465
 20
18.7161309053
 30
0.0
 10
5.2793841264
 20
18.8769699748
 30
0.0
 10
5.2786664885
 20
19.0340083763
 30
0.0
 10
5.2778135463
 20
19.1864349103
 30
0.0
 10
5.2768298651
 20
19.333446251
 30
0.0
 10
5.2757207272
 20
19.4742756482
 30
0.0
 10
5.2744920235
 20
19.6082016304
 30
0.0
 10
5.2731502361
 20
19.7345445517
 30
0.0
 10
5.2717026442
 20
19.8526476527
 30
0.0
 10
5.2701567487
 20
19.9619342687
 30
0.0
 10
5.2685209906
 20
20.0618369484
 30
0.0
 10
5.2668045466
 20
20.1518480406
 30
0.0
 10
5.2655333521
 20
20.2084878044
 30
0.0
 10
5.2648748026
 20
20.2350719311
 30
0.0
  0
SPLINE
  5
3AE
100
AcDbEntity
  8
INTFCLR_1
100
AcDbSpline
 62
7
  6
BYLAYER
 70
0
 71
3
 72
39
 73
35
 74
0
 42
0.0000001
 43
0.0000001
 44
0.0000000001
 40
0.0
 40
0.0
 40
0.0
 40
0.0
 40
0.0176299724
 40
0.0377142236
 40
0.0601416713
 40
0.0847822992
 40
0.1115602002
 40
0.1403088206
 40
0.1708762006
 40
0.2030762959
 40
0.2368003548
 40
0.2718711542
 40
0.3080961131
 40
0.3452855385
 40
0.3832871667
 40
0.4218988226
 40
0.4608931893
 40
0.5000705763
 40
0.5392327176
 40
0.5781896562
 40
0.6167543925
 40
0.6547119807
 40
0.6918675393
 40
0.7280701492
 40
0.7631321061
 40
0.7968637665
 40
0.8290807385
 40
0.8596566363
 40
0.8884056888
 40
0.9151816291
 40
0.9398223362
 40
0.9622550476
 40
0.982351372
 40
1.0
 40
1.0
 40
1.0
 40
1.0
 10
4.0455082137
 20
15.7350719334
 30
0.0
 10
4.046257314
 20
15.7632713525
 30
0.0
 10
4.0477028019
 20
15.8236000397
 30
0.0
 10
4.0496544774
 20
15.9198118788
 30
0.0
 10
4.051521703
 20
16.027244881
 30
0.0
 10
4.0532942325
 20
16.1453911494
 30
0.0
 10
4.0549620884
 20
16.2736542359
 30
0.0
 10
4.0565162339
 20
16.411402662
 30
0.0
 10
4.0579472308
 20
16.5578287983
 30
0.0
 10
4.0592480906
 20
16.7122175392
 30
0.0
 10
4.0604123132
 20
16.8738133929
 30
0.0
 10
4.0614340845
 20
17.0418504339
 30
0.0
 10
4.0623077654
 20
17.2154332434
 30
0.0
 10
4.0630289597
 20
17.3937063513
 30
0.0
 10
4.0635939504
 20
17.5757989462
 30
0.0
 10
4.0639996053
 20
17.7607800222
 30
0.0
 10
4.0642436512
 20
17.9476426911
 30
0.0
 10
4.0643249027
 20
18.135386322
 30
0.0
 10
4.0642431207
 20
18.3230700649
 30
0.0
 10
4.0639988309
 20
18.5097733759
 30
0.0
 10
4.0635933455
 20
18.694549021
 30
0.0
 10
4.0630288853
 20
18.8764418842
 30
0.0
 10
4.0623084267
 20
19.0545545763
 30
0.0
 10
4.0614354983
 20
19.2280332898
 30
0.0
 10
4.0604142823
 20
19.3960325875
 30
0.0
 10
4.0592502373
 20
19.5576534616
 30
0.0
 10
4.0579492518
 20
19.7120949995
 30
0.0
 10
4.0565181174
 20
19.858562461
 30
0.0
 10
4.0549641092
 20
19.9963220726
 30
0.0
 10
4.0532965917
 20
20.124582844
 30
0.0
 10
4.0515243532
 20
20.2427345291
 30
0.0
 10
4.0496570624
 20
20.3501954016
 30
0.0
 10
4.0477046128
 20
20.4464648278
 30
0.0
 10
4.0462581061
 20
20.5068426738
 30
0.0
 10
4.0455082131
 20
20.5350719329
 30
0.0
  0
SPLINE
  5
3AF
100
AcDbEntity
  8
INTFCLR_1
100
AcDbSpline
 62
7
  6
BYLAYER
 70
0
 71
3
 72
39
 73
35
 74
0
 42
0.0000001
 43
0.0000001
 44
0.0000000001
 40
0.0
 40
0.0
 40
0.0
 40
0.0
 40
0.0176299735
 40
0.0377142247
 40
0.0601416724
 40
0.0847823003
 40
0.1115602013
 40
0.1403088216
 40
0.1708762016
 40
0.2030762969
 40
0.2368003558
 40
0.2718711551
 40
0.3080961139
 40
0.3452855393
 40
0.3832871675
 40
0.4218988233
 40
0.4608931899
 40
0.5000705769
 40
0.5392327181
 40
0.5781896567
 40
0.6167543929
 40
0.6547119811
 40
0.6918675396
 40
0.7280701495
 40
0.7631321064
 40
0.7968637668
 40
0.8290807388
 40
0.8596566365
 40
0.888405689
 40
0.9151816293
 40
0.9398223364
 40
0.9622550479
 40
0.9823513723
 40
1.0
 40
1.0
 40
1.0
 40
1.0
 10
6.0456574861
 20
20.5350719337
 30
0.0
 10
6.0464065865
 20
20.5068725126
 30
0.0
 10
6.0478520742
 20
20.4465438236
 30
0.0
 10
6.0498037499
 20
20.3503319826
 30
0.0
 10
6.0516709754
 20
20.2428989804
 30
0.0
 10
6.0534435049
 20
20.1247527121
 30
0.0
 10
6.0551113608
 20
19.9964896257
 30
0.0
 10
6.0566655064
 20
19.8587411996
 30
0.0
 10
6.0580965033
 20
19.7123150635
 30
0.0
 10
6.059397363
 20
19.5579263227
 30
0.0
 10
6.0605615856
 20
19.3963304692
 30
0.0
 10
6.061583357
 20
19.2282934283
 30
0.0
 10
6.0624570378
 20
19.054710619
 30
0.0
 10
6.0631782321
 20
18.8764375112
 30
0.0
 10
6.0637432229
 20
18.6943449165
 30
0.0
 10
6.0641488777
 20
18.5093638406
 30
0.0
 10
6.0643929237
 20
18.322501172
 30
0.0
 10
6.0644741751
 20
18.1347575412
 30
0.0
 10
6.0643923931
 20
17.9470737985
 30
0.0
 10
6.0641481033
 20
17.7603704877
 30
0.0
 10
6.0637426179
 20
17.5755948427
 30
0.0
 10
6.0631781577
 20
17.3937019797
 30
0.0
 10
6.0624576992
 20
17.2155892876
 30
0.0
 10
6.0615847707
 20
17.0421105742
 30
0.0
 10
6.0605635547
 20
16.8741112765
 30
0.0
 10
6.0593995098
 20
16.7124904025
 30
0.0
 10
6.0580985242
 20
16.5580488646
 30
0.0
 10
6.0566673898
 20
16.411581403
 30
0.0
 10
6.0551133817
 20
16.2738217915
 30
0.0
 10
6.0534458641
 20
16.1455610199
 30
0.0
 10
6.0516736257
 20
16.0274093347
 30
0.0
 10
6.0498063349
 20
15.9199484621
 30
0.0
 10
6.0478538854
 20
15.8236790362
 30
0.0
 10
6.0464073785
 20
15.7633011906
 30
0.0
 10
6.0456574855
 20
15.7350719319
 30
0.0
  0
LINE
  5
3B0
100
AcDbEntity
  8
INTFCLR_1
100
AcDbLine
 62
7
  6
BYLAYER
 10
5.4747138706
 20
16.0500861687
 11
5.4741049846
 21
16.0350719317
  0
LINE
  5
3B1
100
AcDbEntity
  8
INTFCLR_1
100
AcDbLine
 62
7
  6
BYLAYER
 10
6.0453815718
 20
17.6264881573
 11
6.0451690874
 21
17.8907628002
  0
SPLINE
  5
3B2
100
AcDbEntity
  8
INTFCLR_1
100
AcDbSpline
 62
7
  6
BYLAYER
 70
0
 71
3
 72
13
 73
9
 74
0
 42
0.0000001
 43
0.0000001
 44
0.0000000001
 40
0.0
 40
0.0
 40
0.0
 40
0.0
 40
0.2414556546
 40
0.4505918612
 40
0.5935187764
 40
0.7313670345
 40
0.8821734911
 40
1.0
 40
1.0
 40
1.0
 40
1.0
 10
6.0556176398
 20
20.2023980693
 30
0.0
 10
6.054852267
 20
20.2027984611
 30
0.0
 10
6.053421653
 20
20.2035414719
 30
0.0
 10
6.0515267491
 20
20.2044986706
 30
0.0
 10
6.049962746
 20
20.2052912153
 30
0.0
 10
6.0485391116
 20
20.2058903165
 30
0.0
 10
6.0472055191
 20
20.2064696061
 30
0.0
 10
6.046290464
 20
20.2067729239
 30
0.0
 10
6.0458807958
 20
20.2068721295
 30
0.0
  0
SPLINE
  5
3B3
100
AcDbEntity
  8
INTFCLR_1
100
AcDbSpline
 62
7
  6
BYLAYER
 70
0
 71
3
 72
12
 73
8
 74
0
 42
0.0000001
 43
0.0000001
 44
0.0000000001
 40
0.0
 40
0.0
 40
0.0
 40
0.0
 40
0.2481568887
 40
0.5007631397
 40
0.6442057603
 40
0.764625461
 40
1.0
 40
1.0
 40
1.0
 40
1.0
 10
6.0458807958
 20
20.2068721295
 30
0.0
 10
6.0459674912
 20
20.2068872915
 30
0.0
 10
6.0461436139
 20
20.2069313
 30
0.0
 10
6.0463373362
 20
20.2070390497
 30
0.0
 10
6.0464992552
 20
20.207161165
 30
0.0
 10
6.0464641033
 20
20.2073640772
 30
0.0
 10
6.0463332128
 20
20.2074176621
 30
0.0
 10
6.0462595812
 20
20.2074569932
 30
0.0
  0
SPLINE
  5
3B4
100
AcDbEntity
  8
INTFCLR_1
100
AcDbSpline
 62
7
  6
BYLAYER
 70
0
 71
3
 72
67
 73
63
 74
0
 42
0.0000001
 43
0.0000001
 44
0.0000000001
 40
0.0
 40
0.0
 40
0.0
 40
0.0
 40
0.0020415993
 40
0.004096174
 40
0.0060907341
 40
0.0079843449
 40
0.0097837491
 40
0.0114656793
 40
0.0130109713
 40
0.0145364531
 40
0.0163749022
 40
0.0186419868
 40
0.021847065
 40
0.0255071785
 40
0.0292320919
 40
0.0327061376
 40
0.0354937315
 40
0.0377522343
 40
0.0398975218
 40
0.0423718255
 40
0.0455102427
 40
0.0487616542
 40
0.0527689856
 40
0.0569055132
 40
0.0616413654
 40
0.0667843164
 40
0.0731819058
 40
0.077859703
 40
0.0839575652
 40
0.0922548629
 40
0.1010688293
 40
0.1070457547
 40
0.1152042386
 40
0.1271949858
 40
0.1404345642
 40
0.151708072
 40
0.168313365
 40
0.1869494005
 40
0.2073058206
 40
0.2311740359
 40
0.2547712189
 40
0.2775359681
 40
0.3046556257
 40
0.3347979835
 40
0.3709861015
 40
0.4106542395
 40
0.452404431
 40
0.494257786
 40
0.536456162
 40
0.5786748227
 40
0.6206241748
 40
0.6620068251
 40
0.7026557438
 40
0.7423127312
 40
0.7807662754
 40
0.8178617501
 40
0.8533361666
 40
0.8870636377
 40
0.9187025022
 40
0.9483239721
 40
0.9752707715
 40
1.0
 40
1.0
 40
1.0
 40
1.0
 10
6.0462595812
 20
20.2074569932
 30
0.0
 10
6.0487086726
 20
20.2061698654
 30
0.0
 10
6.0536182707
 20
20.2035793421
 30
0.0
 10
6.0608402645
 20
20.1995807159
 30
0.0
 10
6.0677311639
 20
20.1954062566
 30
0.0
 10
6.0740635645
 20
20.1909988104
 30
0.0
 10
6.0796191945
 20
20.1862613478
 30
0.0
 10
6.0840859475
 20
20.1810630601
 30
0.0
 10
6.087017922
 20
20.1752221282
 30
0.0
 10
6.087796869
 20
20.1684487332
 30
0.0
 10
6.0855479599
 20
20.1609752262
 30
0.0
 10
6.0800894256
 20
20.1526173303
 30
0.0
 10
6.0714278308
 20
20.1437104682
 30
0.0
 10
6.0604999373
 20
20.1344000855
 30
0.0
 10
6.0489657061
 20
20.1252724993
 30
0.0
 10
6.0384888817
 20
20.1166615601
 30
0.0
 10
6.0309371997
 20
20.1078304657
 30
0.0
 10
6.026217696
 20
20.0992063428
 30
0.0
 10
6.0240177811
 20
20.0900222204
 30
0.0
 10
6.0247403393
 20
20.0793659109
 30
0.0
 10
6.0290164709
 20
20.0680191191
 30
0.0
 10
6.0357992998
 20
20.055659931
 30
0.0
 10
6.0442142393
 20
20.042706213
 30
0.0
 10
6.05000313
 20
20.0258145975
 30
0.0
 10
6.0486305584
 20
20.0066491831
 30
0.0
 10
6.0496167866
 20
19.9846521476
 30
0.0
 10
6.049741319
 20
19.9626577069
 30
0.0
 10
6.0501405975
 20
19.9393917186
 30
0.0
 10
6.0504995845
 20
19.9135459009
 30
0.0
 10
6.0509469035
 20
19.8820971341
 30
0.0
 10
6.0513638343
 20
19.8508112768
 30
0.0
 10
6.0517652252
 20
19.8197135066
 30
0.0
 10
6.0522056943
 20
19.7843107612
 30
0.0
 10
6.0527415596
 20
19.739066305
 30
0.0
 10
6.0532930499
 20
19.6896003464
 30
0.0
 10
6.0538798047
 20
19.633880896
 30
0.0
 10
6.0545020819
 20
19.570848288
 30
0.0
 10
6.055188626
 20
19.4955068133
 30
0.0
 10
6.0558994273
 20
19.4103226555
 30
0.0
 10
6.0565930121
 20
19.3184149313
 30
0.0
 10
6.0572367897
 20
19.2232430654
 30
0.0
 10
6.0578399708
 20
19.1236645821
 30
0.0
 10
6.0584196306
 20
19.0152159706
 30
0.0
 10
6.0589997555
 20
18.888576143
 30
0.0
 10
6.0595384232
 20
18.7449306224
 30
0.0
 10
6.059993579
 20
18.5855541099
 30
0.0
 10
6.0603181158
 20
18.4184998822
 30
0.0
 10
6.060494961
 20
18.2480165203
 30
0.0
 10
6.060519567
 20
18.0768982113
 30
0.0
 10
6.0603909121
 20
17.9056498558
 30
0.0
 10
6.0601091782
 20
17.7355071346
 30
0.0
 10
6.0596759316
 20
17.5674920107
 30
0.0
 10
6.05909378
 20
17.4025839061
 30
0.0
 10
6.0583658774
 20
17.2416458652
 30
0.0
 10
6.0574962135
 20
17.0855241308
 30
0.0
 10
6.0564896104
 20
16.9350714472
 30
0.0
 10
6.0553510238
 20
16.7910245406
 30
0.0
 10
6.0540885468
 20
16.6543736125
 30
0.0
 10
6.0527077079
 20
16.5256560104
 30
0.0
 10
6.0512232917
 20
16.4061291892
 30
0.0
 10
6.04963989
 20
16.295968282
 30
0.0
 10
6.0484722344
 20
16.2259479402
 30
0.0
 10
6.0478636286
 20
16.1924410719
 30
0.0
  0
SPLINE
  5
3B5
100
AcDbEntity
  8
INTFCLR_1
100
AcDbSpline
 62
7
  6
BYLAYER
 70
0
 71
3
 72
48
 73
44
 74
0
 42
0.0000001
 43
0.0000001
 44
0.0000000001
 40
0.0
 40
0.0
 40
0.0
 40
0.0
 40
0.0112409423
 40
0.0221035754
 40
0.0323922572
 40
0.0420958277
 40
0.0514207648
 40
0.0604808825
 40
0.0693623501
 40
0.0781513754
 40
0.0869252844
 40
0.0957555464
 40
0.1047139949
 40
0.1138748501
 40
0.1233138942
 40
0.1331175649
 40
0.1433856169
 40
0.1542331035
 40
0.1657881311
 40
0.1782110267
 40
0.1916889067
 40
0.2064752376
 40
0.2228751144
 40
0.2412788617
 40
0.2621467319
 40
0.2859489085
 40
0.3131256336
 40
0.3441006587
 40
0.379605319
 40
0.4196882852
 40
0.462514134
 40
0.5059788447
 40
0.5498003594
 40
0.59406793
 40
0.6386050167
 40
0.6833534061
 40
0.7282876584
 40
0.773355632
 40
0.8185370084
 40
0.8638038045
 40
0.9091473968
 40
0.9545496569
 40
1.0
 40
1.0
 40
1.0
 40
1.0
 10
6.0478635791
 20
16.1924433032
 30
0.0
 10
6.0547971807
 20
16.1924433032
 30
0.0
 10
6.0684345543
 20
16.1928343105
 30
0.0
 10
6.0883506457
 20
16.1945478649
 30
0.0
 10
6.1072097992
 20
16.1971630939
 30
0.0
 10
6.1249919928
 20
16.2004810541
 30
0.0
 10
6.1418812759
 20
16.2043643914
 30
0.0
 10
6.1581234732
 20
16.2087426152
 30
0.0
 10
6.173892353
 20
16.2135681289
 30
0.0
 10
6.1893386131
 20
16.2188168199
 30
0.0
 10
6.2046017559
 20
16.2244852391
 30
0.0
 10
6.2198097631
 20
16.2305857604
 30
0.0
 10
6.2350852984
 20
16.2371455168
 30
0.0
 10
6.2505495856
 20
16.2442059638
 30
0.0
 10
6.2663277867
 20
16.2518241526
 30
0.0
 10
6.282554421
 20
16.2600752726
 30
0.0
 10
6.2993798954
 20
16.2690570158
 30
0.0
 10
6.3169704268
 20
16.2788914751
 30
0.0
 10
6.3355165429
 20
16.2897324446
 30
0.0
 10
6.3552367232
 20
16.3017717693
 30
0.0
 10
6.3764019074
 20
16.3152605758
 30
0.0
 10
6.3993398741
 20
16.3305225718
 30
0.0
 10
6.4244572653
 20
16.3479831493
 30
0.0
 10
6.4522299189
 20
16.3681832337
 30
0.0
 10
6.4831674676
 20
16.3917786442
 30
0.0
 10
6.517741064
 20
16.419509895
 30
0.0
 10
6.5563271267
 20
16.4521767503
 30
0.0
 10
6.5993287581
 20
16.4907656864
 30
0.0
 10
6.6468432343
 20
16.5362007868
 30
0.0
 10
6.6978571221
 20
16.5884951157
 30
0.0
 10
6.7501969606
 20
16.6462839359
 30
0.0
 10
6.8018034585
 20
16.7077715518
 30
0.0
 10
6.8516121528
 20
16.7718544202
 30
0.0
 10
6.8993745275
 20
16.8382932053
 30
0.0
 10
6.9449363383
 20
16.9069472251
 30
0.0
 10
6.9881185737
 20
16.9776047868
 30
0.0
 10
7.0287962623
 20
17.0501090727
 30
0.0
 10
7.0668656545
 20
17.124316558
 30
0.0
 10
7.1022313201
 20
17.2000764507
 30
0.0
 10
7.1348186403
 20
17.2772568582
 30
0.0
 10
7.1645573691
 20
17.3557248855
 30
0.0
 10
7.1913998457
 20
17.4353488782
 30
0.0
 10
7.2072992146
 20
17.4891014496
 30
0.0
 10
7.214757732
 20
17.5161256165
 30
0.0
  0
SPLINE
  5
3B6
100
AcDbEntity
  8
INTFCLR_1
100
AcDbSpline
 62
7
  6
BYLAYER
 70
0
 71
3
 72
26
 73
22
 74
0
 42
0.0000001
 43
0.0000001
 44
0.0000000001
 40
0.0
 40
0.0
 40
0.0
 40
0.0
 40
0.1000527673
 40
0.192586818
 40
0.2780927927
 40
0.3570622884
 40
0.4299864184
 40
0.4973314464
 40
0.5594301515
 40
0.616570295
 40
0.6690529123
 40
0.717191132
 40
0.7612956255
 40
0.8016453557
 40
0.8384930708
 40
0.8720885333
 40
0.9026793927
 40
0.930512127
 40
0.9558406265
 40
0.9789160996
 40
1.0
 40
1.0
 40
1.0
 40
1.0
 10
6.1256958328
 20
20.1637011698
 30
0.0
 10
6.1233821033
 20
20.1650337202
 30
0.0
 10
6.1189253564
 20
20.1675932159
 30
0.0
 10
6.1124753467
 20
20.1712636765
 30
0.0
 10
6.1065044557
 20
20.1746384322
 30
0.0
 10
6.1009801311
 20
20.1777396895
 30
0.0
 10
6.0958708643
 20
20.1805902083
 30
0.0
 10
6.0911482788
 20
20.1832097147
 30
0.0
 10
6.0867884985
 20
20.1856148928
 30
0.0
 10
6.082771257
 20
20.1878198683
 30
0.0
 10
6.0790765467
 20
20.1898381709
 30
0.0
 10
6.0756836354
 20
20.1916832963
 30
0.0
 10
6.0725721538
 20
20.1933681881
 30
0.0
 10
6.0697229675
 20
20.194904698
 30
0.0
 10
6.0671183646
 20
20.1963038973
 30
0.0
 10
6.0647408754
 20
20.1975755593
 30
0.0
 10
6.062574326
 20
20.1987314851
 30
0.0
 10
6.0605983012
 20
20.1997759298
 30
0.0
 10
6.0588053588
 20
20.2007371285
 30
0.0
 10
6.057144918
 20
20.2015650568
 30
0.0
 10
6.0561438924
 20
20.2021904404
 30
0.0
 10
6.0556448857
 20
20.2024503745
 30
0.0
  0
LINE
  5
3B7
100
AcDbEntity
  8
INTFCLR_1
100
AcDbLine
 62
7
  6
BYLAYER
 10
6.0448299047
 20
20.2069387218
 11
6.0458501292
 21
20.2067517298
  0
SPLINE
  5
3B8
100
AcDbEntity
  8
INTFCLR_1
100
AcDbSpline
 62
7
  6
BYLAYER
 70
0
 71
3
 72
11
 73
7
 74
0
 42
0.0000001
 43
0.0000001
 44
0.0000000001
 40
0.0
 40
0.0
 40
0.0
 40
0.0
 40
0.2217205044
 40
0.4838590534
 40
0.723940402
 40
1.0
 40
1.0
 40
1.0
 40
1.0
 10
6.0458501292
 20
20.2067517298
 30
0.0
 10
6.0466099839
 20
20.2065294702
 30
0.0
 10
6.0482436748
 20
20.2059588086
 30
0.0
 10
6.0506127276
 20
20.204922838
 30
0.0
 10
6.0531400308
 20
20.2037662262
 30
0.0
 10
6.0547755621
 20
20.2029150493
 30
0.0
 10
6.0556448857
 20
20.2024503745
 30
0.0
  0
LINE
  5
3B9
100
AcDbEntity
  8
INTFCLR_1
100
AcDbLine
 62
7
  6
BYLAYER
 10
27.7587749086
 20
20.220057693
 11
27.7593837947
 21
20.2350719303
  0
SPLINE
  5
3BA
100
AcDbEntity
  8
INTFCLR_1
100
AcDbSpline
 62
7
  6
BYLAYER
 70
0
 71
3
 72
22
 73
18
 74
0
 42
0.0000001
 43
0.0000001
 44
0.0000000001
 40
0.0
 40
0.0
 40
0.0
 40
0.0
 40
0.0406993242
 40
0.0864327236
 40
0.136964015
 40
0.1920310318
 40
0.2512857272
 40
0.3144667646
 40
0.381249659
 40
0.4512856856
 40
0.5242112646
 40
0.5996503078
 40
0.6772031878
 40
0.7563587315
 40
0.8368226777
 40
0.9181774299
 40
1.0
 40
1.0
 40
1.0
 40
1.0
 10
27.188293659
 20
20.2080161916
 30
0.0
 10
27.1869632983
 20
20.1799211842
 30
0.0
 10
27.1844334081
 20
20.120242018
 30
0.0
 10
27.1811186389
 20
20.0256463828
 30
0.0
 10
27.178090782
 20
19.9211073457
 30
0.0
 10
27.1753810307
 20
19.807212537
 30
0.0
 10
27.1730171677
 20
19.6845663496
 30
0.0
 10
27.1710246174
 20
19.5538160087
 30
0.0
 10
27.169426352
 20
19.4156089984
 30
0.0
 10
27.16824377
 20
19.2706633383
 30
0.0
 10
27.167496029
 20
19.1197326319
 30
0.0
 10
27.1671999933
 20
18.9636056184
 30
0.0
 10
27.167370025
 20
18.8031730168
 30
0.0
 10
27.1680173436
 20
18.6392689978
 30
0.0
 10
27.1691507974
 20
18.4727401549
 30
0.0
 10
27.1707778384
 20
18.3043721979
 30
0.0
 10
27.172193051
 20
18.1916123105
 30
0.0
 10
27.1729859521
 20
18.1350719309
 30
0.0
  0
LINE
  5
3BB
100
AcDbEntity
  8
INTFCLR_1
100
AcDbLine
 62
7
  6
BYLAYER
 10
27.7587749086
 20
20.2200576926
 11
27.188293659
 21
20.2080161916
  0
SPLINE
  5
3BC
100
AcDbEntity
  8
INTFCLR_1
100
AcDbSpline
 62
7
  6
BYLAYER
 70
0
 71
3
 72
21
 73
17
 74
0
 42
0.0000001
 43
0.0000001
 44
0.0000000001
 40
0.0
 40
0.0
 40
0.0
 40
0.0
 40
0.0841606377
 40
0.1679214137
 40
0.2508780076
 40
0.332629454
 40
0.4126529067
 40
0.4906562726
 40
0.5663007442
 40
0.639216066
 40
0.7090345297
 40
0.7753926802
 40
0.8379405509
 40
0.8964095312
 40
0.95051738
 40
1.0
 40
1.0
 40
1.0
 40
1.0
 10
27.172985952
 20
18.1350719309
 30
0.0
 10
27.1723489646
 20
18.0805722429
 30
0.0
 10
27.1712122009
 20
17.9718301929
 30
0.0
 10
27.1699028929
 20
17.8093637958
 30
0.0
 10
27.1690009531
 20
17.6484548534
 30
0.0
 10
27.1685102141
 20
17.4899644734
 30
0.0
 10
27.1684328234
 20
17.3346811101
 30
0.0
 10
27.1687683319
 20
17.1833530335
 30
0.0
 10
27.1695151753
 20
17.036629776
 30
0.0
 10
27.1706698221
 20
16.8952099408
 30
0.0
 10
27.1722271261
 20
16.7598082536
 30
0.0
 10
27.1741767406
 20
16.6311263887
 30
0.0
 10
27.1765150751
 20
16.5098023618
 30
0.0
 10
27.1792065066
 20
16.3964209209
 30
0.0
 10
27.1823151096
 20
16.291514949
 30
0.0
 10
27.184589046
 20
16.2244667945
 30
0.0
 10
27.1857740774
 20
16.1924431913
 30
0.0
  0
LINE
  5
3BD
100
AcDbEntity
  8
INTFCLR_1
100
AcDbLine
 62
7
  6
BYLAYER
 10
27.1882936587
 20
16.0621276703
 11
27.7587749091
 21
16.0500861685
  0
LINE
  5
3BE
100
AcDbEntity
  8
INTFCLR_1
100
AcDbLine
 62
7
  6
BYLAYER
 10
27.1856251988
 20
16.1924424586
 11
27.1881072003
 21
17.6264824718
  0
LINE
  5
3BF
100
AcDbEntity
  8
INTFCLR_1
100
AcDbLine
 62
7
  6
BYLAYER
 10
27.1881072003
 20
17.6264824718
 11
27.188319705
 21
17.8908091231
  0
SPLINE
  5
3C0
100
AcDbEntity
  8
INTFCLR_1
100
AcDbSpline
 62
7
  6
BYLAYER
 70
0
 71
3
 72
11
 73
7
 74
0
 42
0.0000001
 43
0.0000001
 44
0.0000000001
 40
0.0
 40
0.0
 40
0.0
 40
0.0
 40
0.2760906168
 40
0.5149679432
 40
0.7763487713
 40
1.0
 40
1.0
 40
1.0
 40
1.0
 10
27.1778605795
 20
20.2024521153
 30
0.0
 10
27.1787268705
 20
20.2029118813
 30
0.0
 10
27.1803519091
 20
20.2037532703
 30
0.0
 10
27.1828572517
 20
20.2049066869
 30
0.0
 10
27.1852129584
 20
20.2059396288
 30
0.0
 10
27.1868400386
 20
20.2065139914
 30
0.0
 10
27.1876011114
 20
20.2067418846
 30
0.0
  0
LINE
  5
3C1
100
AcDbEntity
  8
INTFCLR_1
100
AcDbLine
 62
7
  6
BYLAYER
 10
27.1876011114
 20
20.2067418846
 11
27.1886588747
 21
20.206938668
  0
SPLINE
  5
3C2
100
AcDbEntity
  8
INTFCLR_1
100
AcDbSpline
 62
7
  6
BYLAYER
 70
0
 71
3
 72
26
 73
22
 74
0
 42
0.0000001
 43
0.0000001
 44
0.0000000001
 40
0.0
 40
0.0
 40
0.0
 40
0.0
 40
0.0210770733
 40
0.0441664485
 40
0.0695226162
 40
0.0973927304
 40
0.1280261011
 40
0.1616647657
 40
0.1985521915
 40
0.2389339948
 40
0.2830595312
 40
0.3312108218
 40
0.3837013883
 40
0.4408462049
 40
0.5029433457
 40
0.5702749199
 40
0.6431742256
 40
0.722107917
 40
0.8075643806
 40
0.9000324497
 40
1.0
 40
1.0
 40
1.0
 40
1.0
 10
27.1778605795
 20
20.2024521153
 30
0.0
 10
27.1773622807
 20
20.2021925737
 30
0.0
 10
27.1763576715
 20
20.2015757997
 30
0.0
 10
27.1747002187
 20
20.2007449141
 30
0.0
 10
27.172906794
 20
20.1997848997
 30
0.0
 10
27.1709306093
 20
20.1987399774
 30
0.0
 10
27.1687635081
 20
20.1975839241
 30
0.0
 10
27.1663857254
 20
20.1963120965
 30
0.0
 10
27.163781307
 20
20.194913041
 30
0.0
 10
27.1609331063
 20
20.1933770928
 30
0.0
 10
27.1578235251
 20
20.1916932699
 30
0.0
 10
27.1544333917
 20
20.1898497012
 30
0.0
 10
27.1507421748
 20
20.1878333645
 30
0.0
 10
27.1467291229
 20
20.1856307601
 30
0.0
 10
27.1423744061
 20
20.1832284653
 30
0.0
 10
27.1376579654
 20
20.1806124812
 30
0.0
 10
27.1325560571
 20
20.1777662128
 30
0.0
 10
27.127040371
 20
20.1746699919
 30
0.0
 10
27.1210795478
 20
20.1713011585
 30
0.0
 10
27.1146412393
 20
20.1676376796
 30
0.0
 10
27.1101928733
 20
20.1650831877
 30
0.0
 10
27.1078836316
 20
20.1637533604
 30
0.0
  0
SPLINE
  5
3C3
100
AcDbEntity
  8
INTFCLR_1
100
AcDbSpline
 62
7
  6
BYLAYER
 70
0
 71
3
 72
48
 73
44
 74
0
 42
0.0000001
 43
0.0000001
 44
0.0000000001
 40
0.0
 40
0.0
 40
0.0
 40
0.0
 40
0.0454211186
 40
0.0907972824
 40
0.1361091061
 40
0.1813495777
 40
0.2264993545
 40
0.2715386767
 40
0.3164444702
 40
0.3611647892
 40
0.4056691297
 40
0.449903454
 40
0.4937390871
 40
0.5370807545
 40
0.5799450733
 40
0.6202985769
 40
0.6559068899
 40
0.6870027384
 40
0.7144069783
 40
0.7384475684
 40
0.7595240547
 40
0.7780942649
 40
0.7946150581
 40
0.8094788211
 40
0.8230054165
 40
0.8354435486
 40
0.8469990364
 40
0.857827644
 40
0.8680706912
 40
0.8778392176
 40
0.8872351459
 40
0.8963417855
 40
0.9052392688
 40
0.9140014261
 40
0.9227013922
 40
0.9314095318
 40
0.9402036711
 40
0.949168255
 40
0.9583879136
 40
0.967980326
 40
0.9781311542
 40
0.9888432262
 40
1.0
 40
1.0
 40
1.0
 40
1.0
 10
26.018726763
 20
17.5161252085
 30
0.0
 10
26.026180479
 20
17.4891184025
 30
0.0
 10
26.0420754465
 20
17.4354001168
 30
0.0
 10
26.0688955982
 20
17.3558253757
 30
0.0
 10
26.0986119529
 20
17.2774043497
 30
0.0
 10
26.1311712028
 20
17.2002721584
 30
0.0
 10
26.1665062389
 20
17.1245568931
 30
0.0
 10
26.204540854
 20
17.0503930645
 30
0.0
 10
26.2451815226
 20
16.9779282507
 30
0.0
 10
26.2883222998
 20
16.9073098873
 30
0.0
 10
26.3338378242
 20
16.8386947871
 30
0.0
 10
26.3815658091
 20
16.7722706965
 30
0.0
 10
26.4313048867
 20
16.7082447317
 30
0.0
 10
26.4828651035
 20
16.6467751449
 30
0.0
 10
26.5352622653
 20
16.5888833784
 30
0.0
 10
26.5864430322
 20
16.5363957946
 30
0.0
 10
26.6341763574
 20
16.4907475503
 30
0.0
 10
26.6773880953
 20
16.4519751121
 30
0.0
 10
26.716258508
 20
16.4190837197
 30
0.0
 10
26.751170871
 20
16.3911095756
 30
0.0
 10
26.782428047
 20
16.3673090406
 30
0.0
 10
26.8104696486
 20
16.3469584541
 30
0.0
 10
26.8357947553
 20
16.3294023544
 30
0.0
 10
26.8588829935
 20
16.3140910516
 30
0.0
 10
26.8801449967
 20
16.3005918776
 30
0.0
 10
26.8999218871
 20
16.2885692053
 30
0.0
 10
26.9184884331
 20
16.2777671036
 30
0.0
 10
26.9360769678
 20
16.2679840082
 30
0.0
 10
26.9528800588
 20
16.2590639071
 30
0.0
 10
26.9690698091
 20
16.2508808564
 30
0.0
 10
26.9847935727
 20
16.2433379474
 30
0.0
 10
27.0001873823
 20
16.2363583449
 30
0.0
 10
27.0153764867
 20
16.22988397
 30
0.0
 10
27.0304847371
 20
16.2238712754
 30
0.0
 10
27.0456343183
 20
16.2182922486
 30
0.0
 10
27.0609532047
 20
16.2131332142
 30
0.0
 10
27.0765790496
 20
16.2083965701
 30
0.0
 10
27.0926603635
 20
16.2041048158
 30
0.0
 10
27.1093706983
 20
16.200302625
 30
0.0
 10
27.126944261
 20
16.1970588998
 30
0.0
 10
27.1455628058
 20
16.1945053156
 30
0.0
 10
27.1652508844
 20
16.1928259425
 30
0.0
 10
27.1787435166
 20
16.1924460082
 30
0.0
 10
27.185625205
 20
16.1924460082
 30
0.0
  0
SPLINE
  5
3C4
100
AcDbEntity
  8
INTFCLR_1
100
AcDbSpline
 62
7
  6
BYLAYER
 70
0
 71
3
 72
21
 73
17
 74
0
 42
0.0000001
 43
0.0000001
 44
0.0000000001
 40
0.0
 40
0.0
 40
0.0
 40
0.0
 40
0.0501764504
 40
0.1056255076
 40
0.1636355855
 40
0.2246758201
 40
0.290932043
 40
0.3586694974
 40
0.4307303234
 40
0.5072158662
 40
0.5839670348
 40
0.6639690004
 40
0.7467252489
 40
0.829648599
 40
0.9142610269
 40
1.0
 40
1.0
 40
1.0
 40
1.0
 10
27.1856251139
 20
16.1924430966
 30
0.0
 10
27.1850350313
 20
16.2249302643
 30
0.0
 10
27.1838915529
 20
16.2933202015
 30
0.0
 10
27.1823603211
 20
16.3992739274
 30
0.0
 10
27.1809413154
 20
16.5122648053
 30
0.0
 10
27.1796271328
 20
16.6322557277
 30
0.0
 10
27.1784245739
 20
16.7585472284
 30
0.0
 10
27.1773247144
 20
16.8919764655
 30
0.0
 10
27.1763332179
 20
17.0320308761
 30
0.0
 10
27.1754603349
 20
17.1779231515
 30
0.0
 10
27.1747106625
 20
17.3289585797
 30
0.0
 10
27.1740896056
 20
17.4840553153
 30
0.0
 10
27.1736004708
 20
17.6431494321
 30
0.0
 10
27.1732475901
 20
17.8052294906
 30
0.0
 10
27.1730338701
 20
17.9692413015
 30
0.0
 10
27.1729859792
 20
18.0795549571
 30
0.0
 10
27.1729859739
 20
18.1350765376
 30
0.0
  0
SPLINE
  5
3C5
100
AcDbEntity
  8
INTFCLR_1
100
AcDbSpline
 62
7
  6
BYLAYER
 70
0
 71
3
 72
56
 73
52
 74
0
 42
0.0000001
 43
0.0000001
 44
0.0000000001
 40
0.0
 40
0.0
 40
0.0
 40
0.0
 40
0.0845121346
 40
0.1669288171
 40
0.2445995254
 40
0.316873848
 40
0.3964932861
 40
0.4588938201
 40
0.5058913077
 40
0.5574748551
 40
0.6012702542
 40
0.6324192293
 40
0.6620875376
 40
0.6935192768
 40
0.7261619483
 40
0.7503159139
 40
0.7781538061
 40
0.798217813
 40
0.8125737282
 40
0.8289274874
 40
0.841207589
 40
0.8533129995
 40
0.8654619711
 40
0.8746048017
 40
0.8837438867
 40
0.8921807872
 40
0.8985302433
 40
0.9049467019
 40
0.9115979112
 40
0.9167461727
 40
0.9209358644
 40
0.9255477129
 40
0.9291504925
 40
0.9326316599
 40
0.9361645397
 40
0.9398607224
 40
0.9438650043
 40
0.9480509306
 40
0.9526896807
 40
0.9578151525
 40
0.9632852464
 40
0.9689267506
 40
0.9727445822
 40
0.9754190935
 40
0.9774730491
 40
0.9807421816
 40
0.9841030898
 40
0.987783744
 40
0.9918293521
 40
0.9960250816
 40
1.0
 40
1.0
 40
1.0
 40
1.0
 10
27.1729859739
 20
18.1350765376
 30
0.0
 10
27.1729859679
 20
18.1948272274
 30
0.0
 10
27.1730410717
 20
18.3128471148
 30
0.0
 10
27.1732827453
 20
18.4857806014
 30
0.0
 10
27.1736627744
 20
18.6500615952
 30
0.0
 10
27.1741832665
 20
18.8123645189
 30
0.0
 10
27.1748137351
 20
18.9638708504
 30
0.0
 10
27.175498754
 20
19.0975058219
 30
0.0
 10
27.1761736308
 20
19.2113189626
 30
0.0
 10
27.1768486035
 20
19.3119778797
 30
0.0
 10
27.1775217376
 20
19.4014315114
 30
0.0
 10
27.1781302196
 20
19.4753909351
 30
0.0
 10
27.1787066173
 20
19.5406091177
 30
0.0
 10
27.1793360379
 20
19.6068829139
 30
0.0
 10
27.1799753217
 20
19.6692577447
 30
0.0
 10
27.1806325127
 20
19.7290913629
 30
0.0
 10
27.1812291379
 20
19.7800318931
 30
0.0
 10
27.1817772174
 20
19.824045206
 30
0.0
 10
27.1822450959
 20
19.8599395239
 30
0.0
 10
27.1826573251
 20
19.8903307902
 30
0.0
 10
27.1830655983
 20
19.9191309232
 30
0.0
 10
27.1834386409
 20
19.9449581443
 30
0.0
 10
27.1838125241
 20
19.9685680614
 30
0.0
 10
27.184109503
 20
19.9900785928
 30
0.0
 10
27.1845073281
 20
20.0089729217
 30
0.0
 10
27.1845404697
 20
20.0258648899
 30
0.0
 10
27.1848943166
 20
20.0409206471
 30
0.0
 10
27.1892124463
 20
20.0542203427
 30
0.0
 10
27.196529993
 20
20.0648759648
 30
0.0
 10
27.2022388856
 20
20.0746410365
 30
0.0
 10
27.2063116702
 20
20.0836470795
 30
0.0
 10
27.2083097791
 20
20.0923128039
 30
0.0
 10
27.2076788401
 20
20.1006648796
 30
0.0
 10
27.205166535
 20
20.1078167708
 30
0.0
 10
27.2010996907
 20
20.1142645804
 30
0.0
 10
27.1957627601
 20
20.1201761143
 30
0.0
 10
27.1895464088
 20
20.125844003
 30
0.0
 10
27.1824232145
 20
20.1314640455
 30
0.0
 10
27.1745943392
 20
20.1374621251
 30
0.0
 10
27.1662938069
 20
20.1443322385
 30
0.0
 10
27.1578421685
 20
20.1521116586
 30
0.0
 10
27.1511059611
 20
20.1603462723
 30
0.0
 10
27.1477547809
 20
20.1684626142
 30
0.0
 10
27.1478462867
 20
20.1746430687
 30
0.0
 10
27.149681156
 20
20.1800523761
 30
0.0
 10
27.1532799624
 20
20.1851328447
 30
0.0
 10
27.1585865883
 20
20.190159055
 30
0.0
 10
27.1649218226
 20
20.1948004399
 30
0.0
 10
27.1720846517
 20
20.1992511385
 30
0.0
 10
27.1796327524
 20
20.2034531725
 30
0.0
 10
27.1847415298
 20
20.2061496027
 30
0.0
 10
27.1872291981
 20
20.2074569932
 30
0.0
  0
SPLINE
  5
3C6
100
AcDbEntity
  8
INTFCLR_1
100
AcDbSpline
 62
7
  6
BYLAYER
 70
0
 71
3
 72
11
 73
7
 74
0
 42
0.0000001
 43
0.0000001
 44
0.0000000001
 40
0.0
 40
0.0
 40
0.0
 40
0.0
 40
0.2425624447
 40
0.3899341895
 40
0.7213939688
 40
1.0
 40
1.0
 40
1.0
 40
1.0
 10
27.1872291981
 20
20.2074569932
 30
0.0
 10
27.1871559006
 20
20.2074178297
 30
0.0
 10
27.1870075019
 20
20.2073596118
 30
0.0
 10
27.1870133801
 20
20.2070691086
 30
0.0
 10
27.1873074334
 20
20.2069720684
 30
0.0
 10
27.1874908132
 20
20.2068966198
 30
0.0
 10
27.187573338
 20
20.2068486516
 30
0.0
  0
SPLINE
  5
3C7
100
AcDbEntity
  8
INTFCLR_1
100
AcDbSpline
 62
7
  6
BYLAYER
 70
0
 71
3
 72
14
 73
10
 74
0
 42
0.0000001
 43
0.0000001
 44
0.0000000001
 40
0.0
 40
0.0
 40
0.0
 40
0.0
 40
0.1162999209
 40
0.2662890213
 40
0.3904968919
 40
0.5009472708
 40
0.645001807
 40
0.8145840053
 40
1.0
 40
1.0
 40
1.0
 40
1.0
 10
27.187573338
 20
20.2068486516
 30
0.0
 10
27.1871701772
 20
20.2067550674
 30
0.0
 10
27.1862665286
 20
20.2064590885
 30
0.0
 10
27.1849901851
 20
20.2059100274
 30
0.0
 10
27.1837275195
 20
20.2053801988
 30
0.0
 10
27.1825185421
 20
20.2047835472
 30
0.0
 10
27.1811743239
 20
20.2040976786
 30
0.0
 10
27.1795907806
 20
20.2032934819
 30
0.0
 10
27.1784697548
 20
20.2027109385
 30
0.0
 10
27.1778850296
 20
20.2024051731
 30
0.0
  0
LINE
  5
3C8
100
AcDbEntity
  8
INTFCLR_1
100
AcDbLine
 62
7
  6
BYLAYER
 10
27.7593837952
 20
16.0350719317
 11
27.7587749091
 21
16.0500861682
  0
SPLINE
  5
3C9
100
AcDbEntity
  8
INTFCLR_1
100
AcDbSpline
 62
7
  6
BYLAYER
 70
0
 71
3
 72
23
 73
19
 74
0
 42
0.0000001
 43
0.0000001
 44
0.0000000001
 40
0.0
 40
0.0
 40
0.0
 40
0.0
 40
0.0367036404
 40
0.0780506349
 40
0.1238470999
 40
0.1738664161
 40
0.2279404111
 40
0.2857620884
 40
0.3470201566
 40
0.4114124346
 40
0.4786250401
 40
0.5483446629
 40
0.620251653
 40
0.693980804
 40
0.7691188523
 40
0.8454140141
 40
0.9225037063
 40
1.0
 40
1.0
 40
1.0
 40
1.0
 10
27.9686135416
 20
20.2350719309
 30
0.0
 10
27.9679772565
 20
20.2093865685
 30
0.0
 10
27.966747543
 20
20.1547633305
 30
0.0
 10
27.9650814045
 20
20.0680839228
 30
0.0
 10
27.9634901381
 20
19.9720804767
 30
0.0
 10
27.961981543
 20
19.8671655755
 30
0.0
 10
27.9605635189
 20
19.7538308355
 30
0.0
 10
27.959243612
 20
19.6326270833
 30
0.0
 10
27.9580291193
 20
19.5041989008
 30
0.0
 10
27.9569262296
 20
19.369195659
 30
0.0
 10
27.9559402417
 20
19.2282681173
 30
0.0
 10
27.9550757981
 20
19.0820792448
 30
0.0
 10
27.9543370783
 20
18.9313279237
 30
0.0
 10
27.9537278438
 20
18.7767829948
 30
0.0
 10
27.9532508395
 20
18.6191657852
 30
0.0
 10
27.9529082338
 20
18.4591957788
 30
0.0
 10
27.9527017853
 20
18.2975747229
 30
0.0
 10
27.9526556364
 20
18.1893616042
 30
0.0
 10
27.9526556364
 20
18.1351127333
 30
0.0
  0
SPLINE
  5
3CA
100
AcDbEntity
  8
INTFCLR_1
100
AcDbSpline
 62
7
  6
BYLAYER
 70
0
 71
3
 72
23
 73
19
 74
0
 42
0.0000001
 43
0.0000001
 44
0.0000000001
 40
0.0
 40
0.0
 40
0.0
 40
0.0
 40
0.0775064472
 40
0.1546129066
 40
0.2309599238
 40
0.3061738595
 40
0.3799912816
 40
0.4519794683
 40
0.5217528392
 40
0.5889742276
 40
0.6533228131
 40
0.7145033864
 40
0.7722363808
 40
0.8262294663
 40
0.8761884104
 40
0.9219485896
 40
0.9632840603
 40
1.0
 40
1.0
 40
1.0
 40
1.0
 10
27.9526556364
 20
18.1351127333
 30
0.0
 10
27.9526556364
 20
18.0808546463
 30
0.0
 10
27.9527017595
 20
17.9726184768
 30
0.0
 10
27.9529082431
 20
17.8109359935
 30
0.0
 10
27.9532511092
 20
17.6508586075
 30
0.0
 10
27.9537287464
 20
17.4930840544
 30
0.0
 10
27.9543390124
 20
17.3383613628
 30
0.0
 10
27.9550790562
 20
17.1874479266
 30
0.0
 10
27.9559448475
 20
17.0411527632
 30
0.0
 10
27.9569318233
 20
16.9002065636
 30
0.0
 10
27.9580350145
 20
16.7652767689
 30
0.0
 10
27.9592490021
 20
16.636990516
 30
0.0
 10
27.9605677637
 20
16.5159550238
 30
0.0
 10
27.9619843162
 20
16.4027768591
 30
0.0
 10
27.9634914597
 20
16.2979821778
 30
0.0
 10
27.9650816298
 20
16.2020507247
 30
0.0
 10
27.9667473236
 20
16.1153928025
 30
0.0
 10
27.9679770885
 20
16.0607668989
 30
0.0
 10
27.9686136116
 20
16.0350719309
 30
0.0
  0
SPLINE
  5
3CB
100
AcDbEntity
  8
INTFCLR_1
100
AcDbSpline
 62
7
  6
BYLAYER
 70
0
 71
3
 72
39
 73
35
 74
0
 42
0.0000001
 43
0.0000001
 44
0.0000000001
 40
0.0
 40
0.0
 40
0.0
 40
0.0
 40
0.0176299729
 40
0.0377142242
 40
0.0601416722
 40
0.084782301
 40
0.1115602037
 40
0.1403088252
 40
0.1708762057
 40
0.2030763022
 40
0.2368003624
 40
0.2718711625
 40
0.3080961222
 40
0.3452855483
 40
0.3832871774
 40
0.421898834
 40
0.460893201
 40
0.5000705881
 40
0.5392327292
 40
0.5781896676
 40
0.6167544036
 40
0.6547119913
 40
0.6918675491
 40
0.7280701582
 40
0.7631321142
 40
0.7968637739
 40
0.8290807451
 40
0.8596566412
 40
0.8884056925
 40
0.9151816324
 40
0.9398223385
 40
0.9622550487
 40
0.9823513723
 40
1.0
 40
1.0
 40
1.0
 40
1.0
 10
27.1878312837
 20
15.7350719322
 30
0.0
 10
27.1870821833
 20
15.7632713523
 30
0.0
 10
27.18563671
 20
15.8236000408
 30
0.0
 10
27.1836850278
 20
15.9198118812
 30
0.0
 10
27.1818178043
 20
16.0272448854
 30
0.0
 10
27.1800452742
 20
16.1453911583
 30
0.0
 10
27.1783774184
 20
16.2736542506
 30
0.0
 10
27.1768232727
 20
16.411402682
 30
0.0
 10
27.1753922758
 20
16.5578288227
 30
0.0
 10
27.174091416
 20
16.7122175682
 30
0.0
 10
27.1729271935
 20
16.8738134269
 30
0.0
 10
27.1719054222
 20
17.0418504723
 30
0.0
 10
27.1710317413
 20
17.2154332855
 30
0.0
 10
27.170310547
 20
17.3937063972
 30
0.0
 10
27.1697455563
 20
17.5757989957
 30
0.0
 10
27.1693399015
 20
17.7607800746
 30
0.0
 10
27.1690958556
 20
17.9476427451
 30
0.0
 10
27.1690146042
 20
18.1353863763
 30
0.0
 10
27.1690963862
 20
18.3230701185
 30
0.0
 10
27.1693406761
 20
18.5097734283
 30
0.0
 10
27.1697461616
 20
18.6945490718
 30
0.0
 10
27.1703106218
 20
18.8764419325
 30
0.0
 10
27.1710310804
 20
19.0545546214
 30
0.0
 10
27.1719040088
 20
19.2280333307
 30
0.0
 10
27.1729252249
 20
19.3960326245
 30
0.0
 10
27.1740892698
 20
19.5576534945
 30
0.0
 10
27.1753902554
 20
19.7120950273
 30
0.0
 10
27.1768213898
 20
19.858562483
 30
0.0
 10
27.1783753979
 20
19.9963220893
 30
0.0
 10
27.1800429153
 20
20.1245828567
 30
0.0
 10
27.1818151543
 20
20.2427345374
 30
0.0
 10
27.1836824431
 20
20.350195405
 30
0.0
 10
27.1856348986
 20
20.4464648273
 30
0.0
 10
27.1870813922
 20
20.5068426719
 30
0.0
 10
27.1878312852
 20
20.5350719304
 30
0.0
  0
SPLINE
  5
3CC
100
AcDbEntity
  8
INTFCLR_1
100
AcDbSpline
 62
7
  6
BYLAYER
 70
0
 71
3
 72
43
 73
39
 74
0
 42
0.0000001
 43
0.0000001
 44
0.0000000001
 40
0.0
 40
0.0
 40
0.0
 40
0.0
 40
0.0019625213
 40
0.0076741157
 40
0.0171183238
 40
0.0302249639
 40
0.0469484648
 40
0.0670989863
 40
0.0905178388
 40
0.1170396691
 40
0.1464920398
 40
0.1786574584
 40
0.2132377766
 40
0.2500578534
 40
0.2887398487
 40
0.3290779035
 40
0.3707330566
 40
0.4134058648
 40
0.4566613872
 40
0.5001719655
 40
0.5437531718
 40
0.5869749115
 40
0.629478319
 40
0.670992581
 40
0.7112993959
 40
0.7499135918
 40
0.7866221825
 40
0.8212142397
 40
0.853395213
 40
0.8828743117
 40
0.9094207296
 40
0.9329211051
 40
0.9530828073
 40
0.969767581
 40
0.9828636916
 40
0.9923165683
 40
0.9980306416
 40
1.0
 40
1.0
 40
1.0
 40
1.0
 10
3.5721866208
 20
16.8350719309
 30
0.0
 10
3.5717297996
 20
16.8336945482
 30
0.0
 10
3.5703762236
 20
16.8282334727
 30
0.0
 10
3.57010681
 20
16.8155833123
 30
0.0
 10
3.568904257
 20
16.7949380121
 30
0.0
 10
3.5681957324
 20
16.7661127911
 30
0.0
 10
3.5673338005
 20
16.7294719585
 30
0.0
 10
3.5665977694
 20
16.6852493261
 30
0.0
 10
3.5658910123
 20
16.6338433664
 30
0.0
 10
3.5652495797
 20
16.5756115002
 30
0.0
 10
3.5646629199
 20
16.5109637049
 30
0.0
 10
3.5641357544
 20
16.4404041398
 30
0.0
 10
3.5636673729
 20
16.3644398838
 30
0.0
 10
3.5632589473
 20
16.2836952853
 30
0.0
 10
3.5629104905
 20
16.1987270665
 30
0.0
 10
3.562622584
 20
16.1102120655
 30
0.0
 10
3.5623954367
 20
16.0187696122
 30
0.0
 10
3.5622296228
 20
15.9251870572
 30
0.0
 10
3.5621253783
 20
15.8302434556
 30
0.0
 10
3.5620827424
 20
15.7346334951
 30
0.0
 10
3.5621018519
 20
15.6390483065
 30
0.0
 10
3.5621829378
 20
15.544201912
 30
0.0
 10
3.5623260452
 20
15.4508716989
 30
0.0
 10
3.5625314218
 20
15.3596797087
 30
0.0
 10
3.5627992475
 20
15.2713406345
 30
0.0
 10
3.5631296669
 20
15.1865267651
 30
0.0
 10
3.5635225551
 20
15.1059049857
 30
0.0
 10
3.5639785402
 20
15.0300024107
 30
0.0
 10
3.5644974661
 20
14.9594031537
 30
0.0
 10
3.5650800128
 20
14.8947062783
 30
0.0
 10
3.5657222807
 20
14.83637694
 30
0.0
 10
3.5664352871
 20
14.7848851266
 30
0.0
 10
3.5671816605
 20
14.7406227553
 30
0.0
 10
3.5680607258
 20
14.70401105
 30
0.0
 10
3.5687844782
 20
14.6752138982
 30
0.0
 10
3.5700251247
 20
14.6545745474
 30
0.0
 10
3.570303179
 20
14.6419034401
 30
0.0
 10
3.5717102483
 20
14.636449087
 30
0.0
 10
3.5721866208
 20
14.6350719309
 30
0.0
  0
SPLINE
  5
3CD
100
AcDbEntity
  8
INTFCLR_1
100
AcDbSpline
 62
7
  6
BYLAYER
 70
0
 71
3
 72
43
 73
39
 74
0
 42
0.0000001
 43
0.0000001
 44
0.0000000001
 40
0.0
 40
0.0
 40
0.0
 40
0.0
 40
0.0019637903
 40
0.007680199
 40
0.0171249012
 40
0.0302376099
 40
0.0469849879
 40
0.0671418227
 40
0.090545481
 40
0.1170655252
 40
0.1465522153
 40
0.178734977
 40
0.213293946
 40
0.2501410819
 40
0.2888534102
 40
0.3291992938
 40
0.3708223652
 40
0.4135536038
 40
0.456820202
 40
0.5002876083
 40
0.5438387234
 40
0.5870597207
 40
0.6295017102
 40
0.6708956234
 40
0.7112238739
 40
0.7498392535
 40
0.7865300258
 40
0.8211181728
 40
0.8533465347
 40
0.8828557389
 40
0.9093954534
 40
0.9329347335
 40
0.9531116321
 40
0.9697861598
 40
0.9828738075
 40
0.9923242419
 40
0.9980319272
 40
1.0
 40
1.0
 40
1.0
 40
1.0
 10
5.572574871
 20
14.6350719309
 30
0.0
 10
5.5721271038
 20
14.636452744
 30
0.0
 10
5.5707999278
 20
14.641924978
 30
0.0
 10
5.5705342937
 20
14.6545759532
 30
0.0
 10
5.5693517046
 20
14.6752328238
 30
0.0
 10
5.5686509761
 20
14.7040793617
 30
0.0
 10
5.5677980828
 20
14.7407472741
 30
0.0
 10
5.5670672593
 20
14.7849806581
 30
0.0
 10
5.5663637058
 20
14.8363786857
 30
0.0
 10
5.5657224006
 20
14.8946230231
 30
0.0
 10
5.5651333512
 20
14.9593071318
 30
0.0
 10
5.564601701
 20
15.0298886177
 30
0.0
 10
5.564126742
 20
15.1058694428
 30
0.0
 10
5.5637097346
 20
15.1866401163
 30
0.0
 10
5.5633508699
 20
15.2716557962
 30
0.0
 10
5.5630511286
 20
15.3601748684
 30
0.0
 10
5.562810615
 20
15.4516419959
 30
0.0
 10
5.562630197
 20
15.5452516056
 30
0.0
 10
5.562510341
 20
15.6402141303
 30
0.0
 10
5.56245125
 20
15.7357780905
 30
0.0
 10
5.5624531219
 20
15.8313086208
 30
0.0
 10
5.5625164121
 20
15.9260869884
 30
0.0
 10
5.5626412267
 20
16.0192829891
 30
0.0
 10
5.5628280212
 20
16.1103570565
 30
0.0
 10
5.5630772891
 20
16.1986241519
 30
0.0
 10
5.5633896609
 20
16.2834412765
 30
0.0
 10
5.5637649012
 20
16.3640477521
 30
0.0
 10
5.5642040635
 20
16.4399689486
 30
0.0
 10
5.5647073836
 20
16.5106220156
 30
0.0
 10
5.5652756451
 20
16.5753706884
 30
0.0
 10
5.5659050884
 20
16.6337456453
 30
0.0
 10
5.5666069416
 20
16.6852721639
 30
0.0
 10
5.5673441792
 20
16.7295667267
 30
0.0
 10
5.5682160663
 20
16.7661757905
 30
0.0
 10
5.5689337836
 20
16.7949576918
 30
0.0
 10
5.5701725347
 20
16.8155839038
 30
0.0
 10
5.5704480667
 20
16.8282484245
 30
0.0
 10
5.5718581505
 20
16.8336961366
 30
0.0
 10
5.5723358918
 20
16.8350719309
 30
0.0
  0
SPLINE
  5
3CE
100
AcDbEntity
  8
INTFCLR_1
100
AcDbSpline
 62
7
  6
BYLAYER
 70
0
 71
3
 72
43
 73
39
 74
0
 42
0.0000001
 43
0.0000001
 44
0.0000000001
 40
0.0
 40
0.0
 40
0.0
 40
0.0
 40
0.0019602446
 40
0.007667868
 40
0.0171148462
 40
0.0302164979
 40
0.0469217713
 40
0.0670837374
 40
0.0905444534
 40
0.1170699456
 40
0.1465058363
 40
0.1786633097
 40
0.2132715141
 40
0.2500492112
 40
0.2887164734
 40
0.3290529451
 40
0.3706784299
 40
0.4132731505
 40
0.4565175097
 40
0.500084221
 40
0.5436346568
 40
0.5868528486
 40
0.6294152907
 40
0.670999428
 40
0.7112880585
 40
0.7499168582
 40
0.7866683758
 40
0.8212544635
 40
0.8534111922
 40
0.8828716901
 40
0.9094233103
 40
0.9328885778
 40
0.9530495849
 40
0.9697558767
 40
0.9828607614
 40
0.9923158225
 40
0.9980348885
 40
1.0
 40
1.0
 40
1.0
 40
1.0
 10
5.5723358918
 20
16.8350719309
 30
0.0
 10
5.5727937904
 20
16.833696593
 30
0.0
 10
5.5741508323
 20
16.8282411853
 30
0.0
 10
5.5744181142
 20
16.815592812
 30
0.0
 10
5.5756204664
 20
16.7949527571
 30
0.0
 10
5.5763246036
 20
16.766142525
 30
0.0
 10
5.5771816435
 20
16.7295107078
 30
0.0
 10
5.5779115296
 20
16.6852626954
 30
0.0
 10
5.5786109419
 20
16.6338154326
 30
0.0
 10
5.5792435309
 20
16.5755628109
 30
0.0
 10
5.5798202242
 20
16.5109308802
 30
0.0
 10
5.580337022
 20
16.4403694884
 30
0.0
 10
5.58079452
 20
16.3644224745
 30
0.0
 10
5.5811919435
 20
16.2837001616
 30
0.0
 10
5.5815294477
 20
16.198775902
 30
0.0
 10
5.5818067993
 20
16.1102955865
 30
0.0
 10
5.5820238609
 20
16.0189343308
 30
0.0
 10
5.582180492
 20
15.9254400328
 30
0.0
 10
5.5822767304
 20
15.830521776
 30
0.0
 10
5.5823126163
 20
15.7349024666
 30
0.0
 10
5.5822882023
 20
15.6393023472
 30
0.0
 10
5.5822035333
 20
15.5444388871
 30
0.0
 10
5.5820586304
 20
15.4510177682
 30
0.0
 10
5.5818535167
 20
15.3597455806
 30
0.0
 10
5.5815883673
 20
15.2713588596
 30
0.0
 10
5.5812633103
 20
15.1865170579
 30
0.0
 10
5.5808785583
 20
15.1058583218
 30
0.0
 10
5.5804339116
 20
15.0299472034
 30
0.0
 10
5.5799300269
 20
14.9593844395
 30
0.0
 10
5.5793662024
 20
14.894715723
 30
0.0
 10
5.5787465434
 20
14.8364224217
 30
0.0
 10
5.5780605814
 20
14.7849531375
 30
0.0
 10
5.5773443077
 20
14.7407016444
 30
0.0
 10
5.5765024145
 20
14.7040667385
 30
0.0
 10
5.5758105269
 20
14.6752479978
 30
0.0
 10
5.574627079
 20
14.6545885493
 30
0.0
 10
5.5743651329
 20
14.6419250767
 30
0.0
 10
5.5730267515
 20
14.636452667
 30
0.0
 10
5.572574871
 20
14.6350719309
 30
0.0
  0
SPLINE
  5
3CF
100
AcDbEntity
  8
INTFCLR_1
100
AcDbSpline
 62
7
  6
BYLAYER
 70
0
 71
3
 72
43
 73
39
 74
0
 42
0.0000001
 43
0.0000001
 44
0.0000000001
 40
0.0
 40
0.0
 40
0.0
 40
0.0
 40
0.0019625197
 40
0.0076741247
 40
0.0171183286
 40
0.0302249835
 40
0.0469485459
 40
0.0670990625
 40
0.0905178363
 40
0.1170396569
 40
0.1464921076
 40
0.1786575768
 40
0.2132377846
 40
0.250057993
 40
0.2887400512
 40
0.3290781415
 40
0.3707332962
 40
0.4134063174
 40
0.456661881
 40
0.5001723169
 40
0.543753503
 40
0.5869752404
 40
0.6294784675
 40
0.6709924349
 40
0.711299308
 40
0.7499134859
 40
0.7866219908
 40
0.8212140433
 40
0.8533951222
 40
0.8828742987
 40
0.9094206878
 40
0.9329211835
 40
0.9530829094
 40
0.969767637
 40
0.982863722
 40
0.9923165906
 40
0.9980306445
 40
1.0
 40
1.0
 40
1.0
 40
1.0
 10
3.5721866208
 20
14.6350719309
 30
0.0
 10
3.5726434005
 20
14.6364493237
 30
0.0
 10
3.5739968572
 20
14.6419104361
 30
0.0
 10
3.5742662475
 20
14.6545605827
 30
0.0
 10
3.5754687042
 20
14.6752059131
 30
0.0
 10
3.5761771811
 20
14.7040311828
 30
0.0
 10
3.5770390571
 20
14.7406720703
 30
0.0
 10
3.5777750465
 20
14.7848946858
 30
0.0
 10
3.5784817684
 20
14.836300577
 30
0.0
 10
3.5791231764
 20
14.8945324364
 30
0.0
 10
3.5797098201
 20
14.9591803195
 30
0.0
 10
3.5802369764
 20
15.0297398984
 30
0.0
 10
3.5807053562
 20
15.1057042059
 30
0.0
 10
3.5811137866
 20
15.1864488648
 30
0.0
 10
3.5814622546
 20
15.2714172509
 30
0.0
 10
3.5817501771
 20
15.3599323239
 30
0.0
 10
3.5819773457
 20
15.4513749591
 30
0.0
 10
3.5821431849
 20
15.5449577002
 30
0.0
 10
3.5822474579
 20
15.6399013823
 30
0.0
 10
3.5822901254
 20
15.7355112524
 30
0.0
 10
3.5822710503
 20
15.8310963185
 30
0.0
 10
3.5821900006
 20
15.9259425628
 30
0.0
 10
3.5820469311
 20
16.0192724244
 30
0.0
 10
3.5818415936
 20
16.1104641075
 30
0.0
 10
3.5815738071
 20
16.1988029939
 30
0.0
 10
3.5812434257
 20
16.2836168287
 30
0.0
 10
3.5808505745
 20
16.3642385274
 30
0.0
 10
3.5803946242
 20
16.4401411125
 30
0.0
 10
3.5798757296
 20
16.5107404998
 30
0.0
 10
3.5792932105
 20
16.5754374878
 30
0.0
 10
3.5786509657
 20
16.6337669497
 30
0.0
 10
3.5779379776
 20
16.6852588469
 30
0.0
 10
3.5771916168
 20
16.7295212897
 30
0.0
 10
3.5763125582
 20
16.7661329588
 30
0.0
 10
3.5755888112
 20
16.7949300531
 30
0.0
 10
3.5743481527
 20
16.8155693611
 30
0.0
 10
3.5740700999
 20
16.8282404509
 30
0.0
 10
3.5726630037
 20
16.83369478
 30
0.0
 10
3.5721866208
 20
16.8350719309
 30
0.0
  0
ELLIPSE
  5
3D0
100
AcDbEntity
  8
INTFCLR_1
100
AcDbEllipse
 62
7
  6
BYLAYER
 10
3.5807391591
 20
31.9850719309
 30
0.0
 11
-0.0
 21
1.75
 31
0.0
 40
0.0122179127
 41
-3.6330727423
 42
-3.1415926528
  0
ENDSEC
  0
SECTION
  2
OBJECTS
  0
DICTIONARY
  5
C
100
AcDbDictionary
280
0
281
1
  3
ACAD_GROUP
350
D
  3
ACAD_MLINESTYLE
350
17
  3
ACAD_LAYOUT
350
1A
  3
ACAD_PLOTSETTINGS
350
19
  3
ACAD_PLOTSTYLENAME
350
E
  0
DICTIONARY
  5
D
102
{ACAD_REACTORS
330
C
102
}
100
AcDbDictionary
280
0
281
1
  0
ACDBDICTIONARYWDFLT
  5
E
102
{ACAD_REACTORS
330
C
102
}
100
AcDbDictionary
281
1
  3
Normal
350
F
100
AcDbDictionaryWithDefault
340
F
  0
DICTIONARY
  5
17
102
{ACAD_REACTORS
330
C
102
}
100
AcDbDictionary
280
0
281
1
  3
Standard
350
18
  0
DICTIONARY
  5
19
102
{ACAD_REACTORS
330
C
102
}
100
AcDbDictionary
281
1
  0
DICTIONARY
  5
1A
102
{ACAD_REACTORS
330
C
102
}
100
AcDbDictionary
281
1
  3
Model
350
3D1
  3
Layout1
350
3D2
  0
ACDBPLACEHOLDER
  5
F
102
{ACAD_REACTORS
330
E
102
}
  0
MLINESTYLE
  5
18
102
{ACAD_REACTORS
330
17
102
}
100
AcDbMlineStyle
  2
STANDARD
 70
0
  3

 62
256
 51
90.0
 52
90.0
 71
2
 49
0.5
 62
256
  6
BYLAYER
 49
-0.5
 62
256
  6
BYLAYER
  0
LAYOUT
  5
3D1
102
{ACAD_REACTORS
330
1A
102
}
100
AcDbPlotSettings
  1

  2
none_device
  4

  6

 40
0.0
 41
0.0
 42
0.0
 43
0.0
 44
210.0
 45
297.0
 46
0.0
 47
0.0
 48
0.0
 49
0.0
140
0.0
141
0.0
142
1.0
143
1.0
 70
1024
 72
1
 73
0
 74
0
  7

 75
0
147
1.0
148
0.0
149
0.0
100
AcDbLayout
  1
Model
 70
0
 71
0
 10
0.0
 20
0.0
 11
210.0
 21
297.0
 12
0.0
 22
0.0
 32
0.0
 14
0.0
 24
0.0
 34
0.0
 15
0.0
 25
0.0
 35
0.0
146
0.0
 13
0.0
 23
0.0
 33
0.0
 16
1.0
 26
0.0
 36
0.0
 17
0.0
 27
1.0
 37
0.0
 76
0
330
219
345
0
346
0
  0
LAYOUT
  5
3D2
102
{ACAD_REACTORS
330
1A
102
}
100
AcDbPlotSettings
  1

  2
none_device
  4

  6

 40
0.0
 41
0.0
 42
0.0
 43
0.0
 44
210.0
 45
297.0
 46
0.0
 47
0.0
 48
0.0
 49
0.0
140
0.0
141
0.0
142
1.0
143
1.0
 70
0
 72
1
 73
0
 74
0
  7

 75
0
147
1.0
148
0.0
149
0.0
100
AcDbLayout
  1
Layout1
 70
0
 71
1
 10
0.0
 20
0.0
 11
210.0
 21
297.0
 12
0.0
 22
0.0
 32
0.0
 14
0.0
 24
0.0
 34
0.0
 15
0.0
 25
0.0
 35
0.0
146
0.0
 13
0.0
 23
0.0
 33
0.0
 16
1.0
 26
0.0
 36
0.0
 17
0.0
 27
1.0
 37
0.0
 76
0
330
21A
345
0
346
0
  0
ENDSEC
  0
EOF
