999
DXF file: C:\Users\sesa63760\Dev\_Creo\CAD\MCADID0004771_3D-CAD\drw0001_6.dxf
999
Pro/ENGINEER 2019471 by Parametric Technology Corporation
  0
SECTION
  2
HEADER
  9
$ACADVER
  1
AC1024
  9
$DWGCODEPAGE
  3
ANSI_1252
  9
$EXTMAX
 10
49.4667496075
 20
69.9601173021
 30
0.0
  9
$EXTMIN
 10
0.0
 20
0.0
 30
0.0
  9
$LIMMIN
 10
0.0
 20
0.0
  9
$LIMMAX
 10
49.4667496075
 20
69.9601173021
  9
$VIEWCTR
 10
24.7333748038
 20
34.980058651
  9
$VIEWSIZE
 40
69.9601173021
  9
$CLAYER
  8
0
  9
$LTSCALE
 40
4.5603632019
  9
$CELTYPE
  6
BYLAYER
  9
$DIMSCALE
 40
1.0
  9
$DIMASZ
 40
0.5888898763
  9
$DIMEXO
 40
1.0
  9
$DIMDLI
 40
3.150796394
  9
$DIMEXE
 40
1.0
  9
$DIMCEN
 40
0.7462412512
  9
$DIMLFAC
 40
1.0
  9
$DIMBLK
  1
_FILLED
  9
$DIMALT
 70
0
  9
$DIMALTF
 40
0.0393700787
  9
$DIMTXT
 40
0.8244458268
  9
$DIMTOL
 70
1
  9
$DIMLIM
 70
0
  9
$DIMTFAC
 40
1.0
  9
$DIMTP
 40
0.01
  9
$DIMTM
 40
0.01
  9
$DIMGAP
 40
0.625
  9
$DIMDSEP
 70
46
  9
$AUNITS
 70
0
  9
$PDMODE
 70
3
  9
$PDSIZE
 40
0.3125
  9
$HANDSEED
  5
27C
  9
$TILEMODE
 70
1
  9
$MEASUREMENT
 70
1
  9
$INSUNITS
 70
4
  0
ENDSEC
  0
SECTION
  2
CLASSES
  0
CLASS
  1
ACDBDICTIONARYWDFLT
  2
AcDbDictionaryWithDefault
  3
AutoCAD 2000
 90
0
 91
1
280
0
281
0
  0
CLASS
  1
ACDBPLACEHOLDER
  2
AcDbPlaceHolder
  3
AutoCAD 2000
 90
0
 91
1
280
0
281
0
  0
CLASS
  1
LAYOUT
  2
AcDbLayout
  3
AutoCAD 2000
 90
0
 91
0
280
0
281
0
  0
ENDSEC
  0
SECTION
  2
TABLES
  0
TABLE
  2
VPORT
  5
8
100
AcDbSymbolTable
 70
2
  0
VPORT
  5
1F4
100
AcDbSymbolTableRecord
100
AcDbViewportTableRecord
  2
*ACTIVE
 70
0
 10
0.0
 20
0.0
 11
1.0
 21
1.0
 12
24.7333748038
 22
34.980058651
 13
0.0
 23
0.0
 14
1.0
 24
1.0
 15
0.0
 25
0.0
 16
0.0
 26
0.0
 36
1.0
 17
0.0
 27
0.0
 37
0.0
 40
69.9601173021
 41
0.7070707071
 42
50.0
 43
0.0
 44
0.0
 50
0.0
 51
0.0
 71
0
 72
100
 73
1
 74
1
 75
0
 76
0
 77
0
 78
0
  0
ENDTAB
  0
TABLE
  2
LTYPE
  5
5
100
AcDbSymbolTable
 70
6
  0
LTYPE
  5
14
100
AcDbSymbolTableRecord
100
AcDbLinetypeTableRecord
  2
BYBLOCK
 70
0
  3

 72
65
 73
0
 40
0.0
  0
LTYPE
  5
15
100
AcDbSymbolTableRecord
100
AcDbLinetypeTableRecord
  2
BYLAYER
 70
0
  3

 72
65
 73
0
 40
0.0
  0
LTYPE
  5
16
100
AcDbSymbolTableRecord
100
AcDbLinetypeTableRecord
  2
CONTINUOUS
 70
64
  3
Solid line
 72
65
 73
0
 40
0.0
  0
LTYPE
  5
1F5
100
AcDbSymbolTableRecord
100
AcDbLinetypeTableRecord
  2
CENTER
 70
64
  3
____ _ ____ _ ____ _ ____ _ ____ _ ____ _ ____
 72
65
 73
4
 40
0.6
 49
0.375
 74
0
 49
-0.075
 74
0
 49
0.075
 74
0
 49
-0.075
 74
0
  0
LTYPE
  5
1F6
100
AcDbSymbolTableRecord
100
AcDbLinetypeTableRecord
  2
HIDDEN
 70
64
  3
- - - - - - - - - - - - - - - - - - - -
 72
65
 73
2
 40
0.2
 49
0.1
 74
0
 49
-0.1
 74
0
  0
LTYPE
  5
1F7
100
AcDbSymbolTableRecord
100
AcDbLinetypeTableRecord
  2
PHANTOM
 70
64
  3
_____ _ _ _____ _ _ _____ _ _ _____
 72
65
 73
6
 40
0.8
 49
0.45
 74
0
 49
-0.05
 74
0
 49
0.1
 74
0
 49
-0.05
 74
0
 49
0.1
 74
0
 49
-0.05
 74
0
  0
LTYPE
  5
1F8
100
AcDbSymbolTableRecord
100
AcDbLinetypeTableRecord
  2
DOT
 70
64
  3
. . . . . . . . . . . . . . . . . . . .
 72
65
 73
2
 40
0.2
 49
0.1
 74
0
 49
-0.1
 74
0
  0
LTYPE
  5
1F9
100
AcDbSymbolTableRecord
100
AcDbLinetypeTableRecord
  2
DASHED
 70
64
  3
- - - - - - - - - - - - - - - - - - - -
 72
65
 73
2
 40
0.2
 49
0.1
 74
0
 49
-0.1
 74
0
  0
ENDTAB
  0
TABLE
  2
LAYER
  5
2
100
AcDbSymbolTable
 70
36
  0
LAYER
  5
10
100
AcDbSymbolTableRecord
100
AcDbLayerTableRecord
  2
0
 70
0
 62
7
  6
CONTINUOUS
370
-3
390
F
  0
LAYER
  5
1FA
100
AcDbSymbolTableRecord
100
AcDbLayerTableRecord
  2
DEFAULT_1
 70
0
 62
7
  6
CENTER
370
-3
390
F
  0
LAYER
  5
1FB
100
AcDbSymbolTableRecord
100
AcDbLayerTableRecord
  2
DEFAULT_2
 70
0
 62
7
  6
HIDDEN
370
-3
390
F
  0
LAYER
  5
1FC
100
AcDbSymbolTableRecord
100
AcDbLayerTableRecord
  2
DEFAULT_3
 70
0
 62
7
  6
PHANTOM
370
-3
390
F
  0
LAYER
  5
1FD
100
AcDbSymbolTableRecord
100
AcDbLayerTableRecord
  2
00_COMPONENTS
 70
0
 62
7
  6
CONTINUOUS
370
-3
390
F
  0
LAYER
  5
1FE
100
AcDbSymbolTableRecord
100
AcDbLayerTableRecord
  2
01_1_DEFAULT_DATUMS
 70
0
 62
7
  6
CONTINUOUS
370
-3
390
F
  0
LAYER
  5
1FF
100
AcDbSymbolTableRecord
100
AcDbLayerTableRecord
  2
01_PLANES
 70
0
 62
7
  6
CONTINUOUS
370
-3
390
F
  0
LAYER
  5
200
100
AcDbSymbolTableRecord
100
AcDbLayerTableRecord
  2
02_COORD_SYS
 70
0
 62
7
  6
CONTINUOUS
370
-3
390
F
  0
LAYER
  5
201
100
AcDbSymbolTableRecord
100
AcDbLayerTableRecord
  2
03_AXES
 70
0
 62
7
  6
CONTINUOUS
370
-3
390
F
  0
LAYER
  5
202
100
AcDbSymbolTableRecord
100
AcDbLayerTableRecord
  2
04_POINTS
 70
0
 62
7
  6
CONTINUOUS
370
-3
390
F
  0
LAYER
  5
203
100
AcDbSymbolTableRecord
100
AcDbLayerTableRecord
  2
05_CURVES
 70
0
 62
7
  6
CONTINUOUS
370
-3
390
F
  0
LAYER
  5
204
100
AcDbSymbolTableRecord
100
AcDbLayerTableRecord
  2
06_SURFS
 70
0
 62
7
  6
CONTINUOUS
370
-3
390
F
  0
LAYER
  5
205
100
AcDbSymbolTableRecord
100
AcDbLayerTableRecord
  2
07_COSMETICS
 70
0
 62
7
  6
CONTINUOUS
370
-3
390
F
  0
LAYER
  5
206
100
AcDbSymbolTableRecord
100
AcDbLayerTableRecord
  2
10_NOTES
 70
0
 62
7
  6
CONTINUOUS
370
-3
390
F
  0
LAYER
  5
207
100
AcDbSymbolTableRecord
100
AcDbLayerTableRecord
  2
11_NOTES_PUB
 70
0
 62
7
  6
CONTINUOUS
370
-3
390
F
  0
LAYER
  5
208
100
AcDbSymbolTableRecord
100
AcDbLayerTableRecord
  2
13_REF_GTOL
 70
0
 62
7
  6
CONTINUOUS
370
-3
390
F
  0
LAYER
  5
209
100
AcDbSymbolTableRecord
100
AcDbLayerTableRecord
  2
16_MISC
 70
0
 62
7
  6
CONTINUOUS
370
-3
390
F
  0
LAYER
  5
20A
100
AcDbSymbolTableRecord
100
AcDbLayerTableRecord
  2
17_NO_PRINT
 70
0
 62
7
  6
CONTINUOUS
370
-3
390
F
  0
LAYER
  5
20B
100
AcDbSymbolTableRecord
100
AcDbLayerTableRecord
  2
18_DATUM_CAMS_JOINTS
 70
0
 62
7
  6
CONTINUOUS
370
-3
390
F
  0
LAYER
  5
20C
100
AcDbSymbolTableRecord
100
AcDbLayerTableRecord
  2
19_DATUM_FUNCTIONAL
 70
0
 62
7
  6
CONTINUOUS
370
-3
390
F
  0
LAYER
  5
20D
100
AcDbSymbolTableRecord
100
AcDbLayerTableRecord
  2
20_DATUM_KINEMATIC_SCHEME
 70
0
 62
7
  6
CONTINUOUS
370
-3
390
F
  0
ENDTAB
  0
TABLE
  2
STYLE
  5
3
100
AcDbSymbolTable
 70
1
  0
STYLE
  5
11
100
AcDbSymbolTableRecord
100
AcDbTextStyleTableRecord
  2
STANDARD
 70
0
 40
0.0
 41
1.0
 50
0.0
 71
0
 42
0.2
  3
ARIAL.TTF
  4

  0
STYLE
  5
20E
100
AcDbSymbolTableRecord
100
AcDbTextStyleTableRecord
  2
TEXTSTYLE_1
 70
0
 40
0.0
 41
0.8
 50
0.0
 71
0
 42
0.2
  3
gdt
  4

  0
ENDTAB
  0
TABLE
  2
VIEW
  5
6
100
AcDbSymbolTable
 70
0
  0
ENDTAB
  0
TABLE
  2
UCS
  5
7
100
AcDbSymbolTable
 70
0
  0
ENDTAB
  0
TABLE
  2
APPID
  5
9
100
AcDbSymbolTable
 70
1
  0
APPID
  5
20F
100
AcDbSymbolTableRecord
100
AcDbRegAppTableRecord
  2
ACAD
 70
0
  0
ENDTAB
  0
TABLE
  2
BLOCK_RECORD
  5
1
100
AcDbSymbolTable
 70
0
  0
BLOCK_RECORD
  5
210
100
AcDbSymbolTableRecord
100
AcDbBlockTableRecord
  2
*Model_Space
  0
BLOCK_RECORD
  5
211
100
AcDbSymbolTableRecord
100
AcDbBlockTableRecord
  2
*Paper_Space
  0
BLOCK_RECORD
  5
212
100
AcDbSymbolTableRecord
100
AcDbBlockTableRecord
  2
_FILLED
  0
ENDTAB
  0
TABLE
  2
DIMSTYLE
  5
A
100
AcDbSymbolTable
 70
1
100
AcDbDimStyleTable
 71
0
  0
DIMSTYLE
105
213
100
AcDbSymbolTableRecord
100
AcDbDimStyleTableRecord
  2
STANDARD
 70
0
  3

  4

 40
1.0
 41
0.5888898763
 42
1.0
 43
0.38
 44
1.0
 45
0.0
 46
0.0
 47
0.01
 48
0.01
140
0.8244458268
141
0.09
142
0.0
143
25.4
144
1.0
145
0.0
146
1.0
147
0.625
 71
1
 72
0
 73
0
 74
0
 75
0
 76
0
 77
1
 78
8
 79
2
170
0
171
1
172
0
173
0
174
0
175
0
176
0
177
0
178
0
270
2
179
2
271
2
272
2
273
2
274
2
275
0
280
0
281
0
282
0
283
1
284
8
285
0
286
0
287
3
288
0
340
11
278
46
341
212
342
212
343
212
344
212
  0
ENDTAB
  0
ENDSEC
  0
SECTION
  2
BLOCKS
  0
BLOCK
  5
20
100
AcDbEntity
  8
0
100
AcDbBlockBegin
  2
*Model_Space
 70
0
 10
0.0
 20
0.0
 30
0.0
  3
*Model_Space
  1

  0
ENDBLK
  5
21
100
AcDbEntity
  8
0
100
AcDbBlockEnd
  0
BLOCK
  5
1C
100
AcDbEntity
  8
0
100
AcDbBlockBegin
  2
*Paper_Space
 70
0
 10
0.0
 20
0.0
 30
0.0
  3
*Paper_Space
  1

  0
ENDBLK
  5
1D
100
AcDbEntity
  8
0
100
AcDbBlockEnd
  0
BLOCK
  5
214
100
AcDbEntity
  8
0
100
AcDbBlockBegin
  2
_FILLED
 70
64
 10
0.0
 20
0.0
  3
_FILLED
  1

  0
SOLID
  5
215
100
AcDbEntity
  8
0
  6
BYBLOCK
 62
0
100
AcDbTrace
 10
0.0
 20
0.0
 11
-1.0
 21
0.25
 12
-1.0
 22
-0.25
 13
-1.0
 23
-0.25
  0
ENDBLK
  5
216
100
AcDbEntity
  8
0
  6
BYBLOCK
 62
0
100
AcDbBlockEnd
  0
ENDSEC
  0
SECTION
  2
ENTITIES
  0
LINE
  5
217
100
AcDbEntity
  8
0
100
AcDbLine
 62
7
  6
BYLAYER
 10
13.0365272964
 20
5.780058651
 11
37.7865272964
 21
5.780058651
  0
LINE
  5
218
100
AcDbEntity
  8
0
100
AcDbLine
 62
7
  6
BYLAYER
 10
38.2865272964
 20
7.280058651
 11
17.6365272964
 21
7.280058651
  0
LINE
  5
219
100
AcDbEntity
  8
0
100
AcDbLine
 62
7
  6
BYLAYER
 10
12.2365272964
 20
8.680058651
 11
12.6365272964
 21
8.280058651
  0
LINE
  5
21A
100
AcDbEntity
  8
0
100
AcDbLine
 62
7
  6
BYLAYER
 10
17.6365272964
 20
8.280058651
 11
12.6365272964
 21
8.280058651
  0
LINE
  5
21B
100
AcDbEntity
  8
0
100
AcDbLine
 62
7
  6
BYLAYER
 10
12.0365272964
 20
8.530058651
 11
12.3865272964
 21
8.530058651
  0
LINE
  5
21C
100
AcDbEntity
  8
0
100
AcDbLine
 62
7
  6
BYLAYER
 10
17.6365272964
 20
12.280058651
 11
12.6365272964
 21
12.280058651
  0
LINE
  5
21D
100
AcDbEntity
  8
0
100
AcDbLine
 62
7
  6
BYLAYER
 10
17.6365272964
 20
13.880058651
 11
13.0365272964
 21
13.880058651
  0
LINE
  5
21E
100
AcDbEntity
  8
0
100
AcDbLine
 62
7
  6
BYLAYER
 10
23.5865272964
 20
62.930058651
 11
22.7865272964
 21
62.130058651
  0
LINE
  5
21F
100
AcDbEntity
  8
0
100
AcDbLine
 62
7
  6
BYLAYER
 10
26.1365272964
 20
63.980058651
 11
26.3365272964
 21
64.180058651
  0
LINE
  5
220
100
AcDbEntity
  8
0
100
AcDbLine
 62
7
  6
BYLAYER
 10
25.5365272964
 20
62.930058651
 11
26.1365272964
 21
63.530058651
  0
LINE
  5
221
100
AcDbEntity
  8
0
100
AcDbLine
 62
7
  6
BYLAYER
 10
12.0365272964
 20
8.5302361654
 11
12.0365272964
 21
36.0298811367
  0
LINE
  5
222
100
AcDbEntity
  8
0
100
AcDbLine
 62
7
  6
BYLAYER
 10
12.2365272964
 20
8.6801211599
 11
12.2365272964
 21
11.8799961421
  0
LINE
  5
223
100
AcDbEntity
  8
0
100
AcDbLine
 62
7
  6
BYLAYER
 10
12.2365272964
 20
32.6801211599
 11
12.2365272964
 21
35.8799961421
  0
LINE
  5
224
100
AcDbEntity
  8
0
100
AcDbLine
 62
7
  6
BYLAYER
 10
12.6365272964
 20
8.280058651
 11
12.6365272964
 21
12.280058651
  0
LINE
  5
225
100
AcDbEntity
  8
0
100
AcDbLine
 62
7
  6
BYLAYER
 10
12.6365272964
 20
32.280058651
 11
12.6365272964
 21
36.280058651
  0
LINE
  5
226
100
AcDbEntity
  8
0
100
AcDbLine
 62
7
  6
BYLAYER
 10
13.0365272964
 20
30.680058651
 11
13.0365272964
 21
13.880058651
  0
LINE
  5
227
100
AcDbEntity
  8
0
100
AcDbLine
 62
7
  6
BYLAYER
 10
13.0365272964
 20
8.280058651
 11
13.0365272964
 21
5.780058651
  0
LINE
  5
228
100
AcDbEntity
  8
0
100
AcDbLine
 62
7
  6
BYLAYER
 10
13.0365272964
 20
36.280058651
 11
13.0365272964
 21
38.780058651
  0
LINE
  5
229
100
AcDbEntity
  8
0
100
AcDbLine
 62
7
  6
BYLAYER
 10
32.9865272964
 20
57.930058651
 11
33.7865272964
 21
58.730058651
  0
LINE
  5
22A
100
AcDbEntity
  8
0
100
AcDbLine
 62
7
  6
BYLAYER
 10
12.2365272964
 20
32.680058651
 11
12.6365272964
 21
32.280058651
  0
LINE
  5
22B
100
AcDbEntity
  8
0
100
AcDbLine
 62
7
  6
BYLAYER
 10
12.2365272964
 20
35.880058651
 11
12.6365272964
 21
36.280058651
  0
LINE
  5
22C
100
AcDbEntity
  8
0
100
AcDbLine
 62
7
  6
BYLAYER
 10
17.6365272964
 20
5.780058651
 11
17.6365272964
 21
13.880058651
  0
LINE
  5
22D
100
AcDbEntity
  8
0
100
AcDbLine
 62
7
  6
BYLAYER
 10
17.6365272964
 20
30.680058651
 11
17.6365272964
 21
38.780058651
  0
LINE
  5
22E
100
AcDbEntity
  8
0
100
AcDbLine
 62
7
  6
BYLAYER
 10
18.2865272964
 20
44.830058651
 11
18.2865272964
 21
42.830058651
  0
LINE
  5
22F
100
AcDbEntity
  8
0
100
AcDbLine
 62
7
  6
BYLAYER
 10
18.2865272964
 20
42.280058651
 11
18.2865272964
 21
38.780058651
  0
LINE
  5
230
100
AcDbEntity
  8
0
100
AcDbLine
 62
7
  6
BYLAYER
 10
18.43406828
 20
48.430058651
 11
18.2865272964
 21
44.830058651
  0
LINE
  5
231
100
AcDbEntity
  8
0
100
AcDbLine
 62
7
  6
BYLAYER
 10
19.7865272964
 20
42.830058651
 11
19.7865272964
 21
42.280058651
  0
LINE
  5
232
100
AcDbEntity
  8
0
100
AcDbLine
 62
7
  6
BYLAYER
 10
20.7865272964
 20
48.930058651
 11
20.7865272964
 21
48.430058651
  0
LINE
  5
233
100
AcDbEntity
  8
0
100
AcDbLine
 62
7
  6
BYLAYER
 10
17.6365272964
 20
30.680058651
 11
13.0365272964
 21
30.680058651
  0
LINE
  5
234
100
AcDbEntity
  8
0
100
AcDbLine
 62
7
  6
BYLAYER
 10
22.2265272964
 20
56.8772984893
 11
22.2265272964
 21
57.2849339895
  0
LINE
  5
235
100
AcDbEntity
  8
0
100
AcDbLine
 62
7
  6
BYLAYER
 10
22.2865272964
 20
50.930058651
 11
22.2865272964
 21
48.930058651
  0
LINE
  5
236
100
AcDbEntity
  8
0
100
AcDbLine
 62
7
  6
BYLAYER
 10
22.7870332
 20
58.730058651
 11
22.7870332
 21
62.130058651
  0
LINE
  5
237
100
AcDbEntity
  8
0
100
AcDbLine
 62
7
  6
BYLAYER
 10
17.6365272964
 20
32.280058651
 11
12.6365272964
 21
32.280058651
  0
LINE
  5
238
100
AcDbEntity
  8
0
100
AcDbLine
 62
7
  6
BYLAYER
 10
23.7865272964
 20
48.930058651
 11
23.7865272964
 21
50.930058651
  0
LINE
  5
239
100
AcDbEntity
  8
0
100
AcDbLine
 62
7
  6
BYLAYER
 10
25.2865272964
 20
50.930058651
 11
25.2865272964
 21
56.8772984893
  0
LINE
  5
23A
100
AcDbEntity
  8
0
100
AcDbLine
 62
7
  6
BYLAYER
 10
25.4721775165
 20
62.130058651
 11
25.4721775165
 21
58.730058651
  0
LINE
  5
23B
100
AcDbEntity
  8
0
100
AcDbLine
 62
7
  6
BYLAYER
 10
25.60138298
 20
58.730058651
 11
25.60138298
 21
62.130058651
  0
LINE
  5
23C
100
AcDbEntity
  8
0
100
AcDbLine
 62
7
  6
BYLAYER
 10
26.1365272964
 20
63.530058651
 11
26.1365272964
 21
63.980058651
  0
LINE
  5
23D
100
AcDbEntity
  8
0
100
AcDbLine
 62
7
  6
BYLAYER
 10
12.0365272964
 20
36.030058651
 11
12.3865272964
 21
36.030058651
  0
LINE
  5
23E
100
AcDbEntity
  8
0
100
AcDbLine
 62
7
  6
BYLAYER
 10
17.6365272964
 20
36.280058651
 11
12.6365272964
 21
36.280058651
  0
LINE
  5
23F
100
AcDbEntity
  8
0
100
AcDbLine
 62
7
  6
BYLAYER
 10
17.6365272964
 20
37.280058651
 11
38.2865272964
 21
37.280058651
  0
LINE
  5
240
100
AcDbEntity
  8
0
100
AcDbLine
 62
7
  6
BYLAYER
 10
27.7865272964
 20
62.980058651
 11
27.7865272964
 21
64.180058651
  0
LINE
  5
241
100
AcDbEntity
  8
0
100
AcDbLine
 62
7
  6
BYLAYER
 10
28.7865272964
 20
62.980058651
 11
28.7865272964
 21
64.180058651
  0
LINE
  5
242
100
AcDbEntity
  8
0
100
AcDbLine
 62
7
  6
BYLAYER
 10
37.7865272964
 20
38.780058651
 11
13.0365272964
 21
38.780058651
  0
LINE
  5
243
100
AcDbEntity
  8
0
100
AcDbLine
 62
7
  6
BYLAYER
 10
30.4365272964
 20
63.980058651
 11
30.4365272964
 21
63.530058651
  0
LINE
  5
244
100
AcDbEntity
  8
0
100
AcDbLine
 62
7
  6
BYLAYER
 10
30.9716716128
 20
62.130058651
 11
30.9716716128
 21
58.730058651
  0
LINE
  5
245
100
AcDbEntity
  8
0
100
AcDbLine
 62
7
  6
BYLAYER
 10
31.1008770764
 20
58.730058651
 11
31.1008770764
 21
62.130058651
  0
LINE
  5
246
100
AcDbEntity
  8
0
100
AcDbLine
 62
7
  6
BYLAYER
 10
31.2865272964
 20
56.8772984893
 11
31.2865272964
 21
50.930058651
  0
LINE
  5
247
100
AcDbEntity
  8
0
100
AcDbLine
 62
7
  6
BYLAYER
 10
32.7865272964
 20
50.930058651
 11
32.7865272964
 21
48.930058651
  0
LINE
  5
248
100
AcDbEntity
  8
0
100
AcDbLine
 62
7
  6
BYLAYER
 10
33.7860213928
 20
62.130058651
 11
33.7860213928
 21
58.730058651
  0
LINE
  5
249
100
AcDbEntity
  8
0
100
AcDbLine
 62
7
  6
BYLAYER
 10
12.2365272964
 20
11.880058651
 11
12.6365272964
 21
12.280058651
  0
LINE
  5
24A
100
AcDbEntity
  8
0
100
AcDbLine
 62
7
  6
BYLAYER
 10
18.2866946664
 20
42.280058651
 11
38.2863599265
 21
42.280058651
  0
LINE
  5
24B
100
AcDbEntity
  8
0
100
AcDbLine
 62
7
  6
BYLAYER
 10
38.2865272964
 20
42.830058651
 11
18.2865272964
 21
42.830058651
  0
LINE
  5
24C
100
AcDbEntity
  8
0
100
AcDbLine
 62
7
  6
BYLAYER
 10
34.2865272964
 20
48.930058651
 11
34.2865272964
 21
50.930058651
  0
LINE
  5
24D
100
AcDbEntity
  8
0
100
AcDbLine
 62
7
  6
BYLAYER
 10
34.3465272964
 20
56.8772984893
 11
34.3465272964
 21
57.2849339895
  0
LINE
  5
24E
100
AcDbEntity
  8
0
100
AcDbLine
 62
7
  6
BYLAYER
 10
35.7865272964
 20
48.930058651
 11
35.7865272964
 21
48.430058651
  0
LINE
  5
24F
100
AcDbEntity
  8
0
100
AcDbLine
 62
7
  6
BYLAYER
 10
18.2865272964
 20
44.830058651
 11
38.2865272964
 21
44.830058651
  0
LINE
  5
250
100
AcDbEntity
  8
0
100
AcDbLine
 62
7
  6
BYLAYER
 10
36.7865272964
 20
42.280058651
 11
36.7865272964
 21
42.830058651
  0
LINE
  5
251
100
AcDbEntity
  8
0
100
AcDbLine
 62
7
  6
BYLAYER
 10
37.7865272964
 20
38.780058651
 11
37.7865272964
 21
5.780058651
  0
LINE
  5
252
100
AcDbEntity
  8
0
100
AcDbLine
 62
7
  6
BYLAYER
 10
38.2865272964
 20
44.830058651
 11
38.1571106982
 21
47.9878236469
  0
LINE
  5
253
100
AcDbEntity
  8
0
100
AcDbLine
 62
7
  6
BYLAYER
 10
38.2865272964
 20
6.280058651
 11
38.2865272964
 21
42.280058651
  0
LINE
  5
254
100
AcDbEntity
  8
0
100
AcDbLine
 62
7
  6
BYLAYER
 10
38.2865272964
 20
42.830058651
 11
38.2865272964
 21
44.830058651
  0
LINE
  5
255
100
AcDbEntity
  8
0
100
AcDbLine
 62
7
  6
BYLAYER
 10
18.43406828
 20
48.430058651
 11
38.1291315684
 21
48.430058651
  0
LINE
  5
256
100
AcDbEntity
  8
0
100
AcDbLine
 62
7
  6
BYLAYER
 10
20.7866003516
 20
48.930058651
 11
22.2865272964
 21
48.930058651
  0
LINE
  5
257
100
AcDbEntity
  8
0
100
AcDbLine
 62
7
  6
BYLAYER
 10
23.7865272964
 20
48.930058651
 11
32.7865272964
 21
48.930058651
  0
LINE
  5
258
100
AcDbEntity
  8
0
100
AcDbLine
 62
7
  6
BYLAYER
 10
34.2865272964
 20
48.930058651
 11
35.7864537768
 21
48.930058651
  0
LINE
  5
259
100
AcDbEntity
  8
0
100
AcDbLine
 62
7
  6
BYLAYER
 10
22.7865272964
 20
58.730058651
 11
23.5865272964
 21
57.930058651
  0
LINE
  5
25A
100
AcDbEntity
  8
0
100
AcDbLine
 62
7
  6
BYLAYER
 10
22.2865272964
 20
50.930058651
 11
34.2865272964
 21
50.930058651
  0
LINE
  5
25B
100
AcDbEntity
  8
0
100
AcDbLine
 62
7
  6
BYLAYER
 10
34.3465272964
 20
56.8772984893
 11
22.2265272964
 21
56.8772984893
  0
LINE
  5
25C
100
AcDbEntity
  8
0
100
AcDbLine
 62
7
  6
BYLAYER
 10
22.2265272964
 20
57.2849339895
 11
34.3465272964
 21
57.2849339895
  0
LINE
  5
25D
100
AcDbEntity
  8
0
100
AcDbLine
 62
7
  6
BYLAYER
 10
32.9865272964
 20
57.930058651
 11
23.5865272964
 21
57.930058651
  0
LINE
  5
25E
100
AcDbEntity
  8
0
100
AcDbLine
 62
7
  6
BYLAYER
 10
31.1008770764
 20
58.730058651
 11
30.9716716128
 21
58.730058651
  0
LINE
  5
25F
100
AcDbEntity
  8
0
100
AcDbLine
 62
7
  6
BYLAYER
 10
25.60138298
 20
58.730058651
 11
25.4721775165
 21
58.730058651
  0
LINE
  5
260
100
AcDbEntity
  8
0
100
AcDbLine
 62
7
  6
BYLAYER
 10
30.4365272964
 20
63.530058651
 11
31.0365272964
 21
62.930058651
  0
LINE
  5
261
100
AcDbEntity
  8
0
100
AcDbLine
 62
7
  6
BYLAYER
 10
30.2365272964
 20
64.180058651
 11
30.4365272964
 21
63.980058651
  0
LINE
  5
262
100
AcDbEntity
  8
0
100
AcDbLine
 62
7
  6
BYLAYER
 10
33.7865272964
 20
62.130058651
 11
32.9865272964
 21
62.930058651
  0
LINE
  5
263
100
AcDbEntity
  8
0
100
AcDbLine
 62
7
  6
BYLAYER
 10
25.4721775165
 20
62.130058651
 11
25.60138298
 21
62.130058651
  0
LINE
  5
264
100
AcDbEntity
  8
0
100
AcDbLine
 62
7
  6
BYLAYER
 10
30.9716716128
 20
62.130058651
 11
31.1008770764
 21
62.130058651
  0
LINE
  5
265
100
AcDbEntity
  8
0
100
AcDbLine
 62
7
  6
BYLAYER
 10
23.5865272964
 20
62.930058651
 11
32.9865272964
 21
62.930058651
  0
LINE
  5
266
100
AcDbEntity
  8
0
100
AcDbLine
 62
7
  6
BYLAYER
 10
27.7865272964
 20
62.980058651
 11
28.7865272964
 21
62.980058651
  0
LINE
  5
267
100
AcDbEntity
  8
0
100
AcDbLine
 62
7
  6
BYLAYER
 10
30.4365272964
 20
63.530058651
 11
28.7865272964
 21
63.530058651
  0
LINE
  5
268
100
AcDbEntity
  8
0
100
AcDbLine
 62
7
  6
BYLAYER
 10
27.7865272964
 20
63.530058651
 11
26.1365272964
 21
63.530058651
  0
LINE
  5
269
100
AcDbEntity
  8
0
100
AcDbLine
 62
7
  6
BYLAYER
 10
26.1365272964
 20
63.980058651
 11
27.7865272964
 21
63.980058651
  0
LINE
  5
26A
100
AcDbEntity
  8
0
100
AcDbLine
 62
7
  6
BYLAYER
 10
28.7865272964
 20
63.980058651
 11
30.4365272964
 21
63.980058651
  0
LINE
  5
26B
100
AcDbEntity
  8
0
100
AcDbLine
 62
7
  6
BYLAYER
 10
26.3365272964
 20
64.180058651
 11
27.7865272964
 21
64.180058651
  0
LINE
  5
26C
100
AcDbEntity
  8
0
100
AcDbLine
 62
7
  6
BYLAYER
 10
28.7865272964
 20
64.180058651
 11
30.2365272964
 21
64.180058651
  0
ARC
  5
26D
100
AcDbEntity
  8
0
100
AcDbCircle
 62
7
  6
BYLAYER
 10
24.2171312232
 20
54.5363813638
 40
3.3936772872
100
AcDbArc
 50
90.0
 51
125.9134522755
  0
ARC
  5
26E
100
AcDbEntity
  8
0
100
AcDbCircle
 62
7
  6
BYLAYER
 10
32.3559233696
 20
54.5363813638
 40
3.3936772872
100
AcDbArc
 50
54.0865477245
 51
90.0
  0
ARC
  5
26F
100
AcDbEntity
  8
0
100
AcDbCircle
 62
7
  6
BYLAYER
 10
37.7865272964
 20
38.280058651
 40
0.5
100
AcDbArc
 50
0.0
 51
90.0
  0
ARC
  5
270
100
AcDbEntity
  8
0
100
AcDbCircle
 62
7
  6
BYLAYER
 10
37.7865272964
 20
6.280058651
 40
0.5
100
AcDbArc
 50
270.0
 51
360.0
  0
SPLINE
  5
271
100
AcDbEntity
  8
0
100
AcDbSpline
 62
7
  6
BYLAYER
 70
0
 71
3
 72
19
 73
15
 74
0
 42
0.0000001
 43
0.0000001
 44
0.0000000001
 40
0.0
 40
0.0
 40
0.0
 40
0.0
 40
0.1249968604
 40
0.2499739531
 40
0.3124818274
 40
0.3749886817
 40
0.4374946147
 40
0.5000000059
 40
0.5625053946
 40
0.6250113269
 40
0.6875181798
 40
0.750026052
 40
0.8750031413
 40
1.0
 40
1.0
 40
1.0
 40
1.0
 10
30.9716716128
 20
58.730058651
 30
0.0
 10
30.7620892282
 20
58.6277388421
 30
0.0
 10
30.3355893468
 20
58.4376581515
 30
0.0
 10
29.7824975467
 20
58.2495608154
 30
0.0
 10
29.3292608867
 20
58.138209948
 30
0.0
 10
28.9845936112
 20
58.0765061428
 30
0.0
 10
28.6364817642
 20
58.0385909788
 30
0.0
 10
28.286527268
 20
58.0257925045
 30
0.0
 10
27.9365727732
 20
58.0385909836
 30
0.0
 10
27.5884609354
 20
58.0765061501
 30
0.0
 10
27.2437936679
 20
58.1382099557
 30
0.0
 10
26.7905570213
 20
58.2495608236
 30
0.0
 10
26.2374652343
 20
58.4376581564
 30
0.0
 10
25.8109653617
 20
58.6277388436
 30
0.0
 10
25.60138298
 20
58.730058651
 30
0.0
  0
SPLINE
  5
272
100
AcDbEntity
  8
0
100
AcDbSpline
 62
7
  6
BYLAYER
 70
0
 71
3
 72
23
 73
19
 74
0
 42
0.0000001
 43
0.0000001
 44
0.0000000001
 40
0.0
 40
0.0
 40
0.0
 40
0.0
 40
0.0698215608
 40
0.1375824136
 40
0.2031205819
 40
0.2663451705
 40
0.3272939682
 40
0.3861978871
 40
0.4435297875
 40
0.5000000054
 40
0.5564702209
 40
0.613802121
 40
0.6727060386
 40
0.7336548345
 40
0.7968794226
 40
0.8624175883
 40
0.9301784389
 40
1.0
 40
1.0
 40
1.0
 40
1.0
 10
33.7860213928
 20
58.730058651
 30
0.0
 10
33.7343322609
 20
58.6795885496
 30
0.0
 10
33.6302818587
 20
58.5823445408
 30
0.0
 10
33.4691734579
 20
58.4472060928
 30
0.0
 10
33.3050728753
 20
58.326839369
 30
0.0
 10
33.1379182748
 20
58.223469996
 30
0.0
 10
32.9677633102
 20
58.1394574817
 30
0.0
 10
32.7948610654
 20
58.0771704833
 30
0.0
 10
32.6197743192
 20
58.038748583
 30
0.0
 10
32.4434492202
 20
58.0257465829
 30
0.0
 10
32.2671241221
 20
58.0387485879
 30
0.0
 10
32.0920373808
 20
58.0771704907
 30
0.0
 10
31.9191351398
 20
58.1394574894
 30
0.0
 10
31.7489801798
 20
58.2234700045
 30
0.0
 10
31.581825584
 20
58.3268393752
 30
0.0
 10
31.4177250065
 20
58.4472060968
 30
0.0
 10
31.2566166093
 20
58.5823445419
 30
0.0
 10
31.1525662085
 20
58.6795885494
 30
0.0
 10
31.1008770764
 20
58.730058651
 30
0.0
  0
SPLINE
  5
273
100
AcDbEntity
  8
0
100
AcDbSpline
 62
7
  6
BYLAYER
 70
0
 71
3
 72
23
 73
19
 74
0
 42
0.0000001
 43
0.0000001
 44
0.0000000001
 40
0.0
 40
0.0
 40
0.0
 40
0.0
 40
0.0698215608
 40
0.1375824136
 40
0.2031205819
 40
0.2663451705
 40
0.3272939682
 40
0.3861978871
 40
0.4435297875
 40
0.5000000054
 40
0.5564702209
 40
0.613802121
 40
0.6727060386
 40
0.7336548345
 40
0.7968794226
 40
0.8624175883
 40
0.9301784389
 40
1.0
 40
1.0
 40
1.0
 40
1.0
 10
25.4721775165
 20
58.730058651
 30
0.0
 10
25.4204883845
 20
58.6795885496
 30
0.0
 10
25.3164379824
 20
58.5823445408
 30
0.0
 10
25.1553295816
 20
58.4472060928
 30
0.0
 10
24.991228999
 20
58.326839369
 30
0.0
 10
24.8240743985
 20
58.223469996
 30
0.0
 10
24.6539194339
 20
58.1394574817
 30
0.0
 10
24.481017189
 20
58.0771704833
 30
0.0
 10
24.3059304429
 20
58.038748583
 30
0.0
 10
24.1296053439
 20
58.0257465829
 30
0.0
 10
23.9532802458
 20
58.0387485879
 30
0.0
 10
23.7781935044
 20
58.0771704907
 30
0.0
 10
23.6052912635
 20
58.1394574894
 30
0.0
 10
23.4351363034
 20
58.2234700045
 30
0.0
 10
23.2679817077
 20
58.3268393752
 30
0.0
 10
23.1038811301
 20
58.4472060968
 30
0.0
 10
22.942772733
 20
58.5823445419
 30
0.0
 10
22.8387223322
 20
58.6795885494
 30
0.0
 10
22.7870332
 20
58.730058651
 30
0.0
  0
SPLINE
  5
274
100
AcDbEntity
  8
0
100
AcDbSpline
 62
7
  6
BYLAYER
 70
0
 71
3
 72
23
 73
19
 74
0
 42
0.0000001
 43
0.0000001
 44
0.0000000001
 40
0.0
 40
0.0
 40
0.0
 40
0.0
 40
0.0698215608
 40
0.1375824136
 40
0.2031205819
 40
0.2663451705
 40
0.3272939682
 40
0.3861978871
 40
0.4435297875
 40
0.5000000054
 40
0.5564702209
 40
0.613802121
 40
0.6727060386
 40
0.7336548345
 40
0.7968794226
 40
0.8624175883
 40
0.9301784389
 40
1.0
 40
1.0
 40
1.0
 40
1.0
 10
31.1008770764
 20
62.130058651
 30
0.0
 10
31.1525662083
 20
62.1805287524
 30
0.0
 10
31.2566166104
 20
62.2777727613
 30
0.0
 10
31.4177250113
 20
62.4129112092
 30
0.0
 10
31.5818255939
 20
62.5332779331
 30
0.0
 10
31.7489801944
 20
62.6366473061
 30
0.0
 10
31.919135159
 20
62.7206598204
 30
0.0
 10
32.0920374038
 20
62.7829468187
 30
0.0
 10
32.26712415
 20
62.821368719
 30
0.0
 10
32.4434492489
 20
62.8343707191
 30
0.0
 10
32.619774347
 20
62.8213687142
 30
0.0
 10
32.7948610884
 20
62.7829468114
 30
0.0
 10
32.9677633294
 20
62.7206598127
 30
0.0
 10
33.1379182894
 20
62.6366472976
 30
0.0
 10
33.3050728852
 20
62.5332779268
 30
0.0
 10
33.4691734627
 20
62.4129112053
 30
0.0
 10
33.6302818598
 20
62.2777727601
 30
0.0
 10
33.7343322606
 20
62.1805287526
 30
0.0
 10
33.7860213928
 20
62.130058651
 30
0.0
  0
SPLINE
  5
275
100
AcDbEntity
  8
0
100
AcDbSpline
 62
7
  6
BYLAYER
 70
0
 71
3
 72
19
 73
15
 74
0
 42
0.0000001
 43
0.0000001
 44
0.0000000001
 40
0.0
 40
0.0
 40
0.0
 40
0.0
 40
0.1249968604
 40
0.2499739531
 40
0.3124818274
 40
0.3749886817
 40
0.4374946147
 40
0.5000000059
 40
0.5625053946
 40
0.6250113269
 40
0.6875181798
 40
0.750026052
 40
0.8750031413
 40
1.0
 40
1.0
 40
1.0
 40
1.0
 10
25.60138298
 20
62.130058651
 30
0.0
 10
25.8109653647
 20
62.2323784599
 30
0.0
 10
26.2374652461
 20
62.4224591505
 30
0.0
 10
26.7905570462
 20
62.6105564867
 30
0.0
 10
27.2437937062
 20
62.721907354
 30
0.0
 10
27.5884609817
 20
62.7836111592
 30
0.0
 10
27.9365728286
 20
62.8215263233
 30
0.0
 10
28.2865273248
 20
62.8343247976
 30
0.0
 10
28.6364818196
 20
62.8215263185
 30
0.0
 10
28.9845936574
 20
62.7836111519
 30
0.0
 10
29.3292609249
 20
62.7219073464
 30
0.0
 10
29.7824975715
 20
62.6105564785
 30
0.0
 10
30.3355893586
 20
62.4224591456
 30
0.0
 10
30.7620892312
 20
62.2323784585
 30
0.0
 10
30.9716716128
 20
62.130058651
 30
0.0
  0
SPLINE
  5
276
100
AcDbEntity
  8
0
100
AcDbSpline
 62
7
  6
BYLAYER
 70
0
 71
3
 72
23
 73
19
 74
0
 42
0.0000001
 43
0.0000001
 44
0.0000000001
 40
0.0
 40
0.0
 40
0.0
 40
0.0
 40
0.0698215608
 40
0.1375824136
 40
0.2031205819
 40
0.2663451705
 40
0.3272939682
 40
0.3861978871
 40
0.4435297875
 40
0.5000000054
 40
0.5564702209
 40
0.613802121
 40
0.6727060386
 40
0.7336548345
 40
0.7968794226
 40
0.8624175883
 40
0.9301784389
 40
1.0
 40
1.0
 40
1.0
 40
1.0
 10
22.7870332
 20
62.130058651
 30
0.0
 10
22.838722332
 20
62.1805287524
 30
0.0
 10
22.9427727341
 20
62.2777727613
 30
0.0
 10
23.1038811349
 20
62.4129112092
 30
0.0
 10
23.2679817176
 20
62.5332779331
 30
0.0
 10
23.4351363181
 20
62.6366473061
 30
0.0
 10
23.6052912827
 20
62.7206598204
 30
0.0
 10
23.7781935275
 20
62.7829468187
 30
0.0
 10
23.9532802736
 20
62.821368719
 30
0.0
 10
24.1296053726
 20
62.8343707191
 30
0.0
 10
24.3059304707
 20
62.8213687142
 30
0.0
 10
24.4810172121
 20
62.7829468114
 30
0.0
 10
24.653919453
 20
62.7206598127
 30
0.0
 10
24.8240744131
 20
62.6366472976
 30
0.0
 10
24.9912290089
 20
62.5332779268
 30
0.0
 10
25.1553295864
 20
62.4129112053
 30
0.0
 10
25.3164379835
 20
62.2777727601
 30
0.0
 10
25.4204883843
 20
62.1805287526
 30
0.0
 10
25.4721775165
 20
62.130058651
 30
0.0
  0
ELLIPSE
  5
277
100
AcDbEntity
  8
0
100
AcDbEllipse
 62
7
  6
BYLAYER
 10
28.3107804213
 20
48.1743847153
 30
0.0
 11
-7.0241205583
 21
7.3399569034
 31
0.0
 40
0.9416961723
 41
-2.3231428864
 42
-2.2783813047
  0
ELLIPSE
  5
278
100
AcDbEntity
  8
0
100
AcDbEllipse
 62
7
  6
BYLAYER
 10
28.2865272964
 20
50.930058651
 30
0.0
 11
-6.9840722478
 21
6.9916740494
 31
0.0
 40
0.3909836644
 41
-1.9831158165
 42
-1.9431371294
  0
ELLIPSE
  5
279
100
AcDbEntity
  8
0
100
AcDbEllipse
 62
7
  6
BYLAYER
 10
28.2865272964
 20
50.930058651
 30
0.0
 11
6.8690409976
 21
6.8771410102
 31
0.0
 40
0.4378310255
 41
-1.1985195755
 42
-1.1585408884
  0
ENDSEC
  0
SECTION
  2
OBJECTS
  0
DICTIONARY
  5
C
100
AcDbDictionary
280
0
281
1
  3
ACAD_GROUP
350
D
  3
ACAD_MLINESTYLE
350
17
  3
ACAD_LAYOUT
350
1A
  3
ACAD_PLOTSETTINGS
350
19
  3
ACAD_PLOTSTYLENAME
350
E
  0
DICTIONARY
  5
D
102
{ACAD_REACTORS
330
C
102
}
100
AcDbDictionary
280
0
281
1
  0
ACDBDICTIONARYWDFLT
  5
E
102
{ACAD_REACTORS
330
C
102
}
100
AcDbDictionary
281
1
  3
Normal
350
F
100
AcDbDictionaryWithDefault
340
F
  0
DICTIONARY
  5
17
102
{ACAD_REACTORS
330
C
102
}
100
AcDbDictionary
280
0
281
1
  3
Standard
350
18
  0
DICTIONARY
  5
19
102
{ACAD_REACTORS
330
C
102
}
100
AcDbDictionary
281
1
  0
DICTIONARY
  5
1A
102
{ACAD_REACTORS
330
C
102
}
100
AcDbDictionary
281
1
  3
Model
350
27A
  3
Layout1
350
27B
  0
ACDBPLACEHOLDER
  5
F
102
{ACAD_REACTORS
330
E
102
}
  0
MLINESTYLE
  5
18
102
{ACAD_REACTORS
330
17
102
}
100
AcDbMlineStyle
  2
STANDARD
 70
0
  3

 62
256
 51
90.0
 52
90.0
 71
2
 49
0.5
 62
256
  6
BYLAYER
 49
-0.5
 62
256
  6
BYLAYER
  0
LAYOUT
  5
27A
102
{ACAD_REACTORS
330
1A
102
}
100
AcDbPlotSettings
  1

  2
none_device
  4

  6

 40
0.0
 41
0.0
 42
0.0
 43
0.0
 44
210.0
 45
297.0
 46
0.0
 47
0.0
 48
0.0
 49
0.0
140
0.0
141
0.0
142
1.0
143
1.0
 70
1024
 72
1
 73
0
 74
0
  7

 75
0
147
1.0
148
0.0
149
0.0
100
AcDbLayout
  1
Model
 70
0
 71
0
 10
0.0
 20
0.0
 11
210.0
 21
297.0
 12
0.0
 22
0.0
 32
0.0
 14
0.0
 24
0.0
 34
0.0
 15
0.0
 25
0.0
 35
0.0
146
0.0
 13
0.0
 23
0.0
 33
0.0
 16
1.0
 26
0.0
 36
0.0
 17
0.0
 27
1.0
 37
0.0
 76
0
330
210
345
0
346
0
  0
LAYOUT
  5
27B
102
{ACAD_REACTORS
330
1A
102
}
100
AcDbPlotSettings
  1

  2
none_device
  4

  6

 40
0.0
 41
0.0
 42
0.0
 43
0.0
 44
210.0
 45
297.0
 46
0.0
 47
0.0
 48
0.0
 49
0.0
140
0.0
141
0.0
142
1.0
143
1.0
 70
0
 72
1
 73
0
 74
0
  7

 75
0
147
1.0
148
0.0
149
0.0
100
AcDbLayout
  1
Layout1
 70
0
 71
1
 10
0.0
 20
0.0
 11
210.0
 21
297.0
 12
0.0
 22
0.0
 32
0.0
 14
0.0
 24
0.0
 34
0.0
 15
0.0
 25
0.0
 35
0.0
146
0.0
 13
0.0
 23
0.0
 33
0.0
 16
1.0
 26
0.0
 36
0.0
 17
0.0
 27
1.0
 37
0.0
 76
0
330
211
345
0
346
0
  0
ENDSEC
  0
EOF
