999
DXF file: C:\Users\sesa63760\Dev\_Creo\CAD\MCADID0004771_3D-CAD\drw0001_2.dxf
999
Pro/ENGINEER 2019471 by Parametric Technology Corporation
  0
SECTION
  2
HEADER
  9
$ACADVER
  1
AC1024
  9
$DWGCODEPAGE
  3
ANSI_1252
  9
$EXTMAX
 10
47.8529407551
 20
67.6777304965
 30
0.0
  9
$EXTMIN
 10
0.0
 20
0.0
 30
0.0
  9
$LIMMIN
 10
0.0
 20
0.0
  9
$LIMMAX
 10
47.8529407551
 20
67.6777304965
  9
$VIEWCTR
 10
23.9264703775
 20
33.8388652482
  9
$VIEWSIZE
 40
67.6777304965
  9
$CLAYER
  8
0
  9
$LTSCALE
 40
4.4115853953
  9
$CELTYPE
  6
BYLAYER
  9
$DIMSCALE
 40
1.0
  9
$DIMASZ
 40
0.5696778661
  9
$DIMEXO
 40
1.0
  9
$DIMDLI
 40
3.048004455
  9
$DIMEXE
 40
1.0
  9
$DIMCEN
 40
0.721895792
  9
$DIMLFAC
 40
1.0
  9
$DIMBLK
  1
_FILLED
  9
$DIMALT
 70
0
  9
$DIMALTF
 40
0.0393700787
  9
$DIMTXT
 40
0.7975490126
  9
$DIMTOL
 70
1
  9
$DIMLIM
 70
0
  9
$DIMTFAC
 40
1.0
  9
$DIMTP
 40
0.01
  9
$DIMTM
 40
0.01
  9
$DIMGAP
 40
0.625
  9
$DIMDSEP
 70
46
  9
$AUNITS
 70
0
  9
$PDMODE
 70
3
  9
$PDSIZE
 40
0.3125
  9
$HANDSEED
  5
2B8
  9
$TILEMODE
 70
1
  9
$MEASUREMENT
 70
1
  9
$INSUNITS
 70
4
  0
ENDSEC
  0
SECTION
  2
CLASSES
  0
CLASS
  1
ACDBDICTIONARYWDFLT
  2
AcDbDictionaryWithDefault
  3
AutoCAD 2000
 90
0
 91
1
280
0
281
0
  0
CLASS
  1
ACDBPLACEHOLDER
  2
AcDbPlaceHolder
  3
AutoCAD 2000
 90
0
 91
1
280
0
281
0
  0
CLASS
  1
LAYOUT
  2
AcDbLayout
  3
AutoCAD 2000
 90
0
 91
0
280
0
281
0
  0
ENDSEC
  0
SECTION
  2
TABLES
  0
TABLE
  2
VPORT
  5
8
100
AcDbSymbolTable
 70
2
  0
VPORT
  5
1F4
100
AcDbSymbolTableRecord
100
AcDbViewportTableRecord
  2
*ACTIVE
 70
0
 10
0.0
 20
0.0
 11
1.0
 21
1.0
 12
23.9264703775
 22
33.8388652482
 13
0.0
 23
0.0
 14
1.0
 24
1.0
 15
0.0
 25
0.0
 16
0.0
 26
0.0
 36
1.0
 17
0.0
 27
0.0
 37
0.0
 40
67.6777304965
 41
0.7070707071
 42
50.0
 43
0.0
 44
0.0
 50
0.0
 51
0.0
 71
0
 72
100
 73
1
 74
1
 75
0
 76
0
 77
0
 78
0
  0
ENDTAB
  0
TABLE
  2
LTYPE
  5
5
100
AcDbSymbolTable
 70
6
  0
LTYPE
  5
14
100
AcDbSymbolTableRecord
100
AcDbLinetypeTableRecord
  2
BYBLOCK
 70
0
  3

 72
65
 73
0
 40
0.0
  0
LTYPE
  5
15
100
AcDbSymbolTableRecord
100
AcDbLinetypeTableRecord
  2
BYLAYER
 70
0
  3

 72
65
 73
0
 40
0.0
  0
LTYPE
  5
16
100
AcDbSymbolTableRecord
100
AcDbLinetypeTableRecord
  2
CONTINUOUS
 70
64
  3
Solid line
 72
65
 73
0
 40
0.0
  0
LTYPE
  5
1F5
100
AcDbSymbolTableRecord
100
AcDbLinetypeTableRecord
  2
CENTER
 70
64
  3
____ _ ____ _ ____ _ ____ _ ____ _ ____ _ ____
 72
65
 73
4
 40
0.6
 49
0.375
 74
0
 49
-0.075
 74
0
 49
0.075
 74
0
 49
-0.075
 74
0
  0
LTYPE
  5
1F6
100
AcDbSymbolTableRecord
100
AcDbLinetypeTableRecord
  2
HIDDEN
 70
64
  3
- - - - - - - - - - - - - - - - - - - -
 72
65
 73
2
 40
0.2
 49
0.1
 74
0
 49
-0.1
 74
0
  0
LTYPE
  5
1F7
100
AcDbSymbolTableRecord
100
AcDbLinetypeTableRecord
  2
PHANTOM
 70
64
  3
_____ _ _ _____ _ _ _____ _ _ _____
 72
65
 73
6
 40
0.8
 49
0.45
 74
0
 49
-0.05
 74
0
 49
0.1
 74
0
 49
-0.05
 74
0
 49
0.1
 74
0
 49
-0.05
 74
0
  0
LTYPE
  5
1F8
100
AcDbSymbolTableRecord
100
AcDbLinetypeTableRecord
  2
DOT
 70
64
  3
. . . . . . . . . . . . . . . . . . . .
 72
65
 73
2
 40
0.2
 49
0.1
 74
0
 49
-0.1
 74
0
  0
LTYPE
  5
1F9
100
AcDbSymbolTableRecord
100
AcDbLinetypeTableRecord
  2
DASHED
 70
64
  3
- - - - - - - - - - - - - - - - - - - -
 72
65
 73
2
 40
0.2
 49
0.1
 74
0
 49
-0.1
 74
0
  0
ENDTAB
  0
TABLE
  2
LAYER
  5
2
100
AcDbSymbolTable
 70
36
  0
LAYER
  5
10
100
AcDbSymbolTableRecord
100
AcDbLayerTableRecord
  2
0
 70
0
 62
7
  6
CONTINUOUS
370
-3
390
F
  0
LAYER
  5
1FA
100
AcDbSymbolTableRecord
100
AcDbLayerTableRecord
  2
DEFAULT_1
 70
0
 62
7
  6
CENTER
370
-3
390
F
  0
LAYER
  5
1FB
100
AcDbSymbolTableRecord
100
AcDbLayerTableRecord
  2
DEFAULT_2
 70
0
 62
7
  6
HIDDEN
370
-3
390
F
  0
LAYER
  5
1FC
100
AcDbSymbolTableRecord
100
AcDbLayerTableRecord
  2
DEFAULT_3
 70
0
 62
7
  6
PHANTOM
370
-3
390
F
  0
LAYER
  5
1FD
100
AcDbSymbolTableRecord
100
AcDbLayerTableRecord
  2
00_COMPONENTS
 70
0
 62
7
  6
CONTINUOUS
370
-3
390
F
  0
LAYER
  5
1FE
100
AcDbSymbolTableRecord
100
AcDbLayerTableRecord
  2
01_1_DEFAULT_DATUMS
 70
0
 62
7
  6
CONTINUOUS
370
-3
390
F
  0
LAYER
  5
1FF
100
AcDbSymbolTableRecord
100
AcDbLayerTableRecord
  2
01_PLANES
 70
0
 62
7
  6
CONTINUOUS
370
-3
390
F
  0
LAYER
  5
200
100
AcDbSymbolTableRecord
100
AcDbLayerTableRecord
  2
02_COORD_SYS
 70
0
 62
7
  6
CONTINUOUS
370
-3
390
F
  0
LAYER
  5
201
100
AcDbSymbolTableRecord
100
AcDbLayerTableRecord
  2
03_AXES
 70
0
 62
7
  6
CONTINUOUS
370
-3
390
F
  0
LAYER
  5
202
100
AcDbSymbolTableRecord
100
AcDbLayerTableRecord
  2
04_POINTS
 70
0
 62
7
  6
CONTINUOUS
370
-3
390
F
  0
LAYER
  5
203
100
AcDbSymbolTableRecord
100
AcDbLayerTableRecord
  2
05_CURVES
 70
0
 62
7
  6
CONTINUOUS
370
-3
390
F
  0
LAYER
  5
204
100
AcDbSymbolTableRecord
100
AcDbLayerTableRecord
  2
06_SURFS
 70
0
 62
7
  6
CONTINUOUS
370
-3
390
F
  0
LAYER
  5
205
100
AcDbSymbolTableRecord
100
AcDbLayerTableRecord
  2
07_COSMETICS
 70
0
 62
7
  6
CONTINUOUS
370
-3
390
F
  0
LAYER
  5
206
100
AcDbSymbolTableRecord
100
AcDbLayerTableRecord
  2
10_NOTES
 70
0
 62
7
  6
CONTINUOUS
370
-3
390
F
  0
LAYER
  5
207
100
AcDbSymbolTableRecord
100
AcDbLayerTableRecord
  2
11_NOTES_PUB
 70
0
 62
7
  6
CONTINUOUS
370
-3
390
F
  0
LAYER
  5
208
100
AcDbSymbolTableRecord
100
AcDbLayerTableRecord
  2
13_REF_GTOL
 70
0
 62
7
  6
CONTINUOUS
370
-3
390
F
  0
LAYER
  5
209
100
AcDbSymbolTableRecord
100
AcDbLayerTableRecord
  2
16_MISC
 70
0
 62
7
  6
CONTINUOUS
370
-3
390
F
  0
LAYER
  5
20A
100
AcDbSymbolTableRecord
100
AcDbLayerTableRecord
  2
17_NO_PRINT
 70
0
 62
7
  6
CONTINUOUS
370
-3
390
F
  0
LAYER
  5
20B
100
AcDbSymbolTableRecord
100
AcDbLayerTableRecord
  2
18_DATUM_CAMS_JOINTS
 70
0
 62
7
  6
CONTINUOUS
370
-3
390
F
  0
LAYER
  5
20C
100
AcDbSymbolTableRecord
100
AcDbLayerTableRecord
  2
19_DATUM_FUNCTIONAL
 70
0
 62
7
  6
CONTINUOUS
370
-3
390
F
  0
LAYER
  5
20D
100
AcDbSymbolTableRecord
100
AcDbLayerTableRecord
  2
20_DATUM_KINEMATIC_SCHEME
 70
0
 62
7
  6
CONTINUOUS
370
-3
390
F
  0
ENDTAB
  0
TABLE
  2
STYLE
  5
3
100
AcDbSymbolTable
 70
1
  0
STYLE
  5
11
100
AcDbSymbolTableRecord
100
AcDbTextStyleTableRecord
  2
STANDARD
 70
0
 40
0.0
 41
1.0
 50
0.0
 71
0
 42
0.2
  3
ARIAL.TTF
  4

  0
STYLE
  5
20E
100
AcDbSymbolTableRecord
100
AcDbTextStyleTableRecord
  2
TEXTSTYLE_1
 70
0
 40
0.0
 41
0.8
 50
0.0
 71
0
 42
0.2
  3
gdt
  4

  0
ENDTAB
  0
TABLE
  2
VIEW
  5
6
100
AcDbSymbolTable
 70
0
  0
ENDTAB
  0
TABLE
  2
UCS
  5
7
100
AcDbSymbolTable
 70
0
  0
ENDTAB
  0
TABLE
  2
APPID
  5
9
100
AcDbSymbolTable
 70
1
  0
APPID
  5
20F
100
AcDbSymbolTableRecord
100
AcDbRegAppTableRecord
  2
ACAD
 70
0
  0
ENDTAB
  0
TABLE
  2
BLOCK_RECORD
  5
1
100
AcDbSymbolTable
 70
0
  0
BLOCK_RECORD
  5
210
100
AcDbSymbolTableRecord
100
AcDbBlockTableRecord
  2
*Model_Space
  0
BLOCK_RECORD
  5
211
100
AcDbSymbolTableRecord
100
AcDbBlockTableRecord
  2
*Paper_Space
  0
BLOCK_RECORD
  5
212
100
AcDbSymbolTableRecord
100
AcDbBlockTableRecord
  2
_FILLED
  0
ENDTAB
  0
TABLE
  2
DIMSTYLE
  5
A
100
AcDbSymbolTable
 70
1
100
AcDbDimStyleTable
 71
0
  0
DIMSTYLE
105
213
100
AcDbSymbolTableRecord
100
AcDbDimStyleTableRecord
  2
STANDARD
 70
0
  3

  4

 40
1.0
 41
0.5696778661
 42
1.0
 43
0.38
 44
1.0
 45
0.0
 46
0.0
 47
0.01
 48
0.01
140
0.7975490126
141
0.09
142
0.0
143
25.4
144
1.0
145
0.0
146
1.0
147
0.625
 71
1
 72
0
 73
0
 74
0
 75
0
 76
0
 77
1
 78
8
 79
2
170
0
171
1
172
0
173
0
174
0
175
0
176
0
177
0
178
0
270
2
179
2
271
2
272
2
273
2
274
2
275
0
280
0
281
0
282
0
283
1
284
8
285
0
286
0
287
3
288
0
340
11
278
46
341
212
342
212
343
212
344
212
  0
ENDTAB
  0
ENDSEC
  0
SECTION
  2
BLOCKS
  0
BLOCK
  5
20
100
AcDbEntity
  8
0
100
AcDbBlockBegin
  2
*Model_Space
 70
0
 10
0.0
 20
0.0
 30
0.0
  3
*Model_Space
  1

  0
ENDBLK
  5
21
100
AcDbEntity
  8
0
100
AcDbBlockEnd
  0
BLOCK
  5
1C
100
AcDbEntity
  8
0
100
AcDbBlockBegin
  2
*Paper_Space
 70
0
 10
0.0
 20
0.0
 30
0.0
  3
*Paper_Space
  1

  0
ENDBLK
  5
1D
100
AcDbEntity
  8
0
100
AcDbBlockEnd
  0
BLOCK
  5
214
100
AcDbEntity
  8
0
100
AcDbBlockBegin
  2
_FILLED
 70
64
 10
0.0
 20
0.0
  3
_FILLED
  1

  0
SOLID
  5
215
100
AcDbEntity
  8
0
  6
BYBLOCK
 62
0
100
AcDbTrace
 10
0.0
 20
0.0
 11
-1.0
 21
0.25
 12
-1.0
 22
-0.25
 13
-1.0
 23
-0.25
  0
ENDBLK
  5
216
100
AcDbEntity
  8
0
  6
BYBLOCK
 62
0
100
AcDbBlockEnd
  0
ENDSEC
  0
SECTION
  2
ENTITIES
  0
LINE
  5
217
100
AcDbEntity
  8
0
100
AcDbLine
 62
7
  6
BYLAYER
 10
9.2578178953
 20
4.5146099291
 11
39.2578178953
 21
4.5146099291
  0
LINE
  5
218
100
AcDbEntity
  8
0
100
AcDbLine
 62
7
  6
BYLAYER
 10
39.2578178953
 20
5.0146099291
 11
9.2578178953
 21
5.0146099291
  0
LINE
  5
219
100
AcDbEntity
  8
0
100
AcDbLine
 62
7
  6
BYLAYER
 10
40.7578178953
 20
6.0146099291
 11
40.2578178953
 21
6.0146099291
  0
LINE
  5
21A
100
AcDbEntity
  8
0
100
AcDbLine
 62
7
  6
BYLAYER
 10
8.2578178953
 20
6.0146099291
 11
7.7578178953
 21
6.0146099291
  0
LINE
  5
21B
100
AcDbEntity
  8
0
100
AcDbLine
 62
7
  6
BYLAYER
 10
11.7578178953
 20
6.5146099291
 11
12.7578178953
 21
6.5146099291
  0
LINE
  5
21C
100
AcDbEntity
  8
0
100
AcDbLine
 62
7
  6
BYLAYER
 10
35.7578178953
 20
6.5146099291
 11
36.7578178953
 21
6.5146099291
  0
LINE
  5
21D
100
AcDbEntity
  8
0
100
AcDbLine
 62
7
  6
BYLAYER
 10
9.7578178953
 20
8.5146099291
 11
14.7578178953
 21
8.5146099291
  0
LINE
  5
21E
100
AcDbEntity
  8
0
100
AcDbLine
 62
7
  6
BYLAYER
 10
33.7578178953
 20
8.5146099291
 11
38.7578178953
 21
8.5146099291
  0
LINE
  5
21F
100
AcDbEntity
  8
0
100
AcDbLine
 62
7
  6
BYLAYER
 10
36.7578178953
 20
9.0146099291
 11
35.7578178953
 21
9.0146099291
  0
LINE
  5
220
100
AcDbEntity
  8
0
100
AcDbLine
 62
7
  6
BYLAYER
 10
12.7578178953
 20
9.0146099291
 11
11.7578178953
 21
9.0146099291
  0
LINE
  5
221
100
AcDbEntity
  8
0
100
AcDbLine
 62
7
  6
BYLAYER
 10
11.7578178953
 20
9.5146099291
 11
12.7578178953
 21
8.5146099291
  0
LINE
  5
222
100
AcDbEntity
  8
0
100
AcDbLine
 62
7
  6
BYLAYER
 10
19.5578178953
 20
61.6646099291
 11
19.4578178953
 21
61.5646099291
  0
LINE
  5
223
100
AcDbEntity
  8
0
100
AcDbLine
 62
7
  6
BYLAYER
 10
9.7578178953
 20
9.5146099291
 11
14.7578178953
 21
9.5146099291
  0
LINE
  5
224
100
AcDbEntity
  8
0
100
AcDbLine
 62
7
  6
BYLAYER
 10
33.7578178953
 20
9.5146099291
 11
38.7578178953
 21
9.5146099291
  0
LINE
  5
225
100
AcDbEntity
  8
0
100
AcDbLine
 62
7
  6
BYLAYER
 10
11.7578178953
 20
11.5146099291
 11
12.7578178953
 21
11.5146099291
  0
LINE
  5
226
100
AcDbEntity
  8
0
100
AcDbLine
 62
7
  6
BYLAYER
 10
35.7578178953
 20
11.5146099291
 11
36.7578178953
 21
11.5146099291
  0
LINE
  5
227
100
AcDbEntity
  8
0
100
AcDbLine
 62
7
  6
BYLAYER
 10
21.5578178953
 20
61.7146099291
 11
21.5078178953
 21
61.6646099291
  0
LINE
  5
228
100
AcDbEntity
  8
0
100
AcDbLine
 62
7
  6
BYLAYER
 10
7.7578178953
 20
36.0146099291
 11
7.7578178953
 21
6.0146099291
  0
LINE
  5
229
100
AcDbEntity
  8
0
100
AcDbLine
 62
7
  6
BYLAYER
 10
8.2578178953
 20
6.0146099291
 11
8.2578178953
 21
36.0146099291
  0
LINE
  5
22A
100
AcDbEntity
  8
0
100
AcDbLine
 62
7
  6
BYLAYER
 10
9.2578178953
 20
4.5146099291
 11
9.2578178953
 21
5.0146099291
  0
LINE
  5
22B
100
AcDbEntity
  8
0
100
AcDbLine
 62
7
  6
BYLAYER
 10
9.2578178953
 20
37.0146099291
 11
9.2578178953
 21
37.5146099291
  0
LINE
  5
22C
100
AcDbEntity
  8
0
100
AcDbLine
 62
7
  6
BYLAYER
 10
9.7578178953
 20
8.5146099291
 11
9.7578178953
 21
9.5146099291
  0
LINE
  5
22D
100
AcDbEntity
  8
0
100
AcDbLine
 62
7
  6
BYLAYER
 10
9.7578178953
 20
32.5146099291
 11
9.7578178953
 21
33.5146099291
  0
LINE
  5
22E
100
AcDbEntity
  8
0
100
AcDbLine
 62
7
  6
BYLAYER
 10
11.7578178953
 20
6.5146099291
 11
11.7578178953
 21
11.5146099291
  0
LINE
  5
22F
100
AcDbEntity
  8
0
100
AcDbLine
 62
7
  6
BYLAYER
 10
11.7578178953
 20
30.5146099291
 11
11.7578178953
 21
35.5146099291
  0
LINE
  5
230
100
AcDbEntity
  8
0
100
AcDbLine
 62
7
  6
BYLAYER
 10
12.2578178953
 20
33.5146099291
 11
12.2578178953
 21
32.5146099291
  0
LINE
  5
231
100
AcDbEntity
  8
0
100
AcDbLine
 62
7
  6
BYLAYER
 10
12.2578178953
 20
9.5146099291
 11
12.2578178953
 21
8.5146099291
  0
LINE
  5
232
100
AcDbEntity
  8
0
100
AcDbLine
 62
7
  6
BYLAYER
 10
12.7578178953
 20
6.5146099291
 11
12.7578178953
 21
11.5146099291
  0
LINE
  5
233
100
AcDbEntity
  8
0
100
AcDbLine
 62
7
  6
BYLAYER
 10
12.7578178953
 20
30.5146099291
 11
12.7578178953
 21
35.5146099291
  0
LINE
  5
234
100
AcDbEntity
  8
0
100
AcDbLine
 62
7
  6
BYLAYER
 10
28.9578178953
 20
56.6646099291
 11
29.0578178953
 21
56.7646099291
  0
LINE
  5
235
100
AcDbEntity
  8
0
100
AcDbLine
 62
7
  6
BYLAYER
 10
14.2578178953
 20
43.5646099291
 11
14.2578178953
 21
41.5646099291
  0
LINE
  5
236
100
AcDbEntity
  8
0
100
AcDbLine
 62
7
  6
BYLAYER
 10
14.2578178953
 20
41.0146099291
 11
14.2578178953
 21
37.5146099291
  0
LINE
  5
237
100
AcDbEntity
  8
0
100
AcDbLine
 62
7
  6
BYLAYER
 10
14.7578178953
 20
8.5146099291
 11
14.7578178953
 21
9.5146099291
  0
LINE
  5
238
100
AcDbEntity
  8
0
100
AcDbLine
 62
7
  6
BYLAYER
 10
14.7578178953
 20
32.5146099291
 11
14.7578178953
 21
33.5146099291
  0
LINE
  5
239
100
AcDbEntity
  8
0
100
AcDbLine
 62
7
  6
BYLAYER
 10
14.4053588789
 20
47.1646099291
 11
14.2578178953
 21
43.5646099291
  0
LINE
  5
23A
100
AcDbEntity
  8
0
100
AcDbLine
 62
7
  6
BYLAYER
 10
24.5578178953
 20
47.1646099291
 11
24.2578178953
 21
46.8646099291
  0
LINE
  5
23B
100
AcDbEntity
  8
0
100
AcDbLine
 62
7
  6
BYLAYER
 10
12.7578178953
 20
32.5146099291
 11
11.7578178953
 21
33.5146099291
  0
LINE
  5
23C
100
AcDbEntity
  8
0
100
AcDbLine
 62
7
  6
BYLAYER
 10
35.7578178953
 20
9.5146099291
 11
36.7578178953
 21
8.5146099291
  0
LINE
  5
23D
100
AcDbEntity
  8
0
100
AcDbLine
 62
7
  6
BYLAYER
 10
15.7578178953
 20
41.5646099291
 11
15.7578178953
 21
41.0146099291
  0
LINE
  5
23E
100
AcDbEntity
  8
0
100
AcDbLine
 62
7
  6
BYLAYER
 10
16.7578178953
 20
47.1646099291
 11
16.7578178953
 21
47.6646099291
  0
LINE
  5
23F
100
AcDbEntity
  8
0
100
AcDbLine
 62
7
  6
BYLAYER
 10
11.7578178953
 20
32.5146099291
 11
12.7578178953
 21
33.5146099291
  0
LINE
  5
240
100
AcDbEntity
  8
0
100
AcDbLine
 62
7
  6
BYLAYER
 10
18.1978178953
 20
56.0194852676
 11
18.1978178953
 21
55.6118497674
  0
LINE
  5
241
100
AcDbEntity
  8
0
100
AcDbLine
 62
7
  6
BYLAYER
 10
18.2578178953
 20
49.6646099291
 11
18.2578178953
 21
47.6646099291
  0
LINE
  5
242
100
AcDbEntity
  8
0
100
AcDbLine
 62
7
  6
BYLAYER
 10
19.4578178953
 20
61.5646099277
 11
19.4578178953
 21
56.7646099305
  0
LINE
  5
243
100
AcDbEntity
  8
0
100
AcDbLine
 62
7
  6
BYLAYER
 10
19.5324147044
 20
57.4646099291
 11
19.5324147044
 21
60.8646099291
  0
LINE
  5
244
100
AcDbEntity
  8
0
100
AcDbLine
 62
7
  6
BYLAYER
 10
19.7578178953
 20
47.6646099291
 11
19.7578178953
 21
49.6646099291
  0
LINE
  5
245
100
AcDbEntity
  8
0
100
AcDbLine
 62
7
  6
BYLAYER
 10
21.2578178953
 20
49.6646099291
 11
21.2578178953
 21
55.6118497674
  0
LINE
  5
246
100
AcDbEntity
  8
0
100
AcDbLine
 62
7
  6
BYLAYER
 10
22.1667655286
 20
62.7146080772
 11
22.1667655286
 21
62.2646099291
  0
LINE
  5
247
100
AcDbEntity
  8
0
100
AcDbLine
 62
7
  6
BYLAYER
 10
11.7578178953
 20
30.5146099291
 11
12.7578178953
 21
30.5146099291
  0
LINE
  5
248
100
AcDbEntity
  8
0
100
AcDbLine
 62
7
  6
BYLAYER
 10
35.7578178953
 20
30.5146099291
 11
36.7578178953
 21
30.5146099291
  0
LINE
  5
249
100
AcDbEntity
  8
0
100
AcDbLine
 62
7
  6
BYLAYER
 10
24.1832210861
 20
60.8646099291
 11
24.1832210861
 21
57.4646099291
  0
LINE
  5
24A
100
AcDbEntity
  8
0
100
AcDbLine
 62
7
  6
BYLAYER
 10
24.2578178953
 20
46.722374925
 11
24.2578178953
 21
46.8646099291
  0
LINE
  5
24B
100
AcDbEntity
  8
0
100
AcDbLine
 62
7
  6
BYLAYER
 10
24.3324147044
 20
57.4646099291
 11
24.3324147044
 21
60.8646099291
  0
LINE
  5
24C
100
AcDbEntity
  8
0
100
AcDbLine
 62
7
  6
BYLAYER
 10
9.7578178953
 20
32.5146099291
 11
14.7578178953
 21
32.5146099291
  0
LINE
  5
24D
100
AcDbEntity
  8
0
100
AcDbLine
 62
7
  6
BYLAYER
 10
33.7578178953
 20
32.5146099291
 11
38.7578178953
 21
32.5146099291
  0
LINE
  5
24E
100
AcDbEntity
  8
0
100
AcDbLine
 62
7
  6
BYLAYER
 10
36.7578178953
 20
33.0146099291
 11
35.7578178953
 21
33.0146099291
  0
LINE
  5
24F
100
AcDbEntity
  8
0
100
AcDbLine
 62
7
  6
BYLAYER
 10
12.7578178953
 20
33.0146099291
 11
11.7578178953
 21
33.0146099291
  0
LINE
  5
250
100
AcDbEntity
  8
0
100
AcDbLine
 62
7
  6
BYLAYER
 10
9.7578178953
 20
33.5146099291
 11
14.7578178953
 21
33.5146099291
  0
LINE
  5
251
100
AcDbEntity
  8
0
100
AcDbLine
 62
7
  6
BYLAYER
 10
33.7578178953
 20
33.5146099291
 11
38.7578178953
 21
33.5146099291
  0
LINE
  5
252
100
AcDbEntity
  8
0
100
AcDbLine
 62
7
  6
BYLAYER
 10
26.3488702619
 20
62.2646099291
 11
26.3488702619
 21
62.7146080771
  0
LINE
  5
253
100
AcDbEntity
  8
0
100
AcDbLine
 62
7
  6
BYLAYER
 10
11.7578178953
 20
35.5146099291
 11
12.7578178953
 21
35.5146099291
  0
LINE
  5
254
100
AcDbEntity
  8
0
100
AcDbLine
 62
7
  6
BYLAYER
 10
35.7578178953
 20
35.5146099291
 11
36.7578178953
 21
35.5146099291
  0
LINE
  5
255
100
AcDbEntity
  8
0
100
AcDbLine
 62
7
  6
BYLAYER
 10
7.7578178953
 20
36.0146099291
 11
8.2578178953
 21
36.0146099291
  0
LINE
  5
256
100
AcDbEntity
  8
0
100
AcDbLine
 62
7
  6
BYLAYER
 10
40.2578178953
 20
36.0146099291
 11
40.7578178953
 21
36.0146099291
  0
LINE
  5
257
100
AcDbEntity
  8
0
100
AcDbLine
 62
7
  6
BYLAYER
 10
27.2578178953
 20
49.6646099291
 11
27.2578178953
 21
55.6118497674
  0
LINE
  5
258
100
AcDbEntity
  8
0
100
AcDbLine
 62
7
  6
BYLAYER
 10
28.7578178953
 20
49.6646099291
 11
28.7578178953
 21
47.6646099291
  0
LINE
  5
259
100
AcDbEntity
  8
0
100
AcDbLine
 62
7
  6
BYLAYER
 10
28.9832210861
 20
60.8646099291
 11
28.9832210861
 21
57.4646099291
  0
LINE
  5
25A
100
AcDbEntity
  8
0
100
AcDbLine
 62
7
  6
BYLAYER
 10
9.2578178953
 20
37.0146099291
 11
39.2578178953
 21
37.0146099291
  0
LINE
  5
25B
100
AcDbEntity
  8
0
100
AcDbLine
 62
7
  6
BYLAYER
 10
39.2578178953
 20
37.5146099291
 11
27.3803168945
 21
37.5146099291
  0
LINE
  5
25C
100
AcDbEntity
  8
0
100
AcDbLine
 62
7
  6
BYLAYER
 10
21.1353188961
 20
37.5146099291
 11
9.2578178953
 21
37.5146099291
  0
LINE
  5
25D
100
AcDbEntity
  8
0
100
AcDbLine
 62
7
  6
BYLAYER
 10
29.0578178953
 20
56.7646099305
 11
29.0578178953
 21
61.5646099277
  0
LINE
  5
25E
100
AcDbEntity
  8
0
100
AcDbLine
 62
7
  6
BYLAYER
 10
30.2578178953
 20
47.6646099291
 11
30.2578178953
 21
49.6646099291
  0
LINE
  5
25F
100
AcDbEntity
  8
0
100
AcDbLine
 62
7
  6
BYLAYER
 10
30.3178178953
 20
55.6118497674
 11
30.3178178953
 21
56.0194852676
  0
LINE
  5
260
100
AcDbEntity
  8
0
100
AcDbLine
 62
7
  6
BYLAYER
 10
31.7578178953
 20
47.6646099291
 11
31.7578178953
 21
47.1646099291
  0
LINE
  5
261
100
AcDbEntity
  8
0
100
AcDbLine
 62
7
  6
BYLAYER
 10
32.7578178953
 20
41.5646099291
 11
32.7578178953
 21
41.0146099291
  0
LINE
  5
262
100
AcDbEntity
  8
0
100
AcDbLine
 62
7
  6
BYLAYER
 10
11.7578178953
 20
8.5146099291
 11
12.7578178953
 21
9.5146099291
  0
LINE
  5
263
100
AcDbEntity
  8
0
100
AcDbLine
 62
7
  6
BYLAYER
 10
35.7578178953
 20
32.5146099291
 11
36.7578178953
 21
33.5146099291
  0
LINE
  5
264
100
AcDbEntity
  8
0
100
AcDbLine
 62
7
  6
BYLAYER
 10
14.2578178953
 20
41.0146099291
 11
34.2578178953
 21
41.0146099291
  0
LINE
  5
265
100
AcDbEntity
  8
0
100
AcDbLine
 62
7
  6
BYLAYER
 10
34.2577333604
 20
41.5646099291
 11
14.2579024301
 21
41.5646099291
  0
LINE
  5
266
100
AcDbEntity
  8
0
100
AcDbLine
 62
7
  6
BYLAYER
 10
35.7578178953
 20
33.5146099291
 11
36.7578178953
 21
32.5146099291
  0
LINE
  5
267
100
AcDbEntity
  8
0
100
AcDbLine
 62
7
  6
BYLAYER
 10
34.1102769117
 20
47.1646099291
 11
34.2578178953
 21
43.5646099291
  0
LINE
  5
268
100
AcDbEntity
  8
0
100
AcDbLine
 62
7
  6
BYLAYER
 10
33.7578178953
 20
8.5146099291
 11
33.7578178953
 21
9.5146099291
  0
LINE
  5
269
100
AcDbEntity
  8
0
100
AcDbLine
 62
7
  6
BYLAYER
 10
33.7578178953
 20
32.5146099291
 11
33.7578178953
 21
33.5146099291
  0
LINE
  5
26A
100
AcDbEntity
  8
0
100
AcDbLine
 62
7
  6
BYLAYER
 10
34.2578178953
 20
43.5646099291
 11
34.2578178953
 21
41.5646099291
  0
LINE
  5
26B
100
AcDbEntity
  8
0
100
AcDbLine
 62
7
  6
BYLAYER
 10
34.2578178953
 20
37.5146099291
 11
34.2578178953
 21
41.0146099291
  0
LINE
  5
26C
100
AcDbEntity
  8
0
100
AcDbLine
 62
7
  6
BYLAYER
 10
14.2578178953
 20
43.5646099291
 11
34.2578178953
 21
43.5646099291
  0
LINE
  5
26D
100
AcDbEntity
  8
0
100
AcDbLine
 62
7
  6
BYLAYER
 10
24.2578178953
 20
46.8646099291
 11
23.9578178953
 21
47.1646099291
  0
LINE
  5
26E
100
AcDbEntity
  8
0
100
AcDbLine
 62
7
  6
BYLAYER
 10
35.7578178953
 20
6.5146099291
 11
35.7578178953
 21
11.5146099291
  0
LINE
  5
26F
100
AcDbEntity
  8
0
100
AcDbLine
 62
7
  6
BYLAYER
 10
35.7578178953
 20
30.5146099291
 11
35.7578178953
 21
35.5146099291
  0
LINE
  5
270
100
AcDbEntity
  8
0
100
AcDbLine
 62
7
  6
BYLAYER
 10
36.2578178953
 20
33.5146099291
 11
36.2578178953
 21
32.5146099291
  0
LINE
  5
271
100
AcDbEntity
  8
0
100
AcDbLine
 62
7
  6
BYLAYER
 10
36.2578178953
 20
9.5146099291
 11
36.2578178953
 21
8.5146099291
  0
LINE
  5
272
100
AcDbEntity
  8
0
100
AcDbLine
 62
7
  6
BYLAYER
 10
36.7578178953
 20
6.5146099291
 11
36.7578178953
 21
11.5146099291
  0
LINE
  5
273
100
AcDbEntity
  8
0
100
AcDbLine
 62
7
  6
BYLAYER
 10
36.7578178953
 20
30.5146099291
 11
36.7578178953
 21
35.5146099291
  0
LINE
  5
274
100
AcDbEntity
  8
0
100
AcDbLine
 62
7
  6
BYLAYER
 10
14.4054270021
 20
47.1646099291
 11
34.1102163338
 21
47.1646099291
  0
LINE
  5
275
100
AcDbEntity
  8
0
100
AcDbLine
 62
7
  6
BYLAYER
 10
19.5578178953
 20
56.6646099291
 11
19.4578178953
 21
56.7646099291
  0
LINE
  5
276
100
AcDbEntity
  8
0
100
AcDbLine
 62
7
  6
BYLAYER
 10
38.7578178953
 20
8.5146099291
 11
38.7578178953
 21
9.5146099291
  0
LINE
  5
277
100
AcDbEntity
  8
0
100
AcDbLine
 62
7
  6
BYLAYER
 10
38.7578178953
 20
32.5146099291
 11
38.7578178953
 21
33.5146099291
  0
LINE
  5
278
100
AcDbEntity
  8
0
100
AcDbLine
 62
7
  6
BYLAYER
 10
39.2578178953
 20
37.5146099291
 11
39.2578178953
 21
37.0146099291
  0
LINE
  5
279
100
AcDbEntity
  8
0
100
AcDbLine
 62
7
  6
BYLAYER
 10
39.2578178953
 20
5.0146099291
 11
39.2578178953
 21
4.5146099291
  0
LINE
  5
27A
100
AcDbEntity
  8
0
100
AcDbLine
 62
7
  6
BYLAYER
 10
16.7578178953
 20
47.6646099291
 11
18.2578178953
 21
47.6646099291
  0
LINE
  5
27B
100
AcDbEntity
  8
0
100
AcDbLine
 62
7
  6
BYLAYER
 10
19.7578178953
 20
47.6646099291
 11
28.7578178953
 21
47.6646099291
  0
LINE
  5
27C
100
AcDbEntity
  8
0
100
AcDbLine
 62
7
  6
BYLAYER
 10
30.2578178953
 20
47.6646099291
 11
31.7578178953
 21
47.6646099291
  0
LINE
  5
27D
100
AcDbEntity
  8
0
100
AcDbLine
 62
7
  6
BYLAYER
 10
18.2578178953
 20
49.6646099291
 11
30.2578178953
 21
49.6646099291
  0
LINE
  5
27E
100
AcDbEntity
  8
0
100
AcDbLine
 62
7
  6
BYLAYER
 10
40.2578178953
 20
36.0146099291
 11
40.2578178953
 21
6.0146099291
  0
LINE
  5
27F
100
AcDbEntity
  8
0
100
AcDbLine
 62
7
  6
BYLAYER
 10
40.7578178953
 20
6.0146099291
 11
40.7578178953
 21
36.0146099291
  0
LINE
  5
280
100
AcDbEntity
  8
0
100
AcDbLine
 62
7
  6
BYLAYER
 10
30.3178178953
 20
55.6118497674
 11
18.1978178953
 21
55.6118497674
  0
LINE
  5
281
100
AcDbEntity
  8
0
100
AcDbLine
 62
7
  6
BYLAYER
 10
18.1978178953
 20
56.0194852676
 11
30.3178178953
 21
56.0194852676
  0
LINE
  5
282
100
AcDbEntity
  8
0
100
AcDbLine
 62
7
  6
BYLAYER
 10
26.9578178953
 20
61.7146099291
 11
27.0078178953
 21
61.6646099291
  0
LINE
  5
283
100
AcDbEntity
  8
0
100
AcDbLine
 62
7
  6
BYLAYER
 10
28.9578152833
 20
56.6646099291
 11
19.5578205073
 21
56.6646099291
  0
LINE
  5
284
100
AcDbEntity
  8
0
100
AcDbLine
 62
7
  6
BYLAYER
 10
29.0578178953
 20
57.4646099291
 11
28.9832210861
 21
57.4646099291
  0
LINE
  5
285
100
AcDbEntity
  8
0
100
AcDbLine
 62
7
  6
BYLAYER
 10
24.3324147044
 20
57.4646099291
 11
24.1832210861
 21
57.4646099291
  0
LINE
  5
286
100
AcDbEntity
  8
0
100
AcDbLine
 62
7
  6
BYLAYER
 10
19.5324147044
 20
57.4646099291
 11
19.4578178953
 21
57.4646099291
  0
LINE
  5
287
100
AcDbEntity
  8
0
100
AcDbLine
 62
7
  6
BYLAYER
 10
28.9578178953
 20
61.6646099291
 11
29.0578178953
 21
61.5646099291
  0
LINE
  5
288
100
AcDbEntity
  8
0
100
AcDbLine
 62
7
  6
BYLAYER
 10
35.7578178953
 20
8.5146099291
 11
36.7578178953
 21
9.5146099291
  0
LINE
  5
289
100
AcDbEntity
  8
0
100
AcDbLine
 62
7
  6
BYLAYER
 10
19.4578178953
 20
60.8646099291
 11
19.5324147044
 21
60.8646099291
  0
LINE
  5
28A
100
AcDbEntity
  8
0
100
AcDbLine
 62
7
  6
BYLAYER
 10
24.1832210861
 20
60.8646099291
 11
24.3324147044
 21
60.8646099291
  0
LINE
  5
28B
100
AcDbEntity
  8
0
100
AcDbLine
 62
7
  6
BYLAYER
 10
28.9832210861
 20
60.8646099291
 11
29.0578178953
 21
60.8646099291
  0
LINE
  5
28C
100
AcDbEntity
  8
0
100
AcDbLine
 62
7
  6
BYLAYER
 10
19.5578205073
 20
61.6646099291
 11
28.9578152833
 21
61.6646099291
  0
LINE
  5
28D
100
AcDbEntity
  8
0
100
AcDbLine
 62
7
  6
BYLAYER
 10
21.5578337219
 20
61.7146099291
 11
21.604518063
 21
61.7146099291
  0
LINE
  5
28E
100
AcDbEntity
  8
0
100
AcDbLine
 62
7
  6
BYLAYER
 10
26.9111177275
 20
61.7146099291
 11
26.9578020687
 21
61.7146099291
  0
LINE
  5
28F
100
AcDbEntity
  8
0
100
AcDbLine
 62
7
  6
BYLAYER
 10
26.3488702619
 20
62.2646099291
 11
22.1667655286
 21
62.2646099291
  0
LINE
  5
290
100
AcDbEntity
  8
0
100
AcDbLine
 62
7
  6
BYLAYER
 10
22.1667655286
 20
62.7146099291
 11
26.3488702619
 21
62.7146099291
  0
LINE
  5
291
100
AcDbEntity
  8
0
100
AcDbLine
 62
7
  6
BYLAYER
 10
22.3730102128
 20
62.9146099291
 11
26.1426255778
 21
62.9146099291
  0
ARC
  5
292
100
AcDbEntity
  8
0
100
AcDbCircle
 62
7
  6
BYLAYER
 10
-79.650194478
 20
-46.6572384668
 40
151.9860874676
100
AcDbArc
 50
45.4826320355
 51
45.779137046
  0
ARC
  5
293
100
AcDbEntity
  8
0
100
AcDbCircle
 62
7
  6
BYLAYER
 10
-38.268706028
 20
-3.7137481679
 40
92.6723134436
100
AcDbArc
 50
45.7916571285
 51
45.9692801599
  0
CIRCLE
  5
294
100
AcDbEntity
  8
0
100
AcDbCircle
 62
7
  6
BYLAYER
 10
12.2578178953
 20
33.0146099291
 40
3.75
  0
CIRCLE
  5
295
100
AcDbEntity
  8
0
100
AcDbCircle
 62
7
  6
BYLAYER
 10
12.2578178953
 20
9.0146099291
 40
3.75
  0
CIRCLE
  5
296
100
AcDbEntity
  8
0
100
AcDbCircle
 62
7
  6
BYLAYER
 10
12.2578178953
 20
9.0146099291
 40
3.5
  0
CIRCLE
  5
297
100
AcDbEntity
  8
0
100
AcDbCircle
 62
7
  6
BYLAYER
 10
12.2578178953
 20
33.0146099291
 40
3.5
  0
ARC
  5
298
100
AcDbEntity
  8
0
100
AcDbCircle
 62
7
  6
BYLAYER
 10
20.1884218221
 20
53.2709326419
 40
3.3936772872
100
AcDbArc
 50
90.0
 51
125.9134522755
  0
CIRCLE
  5
299
100
AcDbEntity
  8
0
100
AcDbCircle
 62
7
  6
BYLAYER
 10
12.2578178953
 20
9.0146099291
 40
3.2
  0
CIRCLE
  5
29A
100
AcDbEntity
  8
0
100
AcDbCircle
 62
7
  6
BYLAYER
 10
12.2578178953
 20
33.0146099291
 40
3.2
  0
ARC
  5
29B
100
AcDbEntity
  8
0
100
AcDbCircle
 62
7
  6
BYLAYER
 10
9.2578178953
 20
36.0146099291
 40
1.5
100
AcDbArc
 50
90.0
 51
180.0
  0
ARC
  5
29C
100
AcDbEntity
  8
0
100
AcDbCircle
 62
7
  6
BYLAYER
 10
9.2578178953
 20
6.0146099291
 40
1.5
100
AcDbArc
 50
180.0
 51
270.0
  0
ARC
  5
29D
100
AcDbEntity
  8
0
100
AcDbCircle
 62
7
  6
BYLAYER
 10
9.2578178953
 20
36.0146099291
 40
1.0
100
AcDbArc
 50
90.0
 51
180.0
  0
ARC
  5
29E
100
AcDbEntity
  8
0
100
AcDbCircle
 62
7
  6
BYLAYER
 10
9.2578178953
 20
6.0146099291
 40
1.0
100
AcDbArc
 50
180.0
 51
270.0
  0
ARC
  5
29F
100
AcDbEntity
  8
0
100
AcDbCircle
 62
7
  6
BYLAYER
 10
128.1658302682
 20
-46.6572384664
 40
151.986087467
100
AcDbArc
 50
134.220862954
 51
134.5173679645
  0
ARC
  5
2A0
100
AcDbEntity
  8
0
100
AcDbCircle
 62
7
  6
BYLAYER
 10
86.7843417791
 20
-3.7137481748
 40
92.6723134211
100
AcDbArc
 50
134.0307198195
 51
134.2083428509
  0
CIRCLE
  5
2A1
100
AcDbEntity
  8
0
100
AcDbCircle
 62
7
  6
BYLAYER
 10
36.2578178953
 20
9.0146099291
 40
3.75
  0
CIRCLE
  5
2A2
100
AcDbEntity
  8
0
100
AcDbCircle
 62
7
  6
BYLAYER
 10
36.2578178953
 20
33.0146099291
 40
3.75
  0
CIRCLE
  5
2A3
100
AcDbEntity
  8
0
100
AcDbCircle
 62
7
  6
BYLAYER
 10
36.2578178953
 20
9.0146099291
 40
3.5
  0
CIRCLE
  5
2A4
100
AcDbEntity
  8
0
100
AcDbCircle
 62
7
  6
BYLAYER
 10
36.2578178953
 20
33.0146099291
 40
3.5
  0
ARC
  5
2A5
100
AcDbEntity
  8
0
100
AcDbCircle
 62
7
  6
BYLAYER
 10
28.3272139684
 20
53.2709326419
 40
3.3936772872
100
AcDbArc
 50
54.0865477245
 51
90.0
  0
CIRCLE
  5
2A6
100
AcDbEntity
  8
0
100
AcDbCircle
 62
7
  6
BYLAYER
 10
36.2578178953
 20
9.0146099291
 40
3.2
  0
CIRCLE
  5
2A7
100
AcDbEntity
  8
0
100
AcDbCircle
 62
7
  6
BYLAYER
 10
36.2578178953
 20
33.0146099291
 40
3.2
  0
ARC
  5
2A8
100
AcDbEntity
  8
0
100
AcDbCircle
 62
7
  6
BYLAYER
 10
39.2578178953
 20
36.0146099291
 40
1.5
100
AcDbArc
 50
0.0
 51
90.0
  0
ARC
  5
2A9
100
AcDbEntity
  8
0
100
AcDbCircle
 62
7
  6
BYLAYER
 10
39.2578178953
 20
6.0146099291
 40
1.5
100
AcDbArc
 50
270.0
 51
360.0
  0
ARC
  5
2AA
100
AcDbEntity
  8
0
100
AcDbCircle
 62
7
  6
BYLAYER
 10
39.2578178953
 20
36.0146099291
 40
1.0
100
AcDbArc
 50
0.0
 51
90.0
  0
ARC
  5
2AB
100
AcDbEntity
  8
0
100
AcDbCircle
 62
7
  6
BYLAYER
 10
39.2578178953
 20
6.0146099291
 40
1.0
100
AcDbArc
 50
270.0
 51
360.0
  0
SPLINE
  5
2AC
100
AcDbEntity
  8
0
100
AcDbSpline
 62
7
  6
BYLAYER
 70
0
 71
3
 72
21
 73
17
 74
0
 42
0.0000001
 43
0.0000001
 44
0.0000000001
 40
0.0
 40
0.0
 40
0.0
 40
0.0
 40
0.0635136487
 40
0.1267287615
 40
0.252162437
 40
0.3144446359
 40
0.3764633603
 40
0.4382847775
 40
0.5000000059
 40
0.5617152317
 40
0.6235366482
 40
0.6855553712
 40
0.747837568
 40
0.8732712403
 40
0.936486351
 40
1.0
 40
1.0
 40
1.0
 40
1.0
 10
28.9832210861
 20
57.4646099291
 30
0.0
 10
28.8926538302
 20
57.413554078
 30
0.0
 10
28.7099704754
 20
57.3150966065
 30
0.0
 10
28.3383019262
 20
57.1353871679
 30
0.0
 10
27.9550215751
 20
56.9846267709
 30
0.0
 10
27.5614850282
 20
56.8729146782
 30
0.0
 10
27.262840687
 20
56.811134072
 30
0.0
 10
26.9611489572
 20
56.7731597248
 30
0.0
 10
26.6578178706
 20
56.7603387046
 30
0.0
 10
26.3544867852
 20
56.7731597296
 30
0.0
 10
26.0527950635
 20
56.8111340793
 30
0.0
 10
25.7541507292
 20
56.8729146859
 30
0.0
 10
25.360614194
 20
56.9846267791
 30
0.0
 10
24.9773338546
 20
57.1353871723
 30
0.0
 10
24.6056653131
 20
57.3150966078
 30
0.0
 10
24.4229819607
 20
57.4135540777
 30
0.0
 10
24.3324147044
 20
57.4646099291
 30
0.0
  0
SPLINE
  5
2AD
100
AcDbEntity
  8
0
100
AcDbSpline
 62
7
  6
BYLAYER
 70
0
 71
3
 72
21
 73
17
 74
0
 42
0.0000001
 43
0.0000001
 44
0.0000000001
 40
0.0
 40
0.0
 40
0.0
 40
0.0
 40
0.0635136487
 40
0.1267287615
 40
0.252162437
 40
0.3144446359
 40
0.3764633603
 40
0.4382847775
 40
0.5000000059
 40
0.5617152317
 40
0.6235366482
 40
0.6855553712
 40
0.747837568
 40
0.8732712403
 40
0.936486351
 40
1.0
 40
1.0
 40
1.0
 40
1.0
 10
24.3324147044
 20
60.8646099291
 30
0.0
 10
24.4229819603
 20
60.9156657802
 30
0.0
 10
24.6056653151
 20
61.0141232517
 30
0.0
 10
24.9773338644
 20
61.1938326902
 30
0.0
 10
25.3606142155
 20
61.3445930872
 30
0.0
 10
25.7541507623
 20
61.4563051799
 30
0.0
 10
26.0527951035
 20
61.5180857862
 30
0.0
 10
26.3544868333
 20
61.5560601333
 30
0.0
 10
26.6578179199
 20
61.5688811535
 30
0.0
 10
26.9611490053
 20
61.5560601286
 30
0.0
 10
27.262840727
 20
61.5180857789
 30
0.0
 10
27.5614850614
 20
61.4563051723
 30
0.0
 10
27.9550215965
 20
61.3445930791
 30
0.0
 10
28.338301936
 20
61.1938326859
 30
0.0
 10
28.7099704775
 20
61.0141232503
 30
0.0
 10
28.8926538298
 20
60.9156657804
 30
0.0
 10
28.9832210861
 20
60.8646099291
 30
0.0
  0
SPLINE
  5
2AE
100
AcDbEntity
  8
0
100
AcDbSpline
 62
7
  6
BYLAYER
 70
0
 71
3
 72
21
 73
17
 74
0
 42
0.0000001
 43
0.0000001
 44
0.0000000001
 40
0.0
 40
0.0
 40
0.0
 40
0.0
 40
0.0635136487
 40
0.1267287615
 40
0.252162437
 40
0.3144446359
 40
0.3764633603
 40
0.4382847775
 40
0.5000000059
 40
0.5617152317
 40
0.6235366482
 40
0.6855553712
 40
0.747837568
 40
0.8732712403
 40
0.936486351
 40
1.0
 40
1.0
 40
1.0
 40
1.0
 10
24.1832210861
 20
57.4646099291
 30
0.0
 10
24.0926538302
 20
57.413554078
 30
0.0
 10
23.9099704754
 20
57.3150966065
 30
0.0
 10
23.5383019262
 20
57.1353871679
 30
0.0
 10
23.1550215751
 20
56.9846267709
 30
0.0
 10
22.7614850282
 20
56.8729146782
 30
0.0
 10
22.462840687
 20
56.811134072
 30
0.0
 10
22.1611489572
 20
56.7731597248
 30
0.0
 10
21.8578178706
 20
56.7603387046
 30
0.0
 10
21.5544867852
 20
56.7731597296
 30
0.0
 10
21.2527950635
 20
56.8111340793
 30
0.0
 10
20.9541507292
 20
56.8729146859
 30
0.0
 10
20.560614194
 20
56.9846267791
 30
0.0
 10
20.1773338546
 20
57.1353871723
 30
0.0
 10
19.8056653131
 20
57.3150966078
 30
0.0
 10
19.6229819607
 20
57.4135540777
 30
0.0
 10
19.5324147044
 20
57.4646099291
 30
0.0
  0
SPLINE
  5
2AF
100
AcDbEntity
  8
0
100
AcDbSpline
 62
7
  6
BYLAYER
 70
0
 71
3
 72
21
 73
17
 74
0
 42
0.0000001
 43
0.0000001
 44
0.0000000001
 40
0.0
 40
0.0
 40
0.0
 40
0.0
 40
0.0635136487
 40
0.1267287615
 40
0.252162437
 40
0.3144446359
 40
0.3764633603
 40
0.4382847775
 40
0.5000000059
 40
0.5617152317
 40
0.6235366482
 40
0.6855553712
 40
0.747837568
 40
0.8732712403
 40
0.936486351
 40
1.0
 40
1.0
 40
1.0
 40
1.0
 10
19.5324147044
 20
60.8646099291
 30
0.0
 10
19.6229819603
 20
60.9156657802
 30
0.0
 10
19.8056653151
 20
61.0141232517
 30
0.0
 10
20.1773338644
 20
61.1938326902
 30
0.0
 10
20.5606142155
 20
61.3445930872
 30
0.0
 10
20.9541507623
 20
61.4563051799
 30
0.0
 10
21.2527951035
 20
61.5180857862
 30
0.0
 10
21.5544868333
 20
61.5560601333
 30
0.0
 10
21.8578179199
 20
61.5688811535
 30
0.0
 10
22.1611490053
 20
61.5560601286
 30
0.0
 10
22.462840727
 20
61.5180857789
 30
0.0
 10
22.7614850614
 20
61.4563051723
 30
0.0
 10
23.1550215965
 20
61.3445930791
 30
0.0
 10
23.538301936
 20
61.1938326859
 30
0.0
 10
23.9099704775
 20
61.0141232503
 30
0.0
 10
24.0926538298
 20
60.9156657804
 30
0.0
 10
24.1832210861
 20
60.8646099291
 30
0.0
  0
SPLINE
  5
2B0
100
AcDbEntity
  8
0
100
AcDbSpline
 62
7
  6
BYLAYER
 70
0
 71
3
 72
13
 73
9
 74
0
 42
0.0000001
 43
0.0000001
 44
0.0000000001
 40
0.0
 40
0.0
 40
0.0
 40
0.0
 40
0.2538860317
 40
0.3803838288
 40
0.50629139
 40
0.6314165682
 40
0.7556233628
 40
1.0
 40
1.0
 40
1.0
 40
1.0
 10
24.2578178953
 20
37.0146099291
 30
0.0
 10
24.5194350097
 20
37.0731092943
 30
0.0
 10
24.9113975733
 20
37.1608232137
 30
0.0
 10
25.4347521289
 20
37.2699372077
 30
0.0
 10
25.8261718336
 20
37.3454990958
 30
0.0
 10
26.2168758054
 20
37.4118304289
 30
0.0
 10
26.7331034454
 20
37.4838497723
 30
0.0
 10
27.1222800765
 20
37.5146099291
 30
0.0
 10
27.3803168945
 20
37.5146099291
 30
0.0
  0
SPLINE
  5
2B1
100
AcDbEntity
  8
0
100
AcDbSpline
 62
7
  6
BYLAYER
 70
0
 71
3
 72
13
 73
9
 74
0
 42
0.0000001
 43
0.0000001
 44
0.0000000001
 40
0.0
 40
0.0
 40
0.0
 40
0.0
 40
0.2443754665
 40
0.3685733254
 40
0.4936933151
 40
0.6196008464
 40
0.7461036145
 40
1.0
 40
1.0
 40
1.0
 40
1.0
 10
21.1353188961
 20
37.5146099291
 30
0.0
 10
21.3933543553
 20
37.5146099291
 30
0.0
 10
21.7825186556
 20
37.4838375496
 30
0.0
 10
22.2987331499
 20
37.4118412346
 30
0.0
 10
22.6894161254
 20
37.3454754298
 30
0.0
 10
23.0808352813
 20
37.2699150698
 30
0.0
 10
23.6042128545
 20
37.1608332178
 30
0.0
 10
23.996190236
 20
37.0731116522
 30
0.0
 10
24.2578178953
 20
37.0146099291
 30
0.0
  0
ELLIPSE
  5
2B2
100
AcDbEntity
  8
0
100
AcDbEllipse
 62
7
  6
BYLAYER
 10
24.2578178953
 20
49.6646099291
 30
0.0
 11
6.9840722478
 21
6.9916740494
 31
0.0
 40
0.3909836644
 41
-4.3400481778
 42
-4.3000694907
  0
ELLIPSE
  5
2B3
100
AcDbEntity
  8
0
100
AcDbEllipse
 62
7
  6
BYLAYER
 10
24.6620366435
 20
46.9089359934
 30
0.0
 11
-9.8584717852
 21
9.8762628647
 31
0.0
 40
0.0299477717
 41
1.515032353
 42
1.5597939346
  0
ELLIPSE
  5
2B4
100
AcDbEntity
  8
0
100
AcDbEllipse
 62
7
  6
BYLAYER
 10
23.8535991471
 20
46.9089359934
 30
0.0
 11
9.8584717852
 21
9.8762628647
 31
0.0
 40
0.0299477717
 41
-1.5597939346
 42
-1.515032353
  0
ELLIPSE
  5
2B5
100
AcDbEntity
  8
0
100
AcDbEllipse
 62
7
  6
BYLAYER
 10
24.2578178953
 20
49.6646099291
 30
0.0
 11
-6.8690409976
 21
6.8771410102
 31
0.0
 40
0.4378310255
 41
1.1585408884
 42
1.1985195755
  0
ENDSEC
  0
SECTION
  2
OBJECTS
  0
DICTIONARY
  5
C
100
AcDbDictionary
280
0
281
1
  3
ACAD_GROUP
350
D
  3
ACAD_MLINESTYLE
350
17
  3
ACAD_LAYOUT
350
1A
  3
ACAD_PLOTSETTINGS
350
19
  3
ACAD_PLOTSTYLENAME
350
E
  0
DICTIONARY
  5
D
102
{ACAD_REACTORS
330
C
102
}
100
AcDbDictionary
280
0
281
1
  0
ACDBDICTIONARYWDFLT
  5
E
102
{ACAD_REACTORS
330
C
102
}
100
AcDbDictionary
281
1
  3
Normal
350
F
100
AcDbDictionaryWithDefault
340
F
  0
DICTIONARY
  5
17
102
{ACAD_REACTORS
330
C
102
}
100
AcDbDictionary
280
0
281
1
  3
Standard
350
18
  0
DICTIONARY
  5
19
102
{ACAD_REACTORS
330
C
102
}
100
AcDbDictionary
281
1
  0
DICTIONARY
  5
1A
102
{ACAD_REACTORS
330
C
102
}
100
AcDbDictionary
281
1
  3
Model
350
2B6
  3
Layout1
350
2B7
  0
ACDBPLACEHOLDER
  5
F
102
{ACAD_REACTORS
330
E
102
}
  0
MLINESTYLE
  5
18
102
{ACAD_REACTORS
330
17
102
}
100
AcDbMlineStyle
  2
STANDARD
 70
0
  3

 62
256
 51
90.0
 52
90.0
 71
2
 49
0.5
 62
256
  6
BYLAYER
 49
-0.5
 62
256
  6
BYLAYER
  0
LAYOUT
  5
2B6
102
{ACAD_REACTORS
330
1A
102
}
100
AcDbPlotSettings
  1

  2
none_device
  4

  6

 40
0.0
 41
0.0
 42
0.0
 43
0.0
 44
210.0
 45
297.0
 46
0.0
 47
0.0
 48
0.0
 49
0.0
140
0.0
141
0.0
142
1.0
143
1.0
 70
1024
 72
1
 73
0
 74
0
  7

 75
0
147
1.0
148
0.0
149
0.0
100
AcDbLayout
  1
Model
 70
0
 71
0
 10
0.0
 20
0.0
 11
210.0
 21
297.0
 12
0.0
 22
0.0
 32
0.0
 14
0.0
 24
0.0
 34
0.0
 15
0.0
 25
0.0
 35
0.0
146
0.0
 13
0.0
 23
0.0
 33
0.0
 16
1.0
 26
0.0
 36
0.0
 17
0.0
 27
1.0
 37
0.0
 76
0
330
210
345
0
346
0
  0
LAYOUT
  5
2B7
102
{ACAD_REACTORS
330
1A
102
}
100
AcDbPlotSettings
  1

  2
none_device
  4

  6

 40
0.0
 41
0.0
 42
0.0
 43
0.0
 44
210.0
 45
297.0
 46
0.0
 47
0.0
 48
0.0
 49
0.0
140
0.0
141
0.0
142
1.0
143
1.0
 70
0
 72
1
 73
0
 74
0
  7

 75
0
147
1.0
148
0.0
149
0.0
100
AcDbLayout
  1
Layout1
 70
0
 71
1
 10
0.0
 20
0.0
 11
210.0
 21
297.0
 12
0.0
 22
0.0
 32
0.0
 14
0.0
 24
0.0
 34
0.0
 15
0.0
 25
0.0
 35
0.0
146
0.0
 13
0.0
 23
0.0
 33
0.0
 16
1.0
 26
0.0
 36
0.0
 17
0.0
 27
1.0
 37
0.0
 76
0
330
211
345
0
346
0
  0
ENDSEC
  0
EOF
