999
DXF file: C:\Users\sesa63760\Dev\_Creo\CAD\MCADID0000588_3D-CAD\drw0001_7.dxf
999
Pro/ENGINEER 2019471 by Parametric Technology Corporation
  0
SECTION
  2
HEADER
  9
$ACADVER
  1
AC1024
  9
$DWGCODEPAGE
  3
ANSI_1252
  9
$EXTMAX
 10
185.8124202942
 20
262.7918515589
 30
0.0
  9
$EXTMIN
 10
0.0
 20
0.0
 30
0.0
  9
$LIMMIN
 10
0.0
 20
0.0
  9
$LIMMAX
 10
185.8124202942
 20
262.7918515589
  9
$VIEWCTR
 10
92.9062101471
 20
131.3959257794
  9
$VIEWSIZE
 40
262.7918515589
  9
$CLAYER
  8
0
  9
$LTSCALE
 40
17.130135509
  9
$CELTYPE
  6
BYLAYER
  9
$DIMSCALE
 40
1.0
  9
$DIMASZ
 40
2.2120526225
  9
$DIMEXO
 40
1.0
  9
$DIMDLI
 40
11.8353663517
  9
$DIMEXE
 40
1.0
  9
$DIMCEN
 40
2.8031130833
  9
$DIMLFAC
 40
1.0
  9
$DIMBLK
  1
_FILLED
  9
$DIMALT
 70
0
  9
$DIMALTF
 40
0.0393700787
  9
$DIMTXT
 40
3.0968736716
  9
$DIMTOL
 70
1
  9
$DIMLIM
 70
0
  9
$DIMTFAC
 40
1.0
  9
$DIMTP
 40
0.01
  9
$DIMTM
 40
0.01
  9
$DIMGAP
 40
0.625
  9
$DIMDSEP
 70
46
  9
$AUNITS
 70
0
  9
$PDMODE
 70
3
  9
$PDSIZE
 40
0.3125
  9
$HANDSEED
  5
2D9
  9
$TILEMODE
 70
1
  9
$MEASUREMENT
 70
1
  9
$INSUNITS
 70
4
  0
ENDSEC
  0
SECTION
  2
CLASSES
  0
CLASS
  1
ACDBDICTIONARYWDFLT
  2
AcDbDictionaryWithDefault
  3
AutoCAD 2000
 90
0
 91
1
280
0
281
0
  0
CLASS
  1
ACDBPLACEHOLDER
  2
AcDbPlaceHolder
  3
AutoCAD 2000
 90
0
 91
1
280
0
281
0
  0
CLASS
  1
LAYOUT
  2
AcDbLayout
  3
AutoCAD 2000
 90
0
 91
0
280
0
281
0
  0
ENDSEC
  0
SECTION
  2
TABLES
  0
TABLE
  2
VPORT
  5
8
100
AcDbSymbolTable
 70
2
  0
VPORT
  5
1F4
100
AcDbSymbolTableRecord
100
AcDbViewportTableRecord
  2
*ACTIVE
 70
0
 10
0.0
 20
0.0
 11
1.0
 21
1.0
 12
92.9062101471
 22
131.3959257794
 13
0.0
 23
0.0
 14
1.0
 24
1.0
 15
0.0
 25
0.0
 16
0.0
 26
0.0
 36
1.0
 17
0.0
 27
0.0
 37
0.0
 40
262.7918515589
 41
0.7070707071
 42
50.0
 43
0.0
 44
0.0
 50
0.0
 51
0.0
 71
0
 72
100
 73
1
 74
1
 75
0
 76
0
 77
0
 78
0
  0
ENDTAB
  0
TABLE
  2
LTYPE
  5
5
100
AcDbSymbolTable
 70
6
  0
LTYPE
  5
14
100
AcDbSymbolTableRecord
100
AcDbLinetypeTableRecord
  2
BYBLOCK
 70
0
  3

 72
65
 73
0
 40
0.0
  0
LTYPE
  5
15
100
AcDbSymbolTableRecord
100
AcDbLinetypeTableRecord
  2
BYLAYER
 70
0
  3

 72
65
 73
0
 40
0.0
  0
LTYPE
  5
16
100
AcDbSymbolTableRecord
100
AcDbLinetypeTableRecord
  2
CONTINUOUS
 70
64
  3
Solid line
 72
65
 73
0
 40
0.0
  0
LTYPE
  5
1F5
100
AcDbSymbolTableRecord
100
AcDbLinetypeTableRecord
  2
CENTER
 70
64
  3
____ _ ____ _ ____ _ ____ _ ____ _ ____ _ ____
 72
65
 73
4
 40
0.6
 49
0.375
 74
0
 49
-0.075
 74
0
 49
0.075
 74
0
 49
-0.075
 74
0
  0
LTYPE
  5
1F6
100
AcDbSymbolTableRecord
100
AcDbLinetypeTableRecord
  2
HIDDEN
 70
64
  3
- - - - - - - - - - - - - - - - - - - -
 72
65
 73
2
 40
0.2
 49
0.1
 74
0
 49
-0.1
 74
0
  0
LTYPE
  5
1F7
100
AcDbSymbolTableRecord
100
AcDbLinetypeTableRecord
  2
PHANTOM
 70
64
  3
_____ _ _ _____ _ _ _____ _ _ _____
 72
65
 73
6
 40
0.8
 49
0.45
 74
0
 49
-0.05
 74
0
 49
0.1
 74
0
 49
-0.05
 74
0
 49
0.1
 74
0
 49
-0.05
 74
0
  0
LTYPE
  5
1F8
100
AcDbSymbolTableRecord
100
AcDbLinetypeTableRecord
  2
DOT
 70
64
  3
. . . . . . . . . . . . . . . . . . . .
 72
65
 73
2
 40
0.2
 49
0.1
 74
0
 49
-0.1
 74
0
  0
LTYPE
  5
1F9
100
AcDbSymbolTableRecord
100
AcDbLinetypeTableRecord
  2
DASHED
 70
64
  3
- - - - - - - - - - - - - - - - - - - -
 72
65
 73
2
 40
0.2
 49
0.1
 74
0
 49
-0.1
 74
0
  0
ENDTAB
  0
TABLE
  2
LAYER
  5
2
100
AcDbSymbolTable
 70
36
  0
LAYER
  5
10
100
AcDbSymbolTableRecord
100
AcDbLayerTableRecord
  2
0
 70
0
 62
7
  6
CONTINUOUS
370
-3
390
F
  0
LAYER
  5
1FA
100
AcDbSymbolTableRecord
100
AcDbLayerTableRecord
  2
DEFAULT_1
 70
0
 62
7
  6
CENTER
370
-3
390
F
  0
LAYER
  5
1FB
100
AcDbSymbolTableRecord
100
AcDbLayerTableRecord
  2
DEFAULT_2
 70
0
 62
8
  6
HIDDEN
370
-3
390
F
  0
LAYER
  5
1FC
100
AcDbSymbolTableRecord
100
AcDbLayerTableRecord
  2
DEFAULT_3
 70
0
 62
7
  6
PHANTOM
370
-3
390
F
  0
LAYER
  5
1FD
100
AcDbSymbolTableRecord
100
AcDbLayerTableRecord
  2
00_COMPONENTS
 70
0
 62
7
  6
CONTINUOUS
370
-3
390
F
  0
LAYER
  5
1FE
100
AcDbSymbolTableRecord
100
AcDbLayerTableRecord
  2
01_1_DEFAULT_DATUMS
 70
0
 62
7
  6
CONTINUOUS
370
-3
390
F
  0
LAYER
  5
1FF
100
AcDbSymbolTableRecord
100
AcDbLayerTableRecord
  2
01_PLANES
 70
0
 62
7
  6
CONTINUOUS
370
-3
390
F
  0
LAYER
  5
200
100
AcDbSymbolTableRecord
100
AcDbLayerTableRecord
  2
02_COORD_SYS
 70
0
 62
7
  6
CONTINUOUS
370
-3
390
F
  0
LAYER
  5
201
100
AcDbSymbolTableRecord
100
AcDbLayerTableRecord
  2
03_AXES
 70
0
 62
7
  6
CONTINUOUS
370
-3
390
F
  0
LAYER
  5
202
100
AcDbSymbolTableRecord
100
AcDbLayerTableRecord
  2
04_POINTS
 70
0
 62
7
  6
CONTINUOUS
370
-3
390
F
  0
LAYER
  5
203
100
AcDbSymbolTableRecord
100
AcDbLayerTableRecord
  2
05_CURVES
 70
0
 62
7
  6
CONTINUOUS
370
-3
390
F
  0
LAYER
  5
204
100
AcDbSymbolTableRecord
100
AcDbLayerTableRecord
  2
06_SURFS
 70
0
 62
7
  6
CONTINUOUS
370
-3
390
F
  0
LAYER
  5
205
100
AcDbSymbolTableRecord
100
AcDbLayerTableRecord
  2
07_COSMETICS
 70
0
 62
7
  6
CONTINUOUS
370
-3
390
F
  0
LAYER
  5
206
100
AcDbSymbolTableRecord
100
AcDbLayerTableRecord
  2
10_NOTES
 70
0
 62
7
  6
CONTINUOUS
370
-3
390
F
  0
LAYER
  5
207
100
AcDbSymbolTableRecord
100
AcDbLayerTableRecord
  2
11_NOTES_PUB
 70
0
 62
7
  6
CONTINUOUS
370
-3
390
F
  0
LAYER
  5
208
100
AcDbSymbolTableRecord
100
AcDbLayerTableRecord
  2
13_REF_GTOL
 70
0
 62
7
  6
CONTINUOUS
370
-3
390
F
  0
LAYER
  5
209
100
AcDbSymbolTableRecord
100
AcDbLayerTableRecord
  2
16_MISC
 70
0
 62
7
  6
CONTINUOUS
370
-3
390
F
  0
LAYER
  5
20A
100
AcDbSymbolTableRecord
100
AcDbLayerTableRecord
  2
17_NO_PRINT
 70
0
 62
7
  6
CONTINUOUS
370
-3
390
F
  0
LAYER
  5
20B
100
AcDbSymbolTableRecord
100
AcDbLayerTableRecord
  2
18_DATUM_CAMS_JOINTS
 70
0
 62
7
  6
CONTINUOUS
370
-3
390
F
  0
LAYER
  5
20C
100
AcDbSymbolTableRecord
100
AcDbLayerTableRecord
  2
19_DATUM_FUNCTIONAL
 70
0
 62
7
  6
CONTINUOUS
370
-3
390
F
  0
LAYER
  5
20D
100
AcDbSymbolTableRecord
100
AcDbLayerTableRecord
  2
20_DATUM_KINEMATIC_SCHEME
 70
0
 62
7
  6
CONTINUOUS
370
-3
390
F
  0
ENDTAB
  0
TABLE
  2
STYLE
  5
3
100
AcDbSymbolTable
 70
1
  0
STYLE
  5
11
100
AcDbSymbolTableRecord
100
AcDbTextStyleTableRecord
  2
STANDARD
 70
0
 40
0.0
 41
0.8
 50
0.0
 71
0
 42
0.2
  3
txt
  4

  0
STYLE
  5
20E
100
AcDbSymbolTableRecord
100
AcDbTextStyleTableRecord
  2
TEXTSTYLE_1
 70
0
 40
0.0
 41
0.8
 50
0.0
 71
0
 42
0.2
  3
gdt
  4

  0
ENDTAB
  0
TABLE
  2
VIEW
  5
6
100
AcDbSymbolTable
 70
0
  0
ENDTAB
  0
TABLE
  2
UCS
  5
7
100
AcDbSymbolTable
 70
0
  0
ENDTAB
  0
TABLE
  2
APPID
  5
9
100
AcDbSymbolTable
 70
1
  0
APPID
  5
20F
100
AcDbSymbolTableRecord
100
AcDbRegAppTableRecord
  2
ACAD
 70
0
  0
ENDTAB
  0
TABLE
  2
BLOCK_RECORD
  5
1
100
AcDbSymbolTable
 70
0
  0
BLOCK_RECORD
  5
210
100
AcDbSymbolTableRecord
100
AcDbBlockTableRecord
  2
*Model_Space
  0
BLOCK_RECORD
  5
211
100
AcDbSymbolTableRecord
100
AcDbBlockTableRecord
  2
*Paper_Space
  0
BLOCK_RECORD
  5
212
100
AcDbSymbolTableRecord
100
AcDbBlockTableRecord
  2
_FILLED
  0
ENDTAB
  0
TABLE
  2
DIMSTYLE
  5
A
100
AcDbSymbolTable
 70
1
100
AcDbDimStyleTable
 71
0
  0
DIMSTYLE
105
213
100
AcDbSymbolTableRecord
100
AcDbDimStyleTableRecord
  2
STANDARD
 70
0
  3

  4

 40
1.0
 41
2.2120526225
 42
1.0
 43
0.38
 44
1.0
 45
0.0
 46
0.0
 47
0.01
 48
0.01
140
3.0968736716
141
0.09
142
0.0
143
25.4
144
1.0
145
0.0
146
1.0
147
0.625
 71
1
 72
0
 73
0
 74
0
 75
0
 76
0
 77
1
 78
8
 79
2
170
0
171
1
172
0
173
0
174
0
175
0
176
0
177
0
178
0
270
2
179
2
271
2
272
2
273
2
274
2
275
0
280
0
281
0
282
0
283
1
284
8
285
0
286
0
287
3
288
0
340
11
278
46
341
212
342
212
343
212
344
212
  0
ENDTAB
  0
ENDSEC
  0
SECTION
  2
BLOCKS
  0
BLOCK
  5
20
100
AcDbEntity
  8
0
100
AcDbBlockBegin
  2
*Model_Space
 70
0
 10
0.0
 20
0.0
 30
0.0
  3
*Model_Space
  1

  0
ENDBLK
  5
21
100
AcDbEntity
  8
0
100
AcDbBlockEnd
  0
BLOCK
  5
1C
100
AcDbEntity
  8
0
100
AcDbBlockBegin
  2
*Paper_Space
 70
0
 10
0.0
 20
0.0
 30
0.0
  3
*Paper_Space
  1

  0
ENDBLK
  5
1D
100
AcDbEntity
  8
0
100
AcDbBlockEnd
  0
BLOCK
  5
214
100
AcDbEntity
  8
0
100
AcDbBlockBegin
  2
_FILLED
 70
64
 10
0.0
 20
0.0
  3
_FILLED
  1

  0
SOLID
  5
215
100
AcDbEntity
  8
0
  6
BYBLOCK
 62
0
100
AcDbTrace
 10
0.0
 20
0.0
 11
-1.0
 21
0.25
 12
-1.0
 22
-0.25
 13
-1.0
 23
-0.25
  0
ENDBLK
  5
216
100
AcDbEntity
  8
0
  6
BYBLOCK
 62
0
100
AcDbBlockEnd
  0
ENDSEC
  0
SECTION
  2
ENTITIES
  0
LINE
  5
217
100
AcDbEntity
  8
0
100
AcDbLine
 62
7
  6
CONTINUOUS
 10
19.7259530268
 20
103.9892350856
 11
19.7259530268
 21
161.1892350856
  0
LINE
  5
218
100
AcDbEntity
  8
0
100
AcDbLine
 62
7
  6
CONTINUOUS
 10
22.8381122519
 20
103.9892350856
 11
22.8381122519
 21
161.1892350856
  0
LINE
  5
219
100
AcDbEntity
  8
0
100
AcDbLine
 62
7
  6
CONTINUOUS
 10
23.5259530268
 20
103.9892350856
 11
23.5259530268
 21
161.1892350856
  0
LINE
  5
21A
100
AcDbEntity
  8
0
100
AcDbLine
 62
7
  6
CONTINUOUS
 10
24.4762596688
 20
103.9892350856
 11
24.4762596688
 21
161.1892350856
  0
LINE
  5
21B
100
AcDbEntity
  8
0
100
AcDbLine
 62
7
  6
CONTINUOUS
 10
27.2259530268
 20
103.9892350856
 11
27.2259530268
 21
107.4892350856
  0
LINE
  5
21C
100
AcDbEntity
  8
0
100
AcDbLine
 62
7
  6
CONTINUOUS
 10
27.2259530268
 20
157.6892350856
 11
27.2259530268
 21
161.1892350856
  0
LINE
  5
21D
100
AcDbEntity
  8
0
100
AcDbLine
 62
7
  6
CONTINUOUS
 10
33.2259530268
 20
161.1892350856
 11
33.2259530268
 21
157.6892350856
  0
LINE
  5
21E
100
AcDbEntity
  8
0
100
AcDbLine
 62
7
  6
CONTINUOUS
 10
33.2259530268
 20
107.4892350856
 11
33.2259530268
 21
103.9892350856
  0
LINE
  5
21F
100
AcDbEntity
  8
0
100
AcDbLine
 62
7
  6
CONTINUOUS
 10
37.1111738645
 20
152.8641523032
 11
32.752274921
 21
145.3143178679
  0
LINE
  5
220
100
AcDbEntity
  8
0
100
AcDbLine
 62
7
  6
CONTINUOUS
 10
36.1759530268
 20
101.9892350856
 11
36.1759530268
 21
103.9892350856
  0
LINE
  5
221
100
AcDbEntity
  8
0
100
AcDbLine
 62
7
  6
CONTINUOUS
 10
32.752274921
 20
119.8641523032
 11
37.1111738645
 21
112.3143178679
  0
LINE
  5
222
100
AcDbEntity
  8
0
100
AcDbLine
 62
7
  6
CONTINUOUS
 10
42.4759530268
 20
101.9892350856
 11
42.4759530268
 21
100.4892350856
  0
LINE
  5
223
100
AcDbEntity
  8
0
100
AcDbLine
 62
7
  6
CONTINUOUS
 10
42.9759530268
 20
100.4892350856
 11
42.9759530268
 21
98.4892350856
  0
LINE
  5
224
100
AcDbEntity
  8
0
100
AcDbLine
 62
7
  6
CONTINUOUS
 10
40.4759877756
 20
151.7437900241
 11
35.5713980883
 21
146.8392003369
  0
LINE
  5
225
100
AcDbEntity
  8
0
100
AcDbLine
 62
7
  6
CONTINUOUS
 10
45.7259530268
 20
161.1892350856
 11
45.7259530268
 21
163.6195357974
  0
LINE
  5
226
100
AcDbEntity
  8
0
100
AcDbLine
 62
7
  6
CONTINUOUS
 10
45.7413563387
 20
162.5250964626
 11
45.7413563387
 21
161.1892350856
  0
LINE
  5
227
100
AcDbEntity
  8
0
100
AcDbLine
 62
7
  6
CONTINUOUS
 10
49.9759530268
 20
98.4892350856
 11
49.9759530268
 21
100.4892350856
  0
LINE
  5
228
100
AcDbEntity
  8
0
100
AcDbLine
 62
7
  6
CONTINUOUS
 10
50.4759530268
 20
100.4892350856
 11
50.4759530268
 21
101.9892350856
  0
LINE
  5
229
100
AcDbEntity
  8
0
100
AcDbLine
 62
7
  6
CONTINUOUS
 10
37.1111738645
 20
128.8641523032
 11
32.752274921
 21
121.3143178679
  0
LINE
  5
22A
100
AcDbEntity
  8
0
100
AcDbLine
 62
7
  6
CONTINUOUS
 10
32.752274921
 20
143.8641523032
 11
37.1111738645
 21
136.3143178679
  0
LINE
  5
22B
100
AcDbEntity
  8
0
100
AcDbLine
 62
7
  6
CONTINUOUS
 10
55.2259530268
 20
98.4892350856
 11
54.9759530268
 21
99.9070555405
  0
LINE
  5
22C
100
AcDbEntity
  8
0
100
AcDbLine
 62
7
  6
CONTINUOUS
 10
54.9759530268
 20
101.9892350856
 11
54.9759530268
 21
99.9070555405
  0
LINE
  5
22D
100
AcDbEntity
  8
0
100
AcDbLine
 62
7
  6
CONTINUOUS
 10
48.3407321891
 20
136.3143178679
 11
52.6996311327
 21
143.8641523032
  0
LINE
  5
22E
100
AcDbEntity
  8
0
100
AcDbLine
 62
7
  6
CONTINUOUS
 10
44.9759182781
 20
137.4346801471
 11
49.8805079653
 21
142.3392698343
  0
LINE
  5
22F
100
AcDbEntity
  8
0
100
AcDbLine
 62
7
  6
CONTINUOUS
 10
52.6996311327
 20
121.3143178679
 11
48.3407321891
 21
128.8641523032
  0
LINE
  5
230
100
AcDbEntity
  8
0
100
AcDbLine
 62
7
  6
CONTINUOUS
 10
59.2259530268
 20
116.9892350856
 11
59.2259530268
 21
132.9892350856
  0
LINE
  5
231
100
AcDbEntity
  8
0
100
AcDbLine
 62
7
  6
CONTINUOUS
 10
59.7259530268
 20
126.9892236242
 11
59.7259530268
 21
122.989246547
  0
LINE
  5
232
100
AcDbEntity
  8
0
100
AcDbLine
 62
7
  6
CONTINUOUS
 10
78.2259530268
 20
98.4892350856
 11
68.7259530268
 21
98.4892350856
  0
LINE
  5
233
100
AcDbEntity
  8
0
100
AcDbLine
 62
7
  6
CONTINUOUS
 10
64.7259530268
 20
98.4892350856
 11
55.2259530268
 21
98.4892350856
  0
LINE
  5
234
100
AcDbEntity
  8
0
100
AcDbLine
 62
7
  6
CONTINUOUS
 10
49.9759530268
 20
98.4892350856
 11
42.9759530268
 21
98.4892350856
  0
LINE
  5
235
100
AcDbEntity
  8
0
100
AcDbLine
 62
7
  6
CONTINUOUS
 10
78.4199127056
 20
99.5892350856
 11
79.7259530268
 21
99.5892350856
  0
LINE
  5
236
100
AcDbEntity
  8
0
100
AcDbLine
 62
7
  6
CONTINUOUS
 10
79.7259530268
 20
100.0892350856
 11
141.7259530268
 21
100.0892350856
  0
LINE
  5
237
100
AcDbEntity
  8
0
100
AcDbLine
 62
7
  6
CONTINUOUS
 10
105.3259530268
 20
100.1092350856
 11
123.3259530268
 21
100.1092350856
  0
LINE
  5
238
100
AcDbEntity
  8
0
100
AcDbLine
 62
7
  6
CONTINUOUS
 10
59.2259530268
 20
116.9892350856
 11
67.6566099611
 21
109.9235416549
  0
LINE
  5
239
100
AcDbEntity
  8
0
100
AcDbLine
 62
7
  6
CONTINUOUS
 10
61.7259530268
 20
118.4892350856
 11
63.2259530268
 21
116.9892350856
  0
LINE
  5
23A
100
AcDbEntity
  8
0
100
AcDbLine
 62
7
  6
CONTINUOUS
 10
61.7259530268
 20
131.4892350856
 11
61.7259530268
 21
118.4892350856
  0
LINE
  5
23B
100
AcDbEntity
  8
0
100
AcDbLine
 62
7
  6
CONTINUOUS
 10
64.9759530268
 20
101.9892350856
 11
64.9759530268
 21
99.9070555405
  0
LINE
  5
23C
100
AcDbEntity
  8
0
100
AcDbLine
 62
7
  6
CONTINUOUS
 10
48.3407321891
 20
112.3143178679
 11
52.6996311327
 21
119.8641523032
  0
LINE
  5
23D
100
AcDbEntity
  8
0
100
AcDbLine
 62
7
  6
CONTINUOUS
 10
50.4759530268
 20
100.4892350856
 11
42.4759530268
 21
100.4892350856
  0
LINE
  5
23E
100
AcDbEntity
  8
0
100
AcDbLine
 62
7
  6
CONTINUOUS
 10
83.7759530268
 20
101.9892350856
 11
36.1759530268
 21
101.9892350856
  0
LINE
  5
23F
100
AcDbEntity
  8
0
100
AcDbLine
 62
7
  6
CONTINUOUS
 10
123.3259530268
 20
103.4078093891
 11
105.3259530268
 21
103.4078093891
  0
LINE
  5
240
100
AcDbEntity
  8
0
100
AcDbLine
 62
7
  6
CONTINUOUS
 10
135.7259530268
 20
103.4203226426
 11
123.3259530268
 21
103.4203226426
  0
LINE
  5
241
100
AcDbEntity
  8
0
100
AcDbLine
 62
7
  6
CONTINUOUS
 10
105.3259530268
 20
103.4203226426
 11
83.7759530268
 21
103.4203226426
  0
LINE
  5
242
100
AcDbEntity
  8
0
100
AcDbLine
 62
7
  6
CONTINUOUS
 10
19.7259594076
 20
103.9892350856
 11
89.7259530268
 21
103.9892350856
  0
LINE
  5
243
100
AcDbEntity
  8
0
100
AcDbLine
 62
7
  6
CONTINUOUS
 10
92.7259530268
 20
104.0892350856
 11
90.4465693038
 21
104.0892350856
  0
LINE
  5
244
100
AcDbEntity
  8
0
100
AcDbLine
 62
7
  6
CONTINUOUS
 10
52.6996311327
 20
145.3143178679
 11
48.3407321891
 21
152.8641523032
  0
LINE
  5
245
100
AcDbEntity
  8
0
100
AcDbLine
 62
7
  6
CONTINUOUS
 10
68.7259530268
 20
98.4892350856
 11
68.4759530268
 21
99.9070555405
  0
LINE
  5
246
100
AcDbEntity
  8
0
100
AcDbLine
 62
7
  6
CONTINUOUS
 10
68.4759530268
 20
101.9892350856
 11
68.4759530268
 21
99.9070555405
  0
LINE
  5
247
100
AcDbEntity
  8
0
100
AcDbLine
 62
7
  6
CONTINUOUS
 10
64.9759530268
 20
99.9070555405
 11
64.7259530268
 21
98.4892350856
  0
LINE
  5
248
100
AcDbEntity
  8
0
100
AcDbLine
 62
7
  6
CONTINUOUS
 10
63.2259530268
 20
132.9892350856
 11
61.7259530268
 21
131.4892350856
  0
LINE
  5
249
100
AcDbEntity
  8
0
100
AcDbLine
 62
7
  6
CONTINUOUS
 10
67.6566099611
 20
140.0549285162
 11
59.2259530268
 21
132.9892350856
  0
LINE
  5
24A
100
AcDbEntity
  8
0
100
AcDbLine
 62
7
  6
CONTINUOUS
 10
141.7259530268
 20
106.8892350856
 11
135.7259530268
 21
106.8892350856
  0
LINE
  5
24B
100
AcDbEntity
  8
0
100
AcDbLine
 62
7
  6
CONTINUOUS
 10
92.7259530268
 20
107.8745334731
 11
105.3259530268
 21
107.8745334731
  0
LINE
  5
24C
100
AcDbEntity
  8
0
100
AcDbLine
 62
7
  6
CONTINUOUS
 10
123.3259530268
 20
107.8745334731
 11
135.7259530268
 21
107.8745334731
  0
LINE
  5
24D
100
AcDbEntity
  8
0
100
AcDbLine
 62
7
  6
CONTINUOUS
 10
105.3259530268
 20
107.90548257
 11
123.3259530268
 21
107.90548257
  0
LINE
  5
24E
100
AcDbEntity
  8
0
100
AcDbLine
 62
7
  6
CONTINUOUS
 10
94.7259530268
 20
108.7892350856
 11
92.7259530268
 21
108.7892350856
  0
LINE
  5
24F
100
AcDbEntity
  8
0
100
AcDbLine
 62
7
  6
CONTINUOUS
 10
89.2259530268
 20
110.4892350856
 11
92.7259530268
 21
110.4892350856
  0
LINE
  5
250
100
AcDbEntity
  8
0
100
AcDbLine
 62
7
  6
CONTINUOUS
 10
135.7259530268
 20
110.5877358115
 11
123.3259530268
 21
110.5877358115
  0
LINE
  5
251
100
AcDbEntity
  8
0
100
AcDbLine
 62
7
  6
CONTINUOUS
 10
105.3259530268
 20
110.5877358115
 11
94.7259530268
 21
110.5877358115
  0
LINE
  5
252
100
AcDbEntity
  8
0
100
AcDbLine
 62
7
  6
CONTINUOUS
 10
123.3259530268
 20
110.6077358115
 11
105.3259530268
 21
110.6077358115
  0
LINE
  5
253
100
AcDbEntity
  8
0
100
AcDbLine
 62
7
  6
CONTINUOUS
 10
47.0848519704
 20
111.5892350856
 11
38.3670540833
 21
111.5892350856
  0
LINE
  5
254
100
AcDbEntity
  8
0
100
AcDbLine
 62
7
  6
CONTINUOUS
 10
94.7259530268
 20
112.0195199703
 11
105.3259530268
 21
112.0195199703
  0
LINE
  5
255
100
AcDbEntity
  8
0
100
AcDbLine
 62
7
  6
CONTINUOUS
 10
123.3259530268
 20
112.0195199703
 11
135.7259530268
 21
112.0195199703
  0
LINE
  5
256
100
AcDbEntity
  8
0
100
AcDbLine
 62
7
  6
CONTINUOUS
 10
105.3259530268
 20
112.0395199703
 11
123.3259530268
 21
112.0395199703
  0
LINE
  5
257
100
AcDbEntity
  8
0
100
AcDbLine
 62
7
  6
CONTINUOUS
 10
143.7259530268
 20
112.5892350856
 11
141.7259530268
 21
112.5892350856
  0
LINE
  5
258
100
AcDbEntity
  8
0
100
AcDbLine
 62
7
  6
CONTINUOUS
 10
94.7259530268
 20
115.0892350856
 11
96.2259530268
 21
115.0892350856
  0
LINE
  5
259
100
AcDbEntity
  8
0
100
AcDbLine
 62
7
  6
CONTINUOUS
 10
96.2259530268
 20
115.5892350856
 11
98.2259530268
 21
115.5892350856
  0
LINE
  5
25A
100
AcDbEntity
  8
0
100
AcDbLine
 62
7
  6
CONTINUOUS
 10
123.3259530268
 20
116.171513713
 11
105.3259530268
 21
116.171513713
  0
LINE
  5
25B
100
AcDbEntity
  8
0
100
AcDbLine
 62
7
  6
CONTINUOUS
 10
135.7259530268
 20
116.5892350856
 11
123.3259530268
 21
116.5892350856
  0
LINE
  5
25C
100
AcDbEntity
  8
0
100
AcDbLine
 62
7
  6
CONTINUOUS
 10
105.3259530268
 20
116.5892350856
 11
98.2259530268
 21
116.5892350856
  0
LINE
  5
25D
100
AcDbEntity
  8
0
100
AcDbLine
 62
7
  6
CONTINUOUS
 10
78.4759530268
 20
101.9892350856
 11
78.4759530268
 21
99.9070555405
  0
LINE
  5
25E
100
AcDbEntity
  8
0
100
AcDbLine
 62
7
  6
CONTINUOUS
 10
78.7259530268
 20
118.4892350856
 11
78.7259530268
 21
131.4892350856
  0
LINE
  5
25F
100
AcDbEntity
  8
0
100
AcDbLine
 62
7
  6
CONTINUOUS
 10
79.7259530268
 20
165.5892350856
 11
79.7259530268
 21
161.1892350856
  0
LINE
  5
260
100
AcDbEntity
  8
0
100
AcDbLine
 62
7
  6
CONTINUOUS
 10
79.7259530268
 20
101.9892350856
 11
79.7259530268
 21
99.5892350856
  0
LINE
  5
261
100
AcDbEntity
  8
0
100
AcDbLine
 62
7
  6
CONTINUOUS
 10
80.7259530268
 20
122.989246547
 11
80.7259530268
 21
126.9892236242
  0
LINE
  5
262
100
AcDbEntity
  8
0
100
AcDbLine
 62
7
  6
CONTINUOUS
 10
81.2259530268
 20
116.9892350856
 11
81.2259530268
 21
132.9892350856
  0
LINE
  5
263
100
AcDbEntity
  8
0
100
AcDbLine
 62
7
  6
CONTINUOUS
 10
63.2259530268
 20
116.9892350856
 11
77.2259530268
 21
116.9892350856
  0
LINE
  5
264
100
AcDbEntity
  8
0
100
AcDbLine
 62
7
  6
CONTINUOUS
 10
78.7259530268
 20
131.4892350856
 11
77.2259530268
 21
132.9892350856
  0
LINE
  5
265
100
AcDbEntity
  8
0
100
AcDbLine
 62
7
  6
CONTINUOUS
 10
83.7759530268
 20
101.9892350856
 11
83.7759530268
 21
103.9892350856
  0
LINE
  5
266
100
AcDbEntity
  8
0
100
AcDbLine
 62
7
  6
CONTINUOUS
 10
86.2259530268
 20
103.9892350856
 11
86.2259530268
 21
107.4892350856
  0
LINE
  5
267
100
AcDbEntity
  8
0
100
AcDbLine
 62
7
  6
CONTINUOUS
 10
86.2259530268
 20
157.6892350856
 11
86.2259530268
 21
161.1892350856
  0
LINE
  5
268
100
AcDbEntity
  8
0
100
AcDbLine
 62
7
  6
CONTINUOUS
 10
78.4759530268
 20
99.9070555405
 11
78.2259530268
 21
98.4892350856
  0
LINE
  5
269
100
AcDbEntity
  8
0
100
AcDbLine
 62
7
  6
CONTINUOUS
 10
98.2259530268
 20
127.8392350856
 11
96.8081325719
 21
127.5892350856
  0
LINE
  5
26A
100
AcDbEntity
  8
0
100
AcDbLine
 62
7
  6
CONTINUOUS
 10
98.2259530268
 20
122.5892350856
 11
96.2259530268
 21
122.5892350856
  0
LINE
  5
26B
100
AcDbEntity
  8
0
100
AcDbLine
 62
7
  6
CONTINUOUS
 10
59.2259530268
 20
122.9892350856
 11
59.7259530268
 21
122.9892350856
  0
LINE
  5
26C
100
AcDbEntity
  8
0
100
AcDbLine
 62
7
  6
CONTINUOUS
 10
80.7259530268
 20
122.9892350856
 11
81.2259530268
 21
122.9892350856
  0
LINE
  5
26D
100
AcDbEntity
  8
0
100
AcDbLine
 62
7
  6
CONTINUOUS
 10
96.2259530268
 20
123.0892350856
 11
94.7259530268
 21
123.0892350856
  0
LINE
  5
26E
100
AcDbEntity
  8
0
100
AcDbLine
 62
7
  6
CONTINUOUS
 10
59.7259530268
 20
123.4892350856
 11
61.7259530268
 21
123.4892350856
  0
LINE
  5
26F
100
AcDbEntity
  8
0
100
AcDbLine
 62
7
  6
CONTINUOUS
 10
78.7259530268
 20
123.4892350856
 11
80.7259530268
 21
123.4892350856
  0
LINE
  5
270
100
AcDbEntity
  8
0
100
AcDbLine
 62
7
  6
CONTINUOUS
 10
59.7259530268
 20
126.4892350856
 11
61.7259530268
 21
126.4892350856
  0
LINE
  5
271
100
AcDbEntity
  8
0
100
AcDbLine
 62
7
  6
CONTINUOUS
 10
78.7259530268
 20
126.4892350856
 11
80.7259530268
 21
126.4892350856
  0
LINE
  5
272
100
AcDbEntity
  8
0
100
AcDbLine
 62
7
  6
CONTINUOUS
 10
59.2259530268
 20
126.9892350856
 11
59.7259530268
 21
126.9892350856
  0
LINE
  5
273
100
AcDbEntity
  8
0
100
AcDbLine
 62
7
  6
CONTINUOUS
 10
80.7259530268
 20
126.9892350856
 11
81.2259530268
 21
126.9892350856
  0
LINE
  5
274
100
AcDbEntity
  8
0
100
AcDbLine
 62
7
  6
CONTINUOUS
 10
81.2259530268
 20
132.9892350856
 11
72.7952960925
 21
140.0549285162
  0
LINE
  5
275
100
AcDbEntity
  8
0
100
AcDbLine
 62
7
  6
CONTINUOUS
 10
92.7259530268
 20
104.0892350856
 11
92.7259530268
 21
161.0892350856
  0
LINE
  5
276
100
AcDbEntity
  8
0
100
AcDbLine
 62
7
  6
CONTINUOUS
 10
77.2259530268
 20
116.9892350856
 11
78.7259530268
 21
118.4892350856
  0
LINE
  5
277
100
AcDbEntity
  8
0
100
AcDbLine
 62
7
  6
CONTINUOUS
 10
94.7259530268
 20
127.5892350856
 11
96.8081325719
 21
127.5892350856
  0
LINE
  5
278
100
AcDbEntity
  8
0
100
AcDbLine
 62
7
  6
CONTINUOUS
 10
166.7259530268
 20
128.5892350856
 11
143.7259530268
 21
128.5892350856
  0
LINE
  5
279
100
AcDbEntity
  8
0
100
AcDbLine
 62
7
  6
CONTINUOUS
 10
38.3670540833
 20
129.5892350856
 11
47.0848519704
 21
129.5892350856
  0
LINE
  5
27A
100
AcDbEntity
  8
0
100
AcDbLine
 62
7
  6
CONTINUOUS
 10
94.7259530268
 20
156.3892350856
 11
94.7259530268
 21
108.7892350856
  0
LINE
  5
27B
100
AcDbEntity
  8
0
100
AcDbLine
 62
7
  6
CONTINUOUS
 10
96.2259530268
 20
123.0892350856
 11
96.2259530268
 21
115.0892350856
  0
LINE
  5
27C
100
AcDbEntity
  8
0
100
AcDbLine
 62
7
  6
CONTINUOUS
 10
98.2259530268
 20
150.8392350856
 11
98.2259530268
 21
141.3392350856
  0
LINE
  5
27D
100
AcDbEntity
  8
0
100
AcDbLine
 62
7
  6
CONTINUOUS
 10
98.2259530268
 20
137.3392350856
 11
98.2259530268
 21
127.8392350856
  0
LINE
  5
27E
100
AcDbEntity
  8
0
100
AcDbLine
 62
7
  6
CONTINUOUS
 10
98.2259530268
 20
122.5892350856
 11
98.2259530268
 21
115.5892350856
  0
LINE
  5
27F
100
AcDbEntity
  8
0
100
AcDbLine
 62
7
  6
CONTINUOUS
 10
72.7952960925
 20
109.9235416549
 11
81.2259530268
 21
116.9892350856
  0
LINE
  5
280
100
AcDbEntity
  8
0
100
AcDbLine
 62
7
  6
CONTINUOUS
 10
77.2259530268
 20
132.9892350856
 11
63.2259530268
 21
132.9892350856
  0
LINE
  5
281
100
AcDbEntity
  8
0
100
AcDbLine
 62
7
  6
CONTINUOUS
 10
47.0848519704
 20
135.5892350856
 11
38.3670540833
 21
135.5892350856
  0
LINE
  5
282
100
AcDbEntity
  8
0
100
AcDbLine
 62
7
  6
CONTINUOUS
 10
166.7259530268
 20
136.5892350856
 11
143.7259530268
 21
136.5892350856
  0
LINE
  5
283
100
AcDbEntity
  8
0
100
AcDbLine
 62
7
  6
CONTINUOUS
 10
94.7259530268
 20
137.5892350856
 11
96.8081325719
 21
137.5892350856
  0
LINE
  5
284
100
AcDbEntity
  8
0
100
AcDbLine
 62
7
  6
CONTINUOUS
 10
96.8081325719
 20
137.5892350856
 11
98.2259530268
 21
137.3392350856
  0
LINE
  5
285
100
AcDbEntity
  8
0
100
AcDbLine
 62
7
  6
CONTINUOUS
 10
98.2259530268
 20
141.3392350856
 11
96.8081325719
 21
141.0892350856
  0
LINE
  5
286
100
AcDbEntity
  8
0
100
AcDbLine
 62
7
  6
CONTINUOUS
 10
94.7259530268
 20
141.0892350856
 11
96.8081325719
 21
141.0892350856
  0
LINE
  5
287
100
AcDbEntity
  8
0
100
AcDbLine
 62
7
  6
CONTINUOUS
 10
105.3259530268
 20
100.0892350856
 11
105.3259530268
 21
165.0892350856
  0
LINE
  5
288
100
AcDbEntity
  8
0
100
AcDbLine
 62
7
  6
CONTINUOUS
 10
105.3259530268
 20
148.131513713
 11
123.3259530268
 21
148.131513713
  0
LINE
  5
289
100
AcDbEntity
  8
0
100
AcDbLine
 62
7
  6
CONTINUOUS
 10
98.2259530268
 20
148.5892350856
 11
105.3259530268
 21
148.5892350856
  0
LINE
  5
28A
100
AcDbEntity
  8
0
100
AcDbLine
 62
7
  6
CONTINUOUS
 10
123.3259530268
 20
148.5892350856
 11
135.7259530268
 21
148.5892350856
  0
LINE
  5
28B
100
AcDbEntity
  8
0
100
AcDbLine
 62
7
  6
CONTINUOUS
 10
94.7259530268
 20
151.0892350856
 11
96.8081325719
 21
151.0892350856
  0
LINE
  5
28C
100
AcDbEntity
  8
0
100
AcDbLine
 62
7
  6
CONTINUOUS
 10
143.7259530268
 20
152.5892350856
 11
141.7259530268
 21
152.5892350856
  0
LINE
  5
28D
100
AcDbEntity
  8
0
100
AcDbLine
 62
7
  6
CONTINUOUS
 10
123.3259530268
 20
153.1389502009
 11
105.3259530268
 21
153.1389502009
  0
LINE
  5
28E
100
AcDbEntity
  8
0
100
AcDbLine
 62
7
  6
CONTINUOUS
 10
135.7259530268
 20
153.1589502009
 11
123.3259530268
 21
153.1589502009
  0
LINE
  5
28F
100
AcDbEntity
  8
0
100
AcDbLine
 62
7
  6
CONTINUOUS
 10
105.3259530268
 20
153.1589502009
 11
94.7259530268
 21
153.1589502009
  0
LINE
  5
290
100
AcDbEntity
  8
0
100
AcDbLine
 62
7
  6
CONTINUOUS
 10
38.3670540833
 20
153.5892350856
 11
47.0848519704
 21
153.5892350856
  0
LINE
  5
291
100
AcDbEntity
  8
0
100
AcDbLine
 62
7
  6
CONTINUOUS
 10
96.8081325719
 20
151.0892350856
 11
98.2259530268
 21
150.8392350856
  0
LINE
  5
292
100
AcDbEntity
  8
0
100
AcDbLine
 62
7
  6
CONTINUOUS
 10
105.3259530268
 20
154.5707343597
 11
123.3259530268
 21
154.5707343597
  0
LINE
  5
293
100
AcDbEntity
  8
0
100
AcDbLine
 62
7
  6
CONTINUOUS
 10
94.7259530268
 20
154.5907343597
 11
105.3259530268
 21
154.5907343597
  0
LINE
  5
294
100
AcDbEntity
  8
0
100
AcDbLine
 62
7
  6
CONTINUOUS
 10
123.3259530268
 20
154.5907343597
 11
135.7259530268
 21
154.5907343597
  0
LINE
  5
295
100
AcDbEntity
  8
0
100
AcDbLine
 62
7
  6
CONTINUOUS
 10
92.7259530268
 20
154.6892350856
 11
89.2259530268
 21
154.6892350856
  0
LINE
  5
296
100
AcDbEntity
  8
0
100
AcDbLine
 62
7
  6
CONTINUOUS
 10
94.7259530268
 20
156.3892350856
 11
92.7259530268
 21
156.3892350856
  0
LINE
  5
297
100
AcDbEntity
  8
0
100
AcDbLine
 62
7
  6
CONTINUOUS
 10
123.3259530268
 20
157.2729876012
 11
105.3259530268
 21
157.2729876012
  0
LINE
  5
298
100
AcDbEntity
  8
0
100
AcDbLine
 62
7
  6
CONTINUOUS
 10
135.7259530268
 20
157.303936698
 11
123.3259530268
 21
157.303936698
  0
LINE
  5
299
100
AcDbEntity
  8
0
100
AcDbLine
 62
7
  6
CONTINUOUS
 10
105.3259530268
 20
157.303936698
 11
92.7259530268
 21
157.303936698
  0
LINE
  5
29A
100
AcDbEntity
  8
0
100
AcDbLine
 62
7
  6
CONTINUOUS
 10
135.7259530268
 20
158.2892350856
 11
141.7259530268
 21
158.2892350856
  0
LINE
  5
29B
100
AcDbEntity
  8
0
100
AcDbLine
 62
7
  6
CONTINUOUS
 10
123.3259530268
 20
100.0892350856
 11
123.3259530268
 21
165.0892350856
  0
LINE
  5
29C
100
AcDbEntity
  8
0
100
AcDbLine
 62
7
  6
CONTINUOUS
 10
92.7259530268
 20
161.0892350856
 11
90.4465693038
 21
161.0892350856
  0
LINE
  5
29D
100
AcDbEntity
  8
0
100
AcDbLine
 62
7
  6
CONTINUOUS
 10
19.7259594076
 20
161.1892350856
 11
89.7259530268
 21
161.1892350856
  0
LINE
  5
29E
100
AcDbEntity
  8
0
100
AcDbLine
 62
7
  6
CONTINUOUS
 10
79.7259530268
 20
161.7581475285
 11
105.3259530268
 21
161.7581475285
  0
LINE
  5
29F
100
AcDbEntity
  8
0
100
AcDbLine
 62
7
  6
CONTINUOUS
 10
123.3259530268
 20
161.7581475285
 11
135.7259530268
 21
161.7581475285
  0
LINE
  5
2A0
100
AcDbEntity
  8
0
100
AcDbLine
 62
7
  6
CONTINUOUS
 10
105.3259530268
 20
161.770660782
 11
123.3259530268
 21
161.770660782
  0
LINE
  5
2A1
100
AcDbEntity
  8
0
100
AcDbLine
 62
7
  6
CONTINUOUS
 10
45.8058765235
 20
161.9111592413
 11
79.7259530268
 21
161.9111592413
  0
LINE
  5
2A2
100
AcDbEntity
  8
0
100
AcDbLine
 62
7
  6
CONTINUOUS
 10
123.3259530268
 20
165.0692350856
 11
105.3259530268
 21
165.0692350856
  0
LINE
  5
2A3
100
AcDbEntity
  8
0
100
AcDbLine
 62
7
  6
CONTINUOUS
 10
141.7259530268
 20
165.0892350856
 11
79.7259530268
 21
165.0892350856
  0
LINE
  5
2A4
100
AcDbEntity
  8
0
100
AcDbLine
 62
7
  6
CONTINUOUS
 10
79.7259530268
 20
165.5892350856
 11
73.7259530268
 21
165.5892350856
  0
LINE
  5
2A5
100
AcDbEntity
  8
0
100
AcDbLine
 62
7
  6
CONTINUOUS
 10
135.7259530268
 20
100.0892350856
 11
135.7259530268
 21
116.5892350856
  0
LINE
  5
2A6
100
AcDbEntity
  8
0
100
AcDbLine
 62
7
  6
CONTINUOUS
 10
135.7259530268
 20
148.5892350856
 11
135.7259530268
 21
165.0892350856
  0
LINE
  5
2A7
100
AcDbEntity
  8
0
100
AcDbLine
 62
7
  6
CONTINUOUS
 10
141.7259530268
 20
100.0892350856
 11
141.7259530268
 21
165.0892350856
  0
LINE
  5
2A8
100
AcDbEntity
  8
0
100
AcDbLine
 62
7
  6
CONTINUOUS
 10
143.7259530268
 20
152.5889063959
 11
143.7259530268
 21
112.5895637753
  0
LINE
  5
2A9
100
AcDbEntity
  8
0
100
AcDbLine
 62
7
  6
CONTINUOUS
 10
166.7259530268
 20
136.5889771565
 11
166.7259530268
 21
128.5894930147
  0
ARC
  5
2AA
100
AcDbEntity
  8
0
100
AcDbCircle
 62
7
  6
CONTINUOUS
 10
42.7259530268
 20
120.5892350856
 40
10.0
100
AcDbArc
 50
235.8419327632
 51
244.1580672368
  0
ARC
  5
2AB
100
AcDbEntity
  8
0
100
AcDbCircle
 62
7
  6
CONTINUOUS
 10
42.7259530268
 20
120.5892350856
 40
10.0
100
AcDbArc
 50
295.8419327632
 51
304.1580672368
  0
ARC
  5
2AC
100
AcDbEntity
  8
0
100
AcDbCircle
 62
7
  6
CONTINUOUS
 10
42.7259530268
 20
120.5892350856
 40
10.0
100
AcDbArc
 50
355.8419327632
 51
4.1580672368
  0
ARC
  5
2AD
100
AcDbEntity
  8
0
100
AcDbCircle
 62
7
  6
CONTINUOUS
 10
42.7259530268
 20
120.5892350856
 40
10.0
100
AcDbArc
 50
55.8419327632
 51
64.1580672368
  0
ARC
  5
2AE
100
AcDbEntity
  8
0
100
AcDbCircle
 62
7
  6
CONTINUOUS
 10
42.7259530268
 20
120.5892350856
 40
10.0
100
AcDbArc
 50
115.8419327632
 51
124.1580672368
  0
ARC
  5
2AF
100
AcDbEntity
  8
0
100
AcDbCircle
 62
7
  6
CONTINUOUS
 10
42.7259530268
 20
120.5892350856
 40
10.0
100
AcDbArc
 50
175.8419327632
 51
184.1580672368
  0
CIRCLE
  5
2B0
100
AcDbEntity
  8
0
100
AcDbCircle
 62
7
  6
CONTINUOUS
 10
42.7259530268
 20
120.5892350856
 40
7.5
  0
CIRCLE
  5
2B1
100
AcDbEntity
  8
0
100
AcDbCircle
 62
7
  6
CONTINUOUS
 10
42.7259530268
 20
120.5892350856
 40
6.0
  0
CIRCLE
  5
2B2
100
AcDbEntity
  8
0
100
AcDbCircle
 62
7
  6
CONTINUOUS
 10
42.7259530268
 20
120.5892350856
 40
5.25
  0
CIRCLE
  5
2B3
100
AcDbEntity
  8
0
100
AcDbCircle
 62
7
  6
CONTINUOUS
 10
30.2259530268
 20
107.4892350856
 40
3.0
  0
ARC
  5
2B4
100
AcDbEntity
  8
0
100
AcDbCircle
 62
7
  6
CONTINUOUS
 10
42.7259530268
 20
144.5892350856
 40
10.0
100
AcDbArc
 50
115.8419327632
 51
124.1580672368
  0
ARC
  5
2B5
100
AcDbEntity
  8
0
100
AcDbCircle
 62
7
  6
CONTINUOUS
 10
42.7259530268
 20
144.5892350856
 40
10.0
100
AcDbArc
 50
175.8419327632
 51
184.1580672368
  0
ARC
  5
2B6
100
AcDbEntity
  8
0
100
AcDbCircle
 62
7
  6
CONTINUOUS
 10
42.7259530268
 20
144.5892350856
 40
10.0
100
AcDbArc
 50
235.8419327632
 51
244.1580672368
  0
ARC
  5
2B7
100
AcDbEntity
  8
0
100
AcDbCircle
 62
7
  6
CONTINUOUS
 10
42.7259530268
 20
144.5892350856
 40
10.0
100
AcDbArc
 50
295.8419327632
 51
304.1580672368
  0
ARC
  5
2B8
100
AcDbEntity
  8
0
100
AcDbCircle
 62
7
  6
CONTINUOUS
 10
42.7259530268
 20
144.5892350856
 40
10.0
100
AcDbArc
 50
355.8419327632
 51
4.1580672368
  0
ARC
  5
2B9
100
AcDbEntity
  8
0
100
AcDbCircle
 62
7
  6
CONTINUOUS
 10
42.7259530268
 20
144.5892350856
 40
10.0
100
AcDbArc
 50
55.8419327632
 51
64.1580672368
  0
ARC
  5
2BA
100
AcDbEntity
  8
0
100
AcDbCircle
 62
7
  6
CONTINUOUS
 10
42.7259530268
 20
144.5892350856
 40
7.5
100
AcDbArc
 50
162.5426751545
 51
287.4573248455
  0
ARC
  5
2BB
100
AcDbEntity
  8
0
100
AcDbCircle
 62
7
  6
CONTINUOUS
 10
42.7259530268
 20
144.5892350856
 40
7.5
100
AcDbArc
 50
342.5426751545
 51
107.4573248455
  0
ARC
  5
2BC
100
AcDbEntity
  8
0
100
AcDbCircle
 62
7
  6
CONTINUOUS
 10
42.7259530268
 20
144.5892350856
 40
6.75
100
AcDbArc
 50
144.8746877614
 51
305.1253122386
  0
ARC
  5
2BD
100
AcDbEntity
  8
0
100
AcDbCircle
 62
7
  6
CONTINUOUS
 10
42.7259530268
 20
144.5892350856
 40
6.75
100
AcDbArc
 50
324.8746877614
 51
125.1253122386
  0
CIRCLE
  5
2BE
100
AcDbEntity
  8
0
100
AcDbCircle
 62
7
  6
CONTINUOUS
 10
42.7259530268
 20
144.5892350856
 40
4.0
  0
CIRCLE
  5
2BF
100
AcDbEntity
  8
0
100
AcDbCircle
 62
7
  6
CONTINUOUS
 10
30.2259530268
 20
157.6892350856
 40
3.0
  0
ARC
  5
2C0
100
AcDbEntity
  8
0
100
AcDbCircle
 62
7
  6
CONTINUOUS
 10
73.7259530268
 20
-34.4107649144
 40
200.0
100
AcDbArc
 50
90.0
 51
98.0452395453
  0
ARC
  5
2C1
100
AcDbEntity
  8
0
100
AcDbCircle
 62
7
  6
CONTINUOUS
 10
70.2259530268
 20
112.9892350856
 40
4.0
100
AcDbArc
 50
230.0337869562
 51
309.9662130438
  0
CIRCLE
  5
2C2
100
AcDbEntity
  8
0
100
AcDbCircle
 62
7
  6
CONTINUOUS
 10
70.2259530268
 20
112.9892350856
 40
3.0
  0
ARC
  5
2C3
100
AcDbEntity
  8
0
100
AcDbCircle
 62
7
  6
CONTINUOUS
 10
89.7259530268
 20
106.9892350856
 40
3.0
100
AcDbArc
 50
270.0
 51
360.0
  0
CIRCLE
  5
2C4
100
AcDbEntity
  8
0
100
AcDbCircle
 62
7
  6
CONTINUOUS
 10
89.2259530268
 20
107.4892350856
 40
3.0
  0
ARC
  5
2C5
100
AcDbEntity
  8
0
100
AcDbCircle
 62
7
  6
CONTINUOUS
 10
73.7259530268
 20
299.5892350856
 40
200.0
100
AcDbArc
 50
267.5469851416
 51
268.5528382796
  0
ARC
  5
2C6
100
AcDbEntity
  8
0
100
AcDbCircle
 62
7
  6
CONTINUOUS
 10
73.7259530268
 20
299.5892350856
 40
200.0
100
AcDbArc
 50
263.3016556365
 51
264.6001063167
  0
ARC
  5
2C7
100
AcDbEntity
  8
0
100
AcDbCircle
 62
7
  6
CONTINUOUS
 10
70.2259530268
 20
136.9892350856
 40
4.0
100
AcDbArc
 50
50.0337869562
 51
129.9662130438
  0
CIRCLE
  5
2C8
100
AcDbEntity
  8
0
100
AcDbCircle
 62
7
  6
CONTINUOUS
 10
81.7259530268
 20
153.9892350856
 40
4.0
  0
CIRCLE
  5
2C9
100
AcDbEntity
  8
0
100
AcDbCircle
 62
7
  6
CONTINUOUS
 10
70.2259530268
 20
136.9892350856
 40
3.0
  0
ARC
  5
2CA
100
AcDbEntity
  8
0
100
AcDbCircle
 62
7
  6
CONTINUOUS
 10
89.7259530268
 20
158.1892350856
 40
3.0
100
AcDbArc
 50
0.0
 51
90.0
  0
CIRCLE
  5
2CB
100
AcDbEntity
  8
0
100
AcDbCircle
 62
7
  6
CONTINUOUS
 10
89.2259530268
 20
157.6892350856
 40
3.0
  0
SPLINE
  5
2CC
100
AcDbEntity
  8
0
100
AcDbSpline
 62
7
  6
CONTINUOUS
 70
0
 71
3
 72
27
 73
23
 74
0
 42
0.0000001
 43
0.0000001
 44
0.0000000001
 40
0.0
 40
0.0
 40
0.0
 40
0.0
 40
0.0647901975
 40
0.1293282942
 40
0.1935222812
 40
0.2572246469
 40
0.320183851
 40
0.3819582168
 40
0.4122378247
 40
0.4419809881
 40
0.4711770607
 40
0.4999990224
 40
0.5288209078
 40
0.5580172261
 40
0.5877606271
 40
0.6180403309
 40
0.6798148102
 40
0.742774607
 40
0.8064772738
 40
0.8706714467
 40
0.9352096989
 40
1.0
 40
1.0
 40
1.0
 40
1.0
 10
94.7279108094
 20
133.4004747301
 30
0.0
 10
94.8393420584
 20
133.4473033335
 30
0.0
 10
95.0605854201
 20
133.5436437328
 30
0.0
 10
95.3868583746
 20
133.698389921
 30
0.0
 10
95.7046457874
 20
133.8656724133
 30
0.0
 10
96.0101563923
 20
134.0490981266
 30
0.0
 10
96.2964489677
 20
134.2537951465
 30
0.0
 10
96.5106639326
 20
134.4502489645
 30
0.0
 10
96.6526711099
 20
134.6283021649
 30
0.0
 10
96.7377875471
 20
134.7721517055
 30
0.0
 10
96.7945994172
 20
134.9269411071
 30
0.0
 10
96.8148632187
 20
135.0892979801
 30
0.0
 10
96.7945682597
 20
135.2516510698
 30
0.0
 10
96.7377326705
 20
135.4064321084
 30
0.0
 10
96.6525981228
 20
135.5502719464
 30
0.0
 10
96.5105736957
 20
135.7283120195
 30
0.0
 10
96.2963494266
 20
135.9247570175
 30
0.0
 10
96.0100459284
 20
136.1294421269
 30
0.0
 10
95.7045297086
 20
136.3128619906
 30
0.0
 10
95.3867383418
 20
136.4801396069
 30
0.0
 10
95.060462445
 20
136.6348814347
 30
0.0
 10
94.8392179455
 20
136.7312204397
 30
0.0
 10
94.7277859244
 20
136.7780477047
 30
0.0
  0
SPLINE
  5
2CD
100
AcDbEntity
  8
0
100
AcDbSpline
 62
7
  6
CONTINUOUS
 70
0
 71
3
 72
27
 73
23
 74
0
 42
0.0000001
 43
0.0000001
 44
0.0000000001
 40
0.0
 40
0.0
 40
0.0
 40
0.0
 40
0.0647901975
 40
0.1293282942
 40
0.1935222812
 40
0.2572246469
 40
0.320183851
 40
0.3819582168
 40
0.4122378247
 40
0.4419809881
 40
0.4711770607
 40
0.4999990224
 40
0.5288209078
 40
0.5580172261
 40
0.5877606271
 40
0.6180403309
 40
0.6798148102
 40
0.742774607
 40
0.8064772738
 40
0.8706714467
 40
0.9352096989
 40
1.0
 40
1.0
 40
1.0
 40
1.0
 10
94.7279108094
 20
128.4004747301
 30
0.0
 10
94.8393420584
 20
128.4473033335
 30
0.0
 10
95.0605854201
 20
128.5436437328
 30
0.0
 10
95.3868583746
 20
128.698389921
 30
0.0
 10
95.7046457874
 20
128.8656724133
 30
0.0
 10
96.0101563923
 20
129.0490981266
 30
0.0
 10
96.2964489677
 20
129.2537951465
 30
0.0
 10
96.5106639326
 20
129.4502489645
 30
0.0
 10
96.6526711099
 20
129.6283021649
 30
0.0
 10
96.7377875471
 20
129.7721517055
 30
0.0
 10
96.7945994172
 20
129.9269411071
 30
0.0
 10
96.8148632187
 20
130.0892979801
 30
0.0
 10
96.7945682597
 20
130.2516510698
 30
0.0
 10
96.7377326705
 20
130.4064321084
 30
0.0
 10
96.6525981228
 20
130.5502719464
 30
0.0
 10
96.5105736957
 20
130.7283120195
 30
0.0
 10
96.2963494266
 20
130.9247570175
 30
0.0
 10
96.0100459284
 20
131.1294421269
 30
0.0
 10
95.7045297086
 20
131.3128619906
 30
0.0
 10
95.3867383418
 20
131.4801396069
 30
0.0
 10
95.060462445
 20
131.6348814347
 30
0.0
 10
94.8392179455
 20
131.7312204397
 30
0.0
 10
94.7277859244
 20
131.7780477047
 30
0.0
  0
SPLINE
  5
2CE
100
AcDbEntity
  8
0
100
AcDbSpline
 62
7
  6
CONTINUOUS
 70
0
 71
3
 72
27
 73
23
 74
0
 42
0.0000001
 43
0.0000001
 44
0.0000000001
 40
0.0
 40
0.0
 40
0.0
 40
0.0
 40
0.0647901975
 40
0.1293282942
 40
0.1935222812
 40
0.2572246469
 40
0.320183851
 40
0.3819582168
 40
0.4122378247
 40
0.4419809881
 40
0.4711770607
 40
0.4999990224
 40
0.5288209078
 40
0.5580172261
 40
0.5877606271
 40
0.6180403309
 40
0.6798148102
 40
0.742774607
 40
0.8064772738
 40
0.8706714467
 40
0.9352096989
 40
1.0
 40
1.0
 40
1.0
 40
1.0
 10
94.7279108094
 20
141.9004747301
 30
0.0
 10
94.8393420584
 20
141.9473033335
 30
0.0
 10
95.0605854201
 20
142.0436437328
 30
0.0
 10
95.3868583746
 20
142.198389921
 30
0.0
 10
95.7046457874
 20
142.3656724133
 30
0.0
 10
96.0101563923
 20
142.5490981266
 30
0.0
 10
96.2964489677
 20
142.7537951465
 30
0.0
 10
96.5106639326
 20
142.9502489645
 30
0.0
 10
96.6526711099
 20
143.1283021649
 30
0.0
 10
96.7377875471
 20
143.2721517055
 30
0.0
 10
96.7945994172
 20
143.4269411071
 30
0.0
 10
96.8148632187
 20
143.5892979801
 30
0.0
 10
96.7945682597
 20
143.7516510698
 30
0.0
 10
96.7377326705
 20
143.9064321084
 30
0.0
 10
96.6525981228
 20
144.0502719464
 30
0.0
 10
96.5105736957
 20
144.2283120195
 30
0.0
 10
96.2963494266
 20
144.4247570175
 30
0.0
 10
96.0100459284
 20
144.6294421269
 30
0.0
 10
95.7045297086
 20
144.8128619906
 30
0.0
 10
95.3867383418
 20
144.9801396069
 30
0.0
 10
95.060462445
 20
145.1348814347
 30
0.0
 10
94.8392179455
 20
145.2312204397
 30
0.0
 10
94.7277859244
 20
145.2780477047
 30
0.0
  0
SPLINE
  5
2CF
100
AcDbEntity
  8
0
100
AcDbSpline
 62
7
  6
CONTINUOUS
 70
0
 71
3
 72
27
 73
23
 74
0
 42
0.0000001
 43
0.0000001
 44
0.0000000001
 40
0.0
 40
0.0
 40
0.0
 40
0.0
 40
0.0647901975
 40
0.1293282942
 40
0.1935222812
 40
0.2572246469
 40
0.320183851
 40
0.3819582168
 40
0.4122378247
 40
0.4419809881
 40
0.4711770607
 40
0.4999990224
 40
0.5288209078
 40
0.5580172261
 40
0.5877606271
 40
0.6180403309
 40
0.6798148102
 40
0.742774607
 40
0.8064772738
 40
0.8706714467
 40
0.9352096989
 40
1.0
 40
1.0
 40
1.0
 40
1.0
 10
94.7279108094
 20
146.9004747301
 30
0.0
 10
94.8393420584
 20
146.9473033335
 30
0.0
 10
95.0605854201
 20
147.0436437328
 30
0.0
 10
95.3868583746
 20
147.198389921
 30
0.0
 10
95.7046457874
 20
147.3656724133
 30
0.0
 10
96.0101563923
 20
147.5490981266
 30
0.0
 10
96.2964489677
 20
147.7537951465
 30
0.0
 10
96.5106639326
 20
147.9502489645
 30
0.0
 10
96.6526711099
 20
148.1283021649
 30
0.0
 10
96.7377875471
 20
148.2721517055
 30
0.0
 10
96.7945994172
 20
148.4269411071
 30
0.0
 10
96.8148632187
 20
148.5892979801
 30
0.0
 10
96.7945682597
 20
148.7516510698
 30
0.0
 10
96.7377326705
 20
148.9064321084
 30
0.0
 10
96.6525981228
 20
149.0502719464
 30
0.0
 10
96.5105736957
 20
149.2283120195
 30
0.0
 10
96.2963494266
 20
149.4247570175
 30
0.0
 10
96.0100459284
 20
149.6294421269
 30
0.0
 10
95.7045297086
 20
149.8128619906
 30
0.0
 10
95.3867383418
 20
149.9801396069
 30
0.0
 10
95.060462445
 20
150.1348814347
 30
0.0
 10
94.8392179455
 20
150.2312204397
 30
0.0
 10
94.7277859244
 20
150.2780477047
 30
0.0
  0
SPLINE
  5
2D0
100
AcDbEntity
  8
0
100
AcDbSpline
 62
7
  6
CONTINUOUS
 70
0
 71
3
 72
27
 73
23
 74
0
 42
0.0000001
 43
0.0000001
 44
0.0000000001
 40
0.0
 40
0.0
 40
0.0
 40
0.0
 40
0.0647901901
 40
0.1293282787
 40
0.1935222571
 40
0.2572246119
 40
0.3201838013
 40
0.3819581792
 40
0.4122378005
 40
0.4419809843
 40
0.4711770688
 40
0.4999990467
 40
0.5288209372
 40
0.5580172668
 40
0.5877606831
 40
0.6180403915
 40
0.6798148764
 40
0.7427746508
 40
0.8064773035
 40
0.8706714655
 40
0.9352097075
 40
1.0
 40
1.0
 40
1.0
 40
1.0
 10
60.78719353
 20
101.9872752531
 30
0.0
 10
60.8340221039
 20
101.8758441439
 30
0.0
 10
60.9303624091
 20
101.6546010487
 30
0.0
 10
61.0851084736
 20
101.3283285032
 30
0.0
 10
61.2523908116
 20
101.0105414936
 30
0.0
 10
61.4358163319
 20
100.7050312788
 30
0.0
 10
61.6405132193
 20
100.4187390986
 30
0.0
 10
61.8369667712
 20
100.2045242793
 30
0.0
 10
62.0150198422
 20
100.0625171813
 30
0.0
 10
62.158869284
 20
99.9774007595
 30
0.0
 10
62.3136585701
 20
99.9205888199
 30
0.0
 10
62.4760153155
 20
99.900324907
 30
0.0
 10
62.6383683198
 20
99.9206196682
 30
0.0
 10
62.7931492945
 20
99.9774551078
 30
0.0
 10
62.9369891218
 20
100.0625894392
 30
0.0
 10
63.1150291729
 20
100.2046135981
 30
0.0
 10
63.311473975
 20
100.4188376054
 30
0.0
 10
63.5161590773
 20
100.7051405784
 30
0.0
 10
63.6995787953
 20
101.0106563536
 30
0.0
 10
63.8668563093
 20
101.3284472731
 30
0.0
 10
64.0215980605
 20
101.6547227277
 30
0.0
 10
64.1179369883
 20
101.8759669468
 30
0.0
 10
64.1647642365
 20
101.9873988202
 30
0.0
  0
SPLINE
  5
2D1
100
AcDbEntity
  8
0
100
AcDbSpline
 62
7
  6
CONTINUOUS
 70
0
 71
3
 72
27
 73
23
 74
0
 42
0.0000001
 43
0.0000001
 44
0.0000000001
 40
0.0
 40
0.0
 40
0.0
 40
0.0
 40
0.0647901901
 40
0.1293282787
 40
0.1935222571
 40
0.2572246119
 40
0.3201838013
 40
0.3819581792
 40
0.4122378005
 40
0.4419809843
 40
0.4711770688
 40
0.4999990467
 40
0.5288209372
 40
0.5580172668
 40
0.5877606831
 40
0.6180403915
 40
0.6798148764
 40
0.7427746508
 40
0.8064773035
 40
0.8706714655
 40
0.9352097075
 40
1.0
 40
1.0
 40
1.0
 40
1.0
 10
55.78719353
 20
101.9872752531
 30
0.0
 10
55.8340221039
 20
101.8758441439
 30
0.0
 10
55.9303624091
 20
101.6546010487
 30
0.0
 10
56.0851084736
 20
101.3283285032
 30
0.0
 10
56.2523908116
 20
101.0105414936
 30
0.0
 10
56.4358163319
 20
100.7050312788
 30
0.0
 10
56.6405132193
 20
100.4187390986
 30
0.0
 10
56.8369667712
 20
100.2045242793
 30
0.0
 10
57.0150198422
 20
100.0625171813
 30
0.0
 10
57.158869284
 20
99.9774007595
 30
0.0
 10
57.3136585701
 20
99.9205888199
 30
0.0
 10
57.4760153155
 20
99.900324907
 30
0.0
 10
57.6383683198
 20
99.9206196682
 30
0.0
 10
57.7931492945
 20
99.9774551078
 30
0.0
 10
57.9369891218
 20
100.0625894392
 30
0.0
 10
58.1150291729
 20
100.2046135981
 30
0.0
 10
58.311473975
 20
100.4188376054
 30
0.0
 10
58.5161590773
 20
100.7051405784
 30
0.0
 10
58.6995787953
 20
101.0106563536
 30
0.0
 10
58.8668563093
 20
101.3284472731
 30
0.0
 10
59.0215980605
 20
101.6547227277
 30
0.0
 10
59.1179369883
 20
101.8759669468
 30
0.0
 10
59.1647642365
 20
101.9873988202
 30
0.0
  0
SPLINE
  5
2D2
100
AcDbEntity
  8
0
100
AcDbSpline
 62
7
  6
CONTINUOUS
 70
0
 71
3
 72
27
 73
23
 74
0
 42
0.0000001
 43
0.0000001
 44
0.0000000001
 40
0.0
 40
0.0
 40
0.0
 40
0.0
 40
0.0647901901
 40
0.1293282787
 40
0.1935222571
 40
0.2572246119
 40
0.3201838013
 40
0.3819581792
 40
0.4122378005
 40
0.4419809843
 40
0.4711770688
 40
0.4999990467
 40
0.5288209372
 40
0.5580172668
 40
0.5877606831
 40
0.6180403915
 40
0.6798148764
 40
0.7427746508
 40
0.8064773035
 40
0.8706714655
 40
0.9352097075
 40
1.0
 40
1.0
 40
1.0
 40
1.0
 10
69.28719353
 20
101.9872752531
 30
0.0
 10
69.3340221039
 20
101.8758441439
 30
0.0
 10
69.4303624091
 20
101.6546010487
 30
0.0
 10
69.5851084736
 20
101.3283285032
 30
0.0
 10
69.7523908116
 20
101.0105414936
 30
0.0
 10
69.9358163319
 20
100.7050312788
 30
0.0
 10
70.1405132193
 20
100.4187390986
 30
0.0
 10
70.3369667712
 20
100.2045242793
 30
0.0
 10
70.5150198422
 20
100.0625171813
 30
0.0
 10
70.658869284
 20
99.9774007595
 30
0.0
 10
70.8136585701
 20
99.9205888199
 30
0.0
 10
70.9760153155
 20
99.900324907
 30
0.0
 10
71.1383683198
 20
99.9206196682
 30
0.0
 10
71.2931492945
 20
99.9774551078
 30
0.0
 10
71.4369891218
 20
100.0625894392
 30
0.0
 10
71.6150291729
 20
100.2046135981
 30
0.0
 10
71.811473975
 20
100.4188376054
 30
0.0
 10
72.0161590773
 20
100.7051405784
 30
0.0
 10
72.1995787953
 20
101.0106563536
 30
0.0
 10
72.3668563093
 20
101.3284472731
 30
0.0
 10
72.5215980605
 20
101.6547227277
 30
0.0
 10
72.6179369883
 20
101.8759669468
 30
0.0
 10
72.6647642365
 20
101.9873988202
 30
0.0
  0
SPLINE
  5
2D3
100
AcDbEntity
  8
0
100
AcDbSpline
 62
7
  6
CONTINUOUS
 70
0
 71
3
 72
27
 73
23
 74
0
 42
0.0000001
 43
0.0000001
 44
0.0000000001
 40
0.0
 40
0.0
 40
0.0
 40
0.0
 40
0.0647901901
 40
0.1293282787
 40
0.1935222571
 40
0.2572246119
 40
0.3201838013
 40
0.3819581792
 40
0.4122378005
 40
0.4419809843
 40
0.4711770688
 40
0.4999990467
 40
0.5288209372
 40
0.5580172668
 40
0.5877606831
 40
0.6180403915
 40
0.6798148764
 40
0.7427746508
 40
0.8064773035
 40
0.8706714655
 40
0.9352097075
 40
1.0
 40
1.0
 40
1.0
 40
1.0
 10
74.28719353
 20
101.9872752531
 30
0.0
 10
74.3340221039
 20
101.8758441439
 30
0.0
 10
74.4303624091
 20
101.6546010487
 30
0.0
 10
74.5851084736
 20
101.3283285032
 30
0.0
 10
74.7523908116
 20
101.0105414936
 30
0.0
 10
74.9358163319
 20
100.7050312788
 30
0.0
 10
75.1405132193
 20
100.4187390986
 30
0.0
 10
75.3369667712
 20
100.2045242793
 30
0.0
 10
75.5150198422
 20
100.0625171813
 30
0.0
 10
75.658869284
 20
99.9774007595
 30
0.0
 10
75.8136585701
 20
99.9205888199
 30
0.0
 10
75.9760153155
 20
99.900324907
 30
0.0
 10
76.1383683198
 20
99.9206196682
 30
0.0
 10
76.2931492945
 20
99.9774551078
 30
0.0
 10
76.4369891218
 20
100.0625894392
 30
0.0
 10
76.6150291729
 20
100.2046135981
 30
0.0
 10
76.811473975
 20
100.4188376054
 30
0.0
 10
77.0161590773
 20
100.7051405784
 30
0.0
 10
77.1995787953
 20
101.0106563536
 30
0.0
 10
77.3668563093
 20
101.3284472731
 30
0.0
 10
77.5215980605
 20
101.6547227277
 30
0.0
 10
77.6179369883
 20
101.8759669468
 30
0.0
 10
77.6647642365
 20
101.9873988202
 30
0.0
  0
SPLINE
  5
2D4
100
AcDbEntity
  8
0
100
AcDbSpline
 62
7
  6
CONTINUOUS
 70
0
 71
3
 72
9
 73
5
 74
0
 42
0.0000001
 43
0.0000001
 44
0.0000000001
 40
0.0
 40
0.0
 40
0.0
 40
0.0
 40
0.2547286281
 40
1.0
 40
1.0
 40
1.0
 40
1.0
 10
45.8058765235
 20
161.9111592413
 30
0.0
 10
45.7965155955
 20
161.9627651048
 30
0.0
 10
45.7626960191
 20
162.1657990236
 30
0.0
 10
45.7421134323
 20
162.3716487982
 30
0.0
 10
45.7413563387
 20
162.5250964626
 30
0.0
  0
SPLINE
  5
2D5
100
AcDbEntity
  8
0
100
AcDbSpline
 62
7
  6
CONTINUOUS
 70
0
 71
3
 72
9
 73
5
 74
0
 42
0.0000001
 43
0.0000001
 44
0.0000000001
 40
0.0
 40
0.0
 40
0.0
 40
0.0
 40
0.2638324694
 40
1.0
 40
1.0
 40
1.0
 40
1.0
 10
45.7413563387
 20
162.5250964626
 30
0.0
 10
45.7408812808
 20
162.6213811576
 30
0.0
 10
45.7389822698
 20
162.9863270203
 30
0.0
 10
45.7367283051
 20
163.351270951
 30
0.0
 10
45.7349669238
 20
163.6199300957
 30
0.0
  0
ELLIPSE
  5
2D6
100
AcDbEntity
  8
0
100
AcDbEllipse
 62
7
  6
CONTINUOUS
 10
46.2413282305
 20
162.6756043096
 30
0.0
 11
-0.0
 21
1.5554756641
 31
0.0
 40
0.3214450805
 41
-4.1986302374
 42
-3.4407941801
  0
ENDSEC
  0
SECTION
  2
OBJECTS
  0
DICTIONARY
  5
C
100
AcDbDictionary
280
0
281
1
  3
ACAD_GROUP
350
D
  3
ACAD_MLINESTYLE
350
17
  3
ACAD_LAYOUT
350
1A
  3
ACAD_PLOTSETTINGS
350
19
  3
ACAD_PLOTSTYLENAME
350
E
  0
DICTIONARY
  5
D
102
{ACAD_REACTORS
330
C
102
}
100
AcDbDictionary
280
0
281
1
  0
ACDBDICTIONARYWDFLT
  5
E
102
{ACAD_REACTORS
330
C
102
}
100
AcDbDictionary
281
1
  3
Normal
350
F
100
AcDbDictionaryWithDefault
340
F
  0
DICTIONARY
  5
17
102
{ACAD_REACTORS
330
C
102
}
100
AcDbDictionary
280
0
281
1
  3
Standard
350
18
  0
DICTIONARY
  5
19
102
{ACAD_REACTORS
330
C
102
}
100
AcDbDictionary
281
1
  0
DICTIONARY
  5
1A
102
{ACAD_REACTORS
330
C
102
}
100
AcDbDictionary
281
1
  3
Model
350
2D7
  3
Layout1
350
2D8
  0
ACDBPLACEHOLDER
  5
F
102
{ACAD_REACTORS
330
E
102
}
  0
MLINESTYLE
  5
18
102
{ACAD_REACTORS
330
17
102
}
100
AcDbMlineStyle
  2
STANDARD
 70
0
  3

 62
256
 51
90.0
 52
90.0
 71
2
 49
0.5
 62
256
  6
BYLAYER
 49
-0.5
 62
256
  6
BYLAYER
  0
LAYOUT
  5
2D7
102
{ACAD_REACTORS
330
1A
102
}
100
AcDbPlotSettings
  1

  2
none_device
  4

  6

 40
0.0
 41
0.0
 42
0.0
 43
0.0
 44
210.0
 45
297.0
 46
0.0
 47
0.0
 48
0.0
 49
0.0
140
0.0
141
0.0
142
1.0
143
1.0
 70
1024
 72
1
 73
0
 74
0
  7

 75
0
147
1.0
148
0.0
149
0.0
100
AcDbLayout
  1
Model
 70
0
 71
0
 10
0.0
 20
0.0
 11
210.0
 21
297.0
 12
0.0
 22
0.0
 32
0.0
 14
0.0
 24
0.0
 34
0.0
 15
0.0
 25
0.0
 35
0.0
146
0.0
 13
0.0
 23
0.0
 33
0.0
 16
1.0
 26
0.0
 36
0.0
 17
0.0
 27
1.0
 37
0.0
 76
0
330
210
345
0
346
0
  0
LAYOUT
  5
2D8
102
{ACAD_REACTORS
330
1A
102
}
100
AcDbPlotSettings
  1

  2
none_device
  4

  6

 40
0.0
 41
0.0
 42
0.0
 43
0.0
 44
210.0
 45
297.0
 46
0.0
 47
0.0
 48
0.0
 49
0.0
140
0.0
141
0.0
142
1.0
143
1.0
 70
0
 72
1
 73
0
 74
0
  7

 75
0
147
1.0
148
0.0
149
0.0
100
AcDbLayout
  1
Layout1
 70
0
 71
1
 10
0.0
 20
0.0
 11
210.0
 21
297.0
 12
0.0
 22
0.0
 32
0.0
 14
0.0
 24
0.0
 34
0.0
 15
0.0
 25
0.0
 35
0.0
146
0.0
 13
0.0
 23
0.0
 33
0.0
 16
1.0
 26
0.0
 36
0.0
 17
0.0
 27
1.0
 37
0.0
 76
0
330
211
345
0
346
0
  0
ENDSEC
  0
EOF
