999
DXF file: C:\Users\sesa63760\Dev\_Creo\CAD\MCADID0003884_3D-CAD\drw0001_3.dxf
999
Pro/ENGINEER 2019471 by Parametric Technology Corporation
  0
SECTION
  2
HEADER
  9
$ACADVER
  1
AC1024
  9
$DWGCODEPAGE
  3
ANSI_1252
  9
$EXTMAX
 10
35.2466549554
 20
49.8488405797
 30
0.0
  9
$EXTMIN
 10
0.0
 20
0.0
 30
0.0
  9
$LIMMIN
 10
0.0
 20
0.0
  9
$LIMMAX
 10
35.2466549554
 20
49.8488405797
  9
$VIEWCTR
 10
17.6233274777
 20
24.9244202899
  9
$VIEWSIZE
 40
49.8488405797
  9
$CLAYER
  8
0
  9
$LTSCALE
 40
3.2494059045
  9
$CELTYPE
  6
BYLAYER
  9
$DIMSCALE
 40
1.0
  9
$DIMASZ
 40
0.4196030352
  9
$DIMEXO
 40
1.0
  9
$DIMDLI
 40
2.2450440794
  9
$DIMEXE
 40
1.0
  9
$DIMCEN
 40
0.5317209662
  9
$DIMLFAC
 40
1.0
  9
$DIMBLK
  1
_FILLED
  9
$DIMALT
 70
0
  9
$DIMALTF
 40
0.0393700787
  9
$DIMTXT
 40
0.5874442493
  9
$DIMTOL
 70
1
  9
$DIMLIM
 70
0
  9
$DIMTFAC
 40
1.0
  9
$DIMTP
 40
0.01
  9
$DIMTM
 40
0.01
  9
$DIMGAP
 40
0.625
  9
$DIMDSEP
 70
46
  9
$AUNITS
 70
0
  9
$PDMODE
 70
3
  9
$PDSIZE
 40
0.3125
  9
$HANDSEED
  5
283
  9
$TILEMODE
 70
1
  9
$MEASUREMENT
 70
1
  9
$INSUNITS
 70
4
  0
ENDSEC
  0
SECTION
  2
CLASSES
  0
CLASS
  1
ACDBDICTIONARYWDFLT
  2
AcDbDictionaryWithDefault
  3
AutoCAD 2000
 90
0
 91
1
280
0
281
0
  0
CLASS
  1
ACDBPLACEHOLDER
  2
AcDbPlaceHolder
  3
AutoCAD 2000
 90
0
 91
1
280
0
281
0
  0
CLASS
  1
LAYOUT
  2
AcDbLayout
  3
AutoCAD 2000
 90
0
 91
0
280
0
281
0
  0
ENDSEC
  0
SECTION
  2
TABLES
  0
TABLE
  2
VPORT
  5
8
100
AcDbSymbolTable
 70
2
  0
VPORT
  5
1F4
100
AcDbSymbolTableRecord
100
AcDbViewportTableRecord
  2
*ACTIVE
 70
0
 10
0.0
 20
0.0
 11
1.0
 21
1.0
 12
17.6233274777
 22
24.9244202899
 13
0.0
 23
0.0
 14
1.0
 24
1.0
 15
0.0
 25
0.0
 16
0.0
 26
0.0
 36
1.0
 17
0.0
 27
0.0
 37
0.0
 40
49.8488405797
 41
0.7070707071
 42
50.0
 43
0.0
 44
0.0
 50
0.0
 51
0.0
 71
0
 72
100
 73
1
 74
1
 75
0
 76
0
 77
0
 78
0
  0
ENDTAB
  0
TABLE
  2
LTYPE
  5
5
100
AcDbSymbolTable
 70
6
  0
LTYPE
  5
14
100
AcDbSymbolTableRecord
100
AcDbLinetypeTableRecord
  2
BYBLOCK
 70
0
  3

 72
65
 73
0
 40
0.0
  0
LTYPE
  5
15
100
AcDbSymbolTableRecord
100
AcDbLinetypeTableRecord
  2
BYLAYER
 70
0
  3

 72
65
 73
0
 40
0.0
  0
LTYPE
  5
16
100
AcDbSymbolTableRecord
100
AcDbLinetypeTableRecord
  2
CONTINUOUS
 70
64
  3
Solid line
 72
65
 73
0
 40
0.0
  0
LTYPE
  5
1F5
100
AcDbSymbolTableRecord
100
AcDbLinetypeTableRecord
  2
CENTER
 70
64
  3
____ _ ____ _ ____ _ ____ _ ____ _ ____ _ ____
 72
65
 73
4
 40
0.6
 49
0.375
 74
0
 49
-0.075
 74
0
 49
0.075
 74
0
 49
-0.075
 74
0
  0
LTYPE
  5
1F6
100
AcDbSymbolTableRecord
100
AcDbLinetypeTableRecord
  2
HIDDEN
 70
64
  3
- - - - - - - - - - - - - - - - - - - -
 72
65
 73
2
 40
0.2
 49
0.1
 74
0
 49
-0.1
 74
0
  0
LTYPE
  5
1F7
100
AcDbSymbolTableRecord
100
AcDbLinetypeTableRecord
  2
PHANTOM
 70
64
  3
_____ _ _ _____ _ _ _____ _ _ _____
 72
65
 73
6
 40
0.8
 49
0.45
 74
0
 49
-0.05
 74
0
 49
0.1
 74
0
 49
-0.05
 74
0
 49
0.1
 74
0
 49
-0.05
 74
0
  0
LTYPE
  5
1F8
100
AcDbSymbolTableRecord
100
AcDbLinetypeTableRecord
  2
DOT
 70
64
  3
. . . . . . . . . . . . . . . . . . . .
 72
65
 73
2
 40
0.2
 49
0.1
 74
0
 49
-0.1
 74
0
  0
LTYPE
  5
1F9
100
AcDbSymbolTableRecord
100
AcDbLinetypeTableRecord
  2
DASHED
 70
64
  3
- - - - - - - - - - - - - - - - - - - -
 72
65
 73
2
 40
0.2
 49
0.1
 74
0
 49
-0.1
 74
0
  0
ENDTAB
  0
TABLE
  2
LAYER
  5
2
100
AcDbSymbolTable
 70
36
  0
LAYER
  5
10
100
AcDbSymbolTableRecord
100
AcDbLayerTableRecord
  2
0
 70
0
 62
7
  6
CONTINUOUS
370
-3
390
F
  0
LAYER
  5
1FA
100
AcDbSymbolTableRecord
100
AcDbLayerTableRecord
  2
DEFAULT_1
 70
0
 62
7
  6
CENTER
370
-3
390
F
  0
LAYER
  5
1FB
100
AcDbSymbolTableRecord
100
AcDbLayerTableRecord
  2
DEFAULT_2
 70
0
 62
7
  6
HIDDEN
370
-3
390
F
  0
LAYER
  5
1FC
100
AcDbSymbolTableRecord
100
AcDbLayerTableRecord
  2
DEFAULT_3
 70
0
 62
7
  6
PHANTOM
370
-3
390
F
  0
LAYER
  5
1FD
100
AcDbSymbolTableRecord
100
AcDbLayerTableRecord
  2
00_COMPONENTS
 70
0
 62
7
  6
CONTINUOUS
370
-3
390
F
  0
LAYER
  5
1FE
100
AcDbSymbolTableRecord
100
AcDbLayerTableRecord
  2
01_1_DEFAULT_DATUMS
 70
0
 62
7
  6
CONTINUOUS
370
-3
390
F
  0
LAYER
  5
1FF
100
AcDbSymbolTableRecord
100
AcDbLayerTableRecord
  2
01_PLANES
 70
0
 62
7
  6
CONTINUOUS
370
-3
390
F
  0
LAYER
  5
200
100
AcDbSymbolTableRecord
100
AcDbLayerTableRecord
  2
02_COORD_SYS
 70
0
 62
7
  6
CONTINUOUS
370
-3
390
F
  0
LAYER
  5
201
100
AcDbSymbolTableRecord
100
AcDbLayerTableRecord
  2
03_AXES
 70
0
 62
7
  6
CONTINUOUS
370
-3
390
F
  0
LAYER
  5
202
100
AcDbSymbolTableRecord
100
AcDbLayerTableRecord
  2
04_POINTS
 70
0
 62
7
  6
CONTINUOUS
370
-3
390
F
  0
LAYER
  5
203
100
AcDbSymbolTableRecord
100
AcDbLayerTableRecord
  2
05_CURVES
 70
0
 62
7
  6
CONTINUOUS
370
-3
390
F
  0
LAYER
  5
204
100
AcDbSymbolTableRecord
100
AcDbLayerTableRecord
  2
06_SURFS
 70
0
 62
7
  6
CONTINUOUS
370
-3
390
F
  0
LAYER
  5
205
100
AcDbSymbolTableRecord
100
AcDbLayerTableRecord
  2
07_COSMETICS
 70
0
 62
7
  6
CONTINUOUS
370
-3
390
F
  0
LAYER
  5
206
100
AcDbSymbolTableRecord
100
AcDbLayerTableRecord
  2
10_NOTES
 70
0
 62
7
  6
CONTINUOUS
370
-3
390
F
  0
LAYER
  5
207
100
AcDbSymbolTableRecord
100
AcDbLayerTableRecord
  2
11_NOTES_PUB
 70
0
 62
7
  6
CONTINUOUS
370
-3
390
F
  0
LAYER
  5
208
100
AcDbSymbolTableRecord
100
AcDbLayerTableRecord
  2
13_REF_GTOL
 70
0
 62
7
  6
CONTINUOUS
370
-3
390
F
  0
LAYER
  5
209
100
AcDbSymbolTableRecord
100
AcDbLayerTableRecord
  2
16_MISC
 70
0
 62
7
  6
CONTINUOUS
370
-3
390
F
  0
LAYER
  5
20A
100
AcDbSymbolTableRecord
100
AcDbLayerTableRecord
  2
17_NO_PRINT
 70
0
 62
7
  6
CONTINUOUS
370
-3
390
F
  0
LAYER
  5
20B
100
AcDbSymbolTableRecord
100
AcDbLayerTableRecord
  2
18_DATUM_CAMS_JOINTS
 70
0
 62
7
  6
CONTINUOUS
370
-3
390
F
  0
LAYER
  5
20C
100
AcDbSymbolTableRecord
100
AcDbLayerTableRecord
  2
19_DATUM_FUNCTIONAL
 70
0
 62
7
  6
CONTINUOUS
370
-3
390
F
  0
LAYER
  5
20D
100
AcDbSymbolTableRecord
100
AcDbLayerTableRecord
  2
20_DATUM_KINEMATIC_SCHEME
 70
0
 62
7
  6
CONTINUOUS
370
-3
390
F
  0
ENDTAB
  0
TABLE
  2
STYLE
  5
3
100
AcDbSymbolTable
 70
1
  0
STYLE
  5
11
100
AcDbSymbolTableRecord
100
AcDbTextStyleTableRecord
  2
STANDARD
 70
0
 40
0.0
 41
1.0
 50
0.0
 71
0
 42
0.2
  3
ARIAL.TTF
  4

  0
STYLE
  5
20E
100
AcDbSymbolTableRecord
100
AcDbTextStyleTableRecord
  2
TEXTSTYLE_1
 70
0
 40
0.0
 41
0.8
 50
0.0
 71
0
 42
0.2
  3
gdt
  4

  0
ENDTAB
  0
TABLE
  2
VIEW
  5
6
100
AcDbSymbolTable
 70
0
  0
ENDTAB
  0
TABLE
  2
UCS
  5
7
100
AcDbSymbolTable
 70
0
  0
ENDTAB
  0
TABLE
  2
APPID
  5
9
100
AcDbSymbolTable
 70
1
  0
APPID
  5
20F
100
AcDbSymbolTableRecord
100
AcDbRegAppTableRecord
  2
ACAD
 70
0
  0
ENDTAB
  0
TABLE
  2
BLOCK_RECORD
  5
1
100
AcDbSymbolTable
 70
0
  0
BLOCK_RECORD
  5
210
100
AcDbSymbolTableRecord
100
AcDbBlockTableRecord
  2
*Model_Space
  0
BLOCK_RECORD
  5
211
100
AcDbSymbolTableRecord
100
AcDbBlockTableRecord
  2
*Paper_Space
  0
BLOCK_RECORD
  5
212
100
AcDbSymbolTableRecord
100
AcDbBlockTableRecord
  2
_FILLED
  0
ENDTAB
  0
TABLE
  2
DIMSTYLE
  5
A
100
AcDbSymbolTable
 70
1
100
AcDbDimStyleTable
 71
0
  0
DIMSTYLE
105
213
100
AcDbSymbolTableRecord
100
AcDbDimStyleTableRecord
  2
STANDARD
 70
0
  3

  4

 40
1.0
 41
0.4196030352
 42
1.0
 43
0.38
 44
1.0
 45
0.0
 46
0.0
 47
0.01
 48
0.01
140
0.5874442493
141
0.09
142
0.0
143
25.4
144
1.0
145
0.0
146
1.0
147
0.625
 71
1
 72
0
 73
0
 74
0
 75
0
 76
0
 77
1
 78
8
 79
2
170
0
171
1
172
0
173
0
174
0
175
0
176
0
177
0
178
0
270
2
179
2
271
2
272
2
273
2
274
2
275
0
280
0
281
0
282
0
283
1
284
8
285
0
286
0
287
3
288
0
340
11
278
46
341
212
342
212
343
212
344
212
  0
ENDTAB
  0
ENDSEC
  0
SECTION
  2
BLOCKS
  0
BLOCK
  5
20
100
AcDbEntity
  8
0
100
AcDbBlockBegin
  2
*Model_Space
 70
0
 10
0.0
 20
0.0
 30
0.0
  3
*Model_Space
  1

  0
ENDBLK
  5
21
100
AcDbEntity
  8
0
100
AcDbBlockEnd
  0
BLOCK
  5
1C
100
AcDbEntity
  8
0
100
AcDbBlockBegin
  2
*Paper_Space
 70
0
 10
0.0
 20
0.0
 30
0.0
  3
*Paper_Space
  1

  0
ENDBLK
  5
1D
100
AcDbEntity
  8
0
100
AcDbBlockEnd
  0
BLOCK
  5
214
100
AcDbEntity
  8
0
100
AcDbBlockBegin
  2
_FILLED
 70
64
 10
0.0
 20
0.0
  3
_FILLED
  1

  0
SOLID
  5
215
100
AcDbEntity
  8
0
  6
BYBLOCK
 62
0
100
AcDbTrace
 10
0.0
 20
0.0
 11
-1.0
 21
0.25
 12
-1.0
 22
-0.25
 13
-1.0
 23
-0.25
  0
ENDBLK
  5
216
100
AcDbEntity
  8
0
  6
BYBLOCK
 62
0
100
AcDbBlockEnd
  0
ENDSEC
  0
SECTION
  2
ENTITIES
  0
LINE
  5
217
100
AcDbEntity
  8
0
100
AcDbLine
 62
7
  6
BYLAYER
 10
19.9113889781
 20
3.9964492754
 11
16.3114049684
 21
3.9964492754
  0
LINE
  5
218
100
AcDbEntity
  8
0
100
AcDbLine
 62
7
  6
BYLAYER
 10
20.1114049684
 20
4.1964492754
 11
18.7359047682
 21
4.1964492754
  0
LINE
  5
219
100
AcDbEntity
  8
0
100
AcDbLine
 62
7
  6
BYLAYER
 10
17.4869051686
 20
4.1964492754
 11
16.1114049684
 21
4.1964492754
  0
LINE
  5
21A
100
AcDbEntity
  8
0
100
AcDbLine
 62
7
  6
BYLAYER
 10
20.4113064646
 20
4.3964492754
 11
15.8114049684
 21
4.3964492754
  0
LINE
  5
21B
100
AcDbEntity
  8
0
100
AcDbLine
 62
7
  6
BYLAYER
 10
20.6114049684
 20
4.5964492754
 11
15.6114049684
 21
4.5964492754
  0
LINE
  5
21C
100
AcDbEntity
  8
0
100
AcDbLine
 62
7
  6
BYLAYER
 10
22.1114049684
 20
6.9964492754
 11
14.1114049684
 21
6.9964492754
  0
LINE
  5
21D
100
AcDbEntity
  8
0
100
AcDbLine
 62
7
  6
BYLAYER
 10
15.8114049684
 20
4.3964492754
 11
15.6114049684
 21
4.5964492754
  0
LINE
  5
21E
100
AcDbEntity
  8
0
100
AcDbLine
 62
7
  6
BYLAYER
 10
14.8614049684
 20
43.4964492754
 11
14.1114049684
 21
42.7464492754
  0
LINE
  5
21F
100
AcDbEntity
  8
0
100
AcDbLine
 62
7
  6
BYLAYER
 10
14.1114049684
 20
10.9964492754
 11
22.1114049684
 21
10.9964492754
  0
LINE
  5
220
100
AcDbEntity
  8
0
100
AcDbLine
 62
7
  6
BYLAYER
 10
22.1114049684
 20
12.9964492754
 11
14.1114049684
 21
12.9964492754
  0
LINE
  5
221
100
AcDbEntity
  8
0
100
AcDbLine
 62
7
  6
BYLAYER
 10
21.3614049684
 20
39.9464492754
 11
22.1114049684
 21
40.6964492754
  0
LINE
  5
222
100
AcDbEntity
  8
0
100
AcDbLine
 62
7
  6
BYLAYER
 10
14.1114049684
 20
16.9964492754
 11
22.1114049684
 21
16.9964492754
  0
LINE
  5
223
100
AcDbEntity
  8
0
100
AcDbLine
 62
7
  6
BYLAYER
 10
14.8906300433
 20
46.0964492754
 11
14.6614049684
 21
44.7964492754
  0
LINE
  5
224
100
AcDbEntity
  8
0
100
AcDbLine
 62
7
  6
BYLAYER
 10
14.1114049684
 20
10.9964492754
 11
14.1114049684
 21
6.9964492754
  0
LINE
  5
225
100
AcDbEntity
  8
0
100
AcDbLine
 62
7
  6
BYLAYER
 10
14.1114049684
 20
12.9964492754
 11
14.1114049684
 21
16.9964492754
  0
LINE
  5
226
100
AcDbEntity
  8
0
100
AcDbLine
 62
7
  6
BYLAYER
 10
14.1114049684
 20
40.6964492754
 11
14.1114049684
 21
42.7464492754
  0
LINE
  5
227
100
AcDbEntity
  8
0
100
AcDbLine
 62
7
  6
BYLAYER
 10
14.5444176703
 20
10.7711622938
 11
14.5444176703
 21
7.2217362569
  0
LINE
  5
228
100
AcDbEntity
  8
0
100
AcDbLine
 62
7
  6
BYLAYER
 10
14.5444176703
 20
13.2217358731
 11
14.5444176703
 21
16.7711626776
  0
LINE
  5
229
100
AcDbEntity
  8
0
100
AcDbLine
 62
7
  6
BYLAYER
 10
14.6614049684
 20
44.5964492754
 11
14.6614049684
 21
44.7964492754
  0
LINE
  5
22A
100
AcDbEntity
  8
0
100
AcDbLine
 62
7
  6
BYLAYER
 10
14.8614049684
 20
29.6634365735
 11
14.8614049684
 21
39.9464492754
  0
LINE
  5
22B
100
AcDbEntity
  8
0
100
AcDbLine
 62
7
  6
BYLAYER
 10
14.8614049684
 20
43.4964492754
 11
14.8614049684
 21
44.5964492754
  0
LINE
  5
22C
100
AcDbEntity
  8
0
100
AcDbLine
 62
7
  6
BYLAYER
 10
15.8114049684
 20
27.8964492754
 11
15.6114049684
 21
27.6964492754
  0
LINE
  5
22D
100
AcDbEntity
  8
0
100
AcDbLine
 62
7
  6
BYLAYER
 10
15.6114049684
 20
21.1964492754
 11
15.4614049684
 21
21.1964492754
  0
LINE
  5
22E
100
AcDbEntity
  8
0
100
AcDbLine
 62
7
  6
BYLAYER
 10
15.6114049684
 20
22.1964492754
 11
15.4614049684
 21
22.1964492754
  0
LINE
  5
22F
100
AcDbEntity
  8
0
100
AcDbLine
 62
7
  6
BYLAYER
 10
15.4614049684
 20
21.1964492754
 11
15.4614049684
 21
22.1964492754
  0
LINE
  5
230
100
AcDbEntity
  8
0
100
AcDbLine
 62
7
  6
BYLAYER
 10
15.6114049684
 20
4.5964492754
 11
15.6114049684
 21
6.9964492754
  0
LINE
  5
231
100
AcDbEntity
  8
0
100
AcDbLine
 62
7
  6
BYLAYER
 10
15.6114049684
 20
10.9964492754
 11
15.6114049684
 21
12.9964492754
  0
LINE
  5
232
100
AcDbEntity
  8
0
100
AcDbLine
 62
7
  6
BYLAYER
 10
15.6114049684
 20
16.9964492754
 11
15.6114049684
 21
21.1964492754
  0
LINE
  5
233
100
AcDbEntity
  8
0
100
AcDbLine
 62
7
  6
BYLAYER
 10
15.6114049684
 20
22.1964492754
 11
15.6114049684
 21
27.6964492754
  0
LINE
  5
234
100
AcDbEntity
  8
0
100
AcDbLine
 62
7
  6
BYLAYER
 10
16.0514049684
 20
27.8964492754
 11
16.0514049684
 21
28.0964492754
  0
LINE
  5
235
100
AcDbEntity
  8
0
100
AcDbLine
 62
7
  6
BYLAYER
 10
16.1114049684
 20
4.1964492754
 11
16.1114049684
 21
4.3964492754
  0
LINE
  5
236
100
AcDbEntity
  8
0
100
AcDbLine
 62
7
  6
BYLAYER
 10
17.4869051686
 20
4.1964492754
 11
17.4869051686
 21
4.3964492754
  0
LINE
  5
237
100
AcDbEntity
  8
0
100
AcDbLine
 62
7
  6
BYLAYER
 10
17.6783922665
 20
10.7711626956
 11
17.6783922665
 21
7.2217358551
  0
LINE
  5
238
100
AcDbEntity
  8
0
100
AcDbLine
 62
7
  6
BYLAYER
 10
17.6783922665
 20
13.2217362458
 11
17.6783922665
 21
16.771162305
  0
LINE
  5
239
100
AcDbEntity
  8
0
100
AcDbLine
 62
7
  6
BYLAYER
 10
15.6114049684
 20
28.0964492754
 11
14.9953795646
 21
29.1634365735
  0
LINE
  5
23A
100
AcDbEntity
  8
0
100
AcDbLine
 62
7
  6
BYLAYER
 10
18.3712125895
 20
10.7214295608
 11
18.3712125895
 21
7.27146899
  0
LINE
  5
23B
100
AcDbEntity
  8
0
100
AcDbLine
 62
7
  6
BYLAYER
 10
18.3712125895
 20
13.2714687296
 11
18.3712125895
 21
16.7214298211
  0
LINE
  5
23C
100
AcDbEntity
  8
0
100
AcDbLine
 62
7
  6
BYLAYER
 10
18.7359047682
 20
4.3964492754
 11
18.7359047682
 21
4.1964492754
  0
LINE
  5
23D
100
AcDbEntity
  8
0
100
AcDbLine
 62
7
  6
BYLAYER
 10
20.6114049684
 20
28.0964492754
 11
21.2274303722
 21
29.1634365735
  0
LINE
  5
23E
100
AcDbEntity
  8
0
100
AcDbLine
 62
7
  6
BYLAYER
 10
20.1114049684
 20
4.1964492754
 11
20.1114049684
 21
4.3964492754
  0
LINE
  5
23F
100
AcDbEntity
  8
0
100
AcDbLine
 62
7
  6
BYLAYER
 10
20.1714049684
 20
27.8964492754
 11
20.1714049684
 21
28.0964492754
  0
LINE
  5
240
100
AcDbEntity
  8
0
100
AcDbLine
 62
7
  6
BYLAYER
 10
20.6114049684
 20
4.5964492754
 11
20.6114049684
 21
6.9964492754
  0
LINE
  5
241
100
AcDbEntity
  8
0
100
AcDbLine
 62
7
  6
BYLAYER
 10
20.6114049684
 20
10.9964492754
 11
20.6114049684
 21
12.9964492754
  0
LINE
  5
242
100
AcDbEntity
  8
0
100
AcDbLine
 62
7
  6
BYLAYER
 10
20.6114049684
 20
16.9964492754
 11
20.6114049684
 21
27.6964492754
  0
LINE
  5
243
100
AcDbEntity
  8
0
100
AcDbLine
 62
7
  6
BYLAYER
 10
15.6114049684
 20
27.6964492754
 11
20.6114049684
 21
27.6964492754
  0
LINE
  5
244
100
AcDbEntity
  8
0
100
AcDbLine
 62
7
  6
BYLAYER
 10
15.8114803703
 20
27.8964492754
 11
20.4113295665
 21
27.8964492754
  0
LINE
  5
245
100
AcDbEntity
  8
0
100
AcDbLine
 62
7
  6
BYLAYER
 10
21.3614049684
 20
29.6634365735
 11
21.3614049684
 21
39.9464492754
  0
LINE
  5
246
100
AcDbEntity
  8
0
100
AcDbLine
 62
7
  6
BYLAYER
 10
21.3614049684
 20
43.4964492754
 11
21.3614049684
 21
44.5964492754
  0
LINE
  5
247
100
AcDbEntity
  8
0
100
AcDbLine
 62
7
  6
BYLAYER
 10
21.5614049684
 20
44.5964492754
 11
21.5614049684
 21
44.7964492754
  0
LINE
  5
248
100
AcDbEntity
  8
0
100
AcDbLine
 62
7
  6
BYLAYER
 10
21.8515973473
 20
10.7214298286
 11
21.8515973473
 21
7.2714687221
  0
LINE
  5
249
100
AcDbEntity
  8
0
100
AcDbLine
 62
7
  6
BYLAYER
 10
21.8515973473
 20
13.2714689852
 11
21.8515973473
 21
16.7214295656
  0
LINE
  5
24A
100
AcDbEntity
  8
0
100
AcDbLine
 62
7
  6
BYLAYER
 10
22.1114049684
 20
6.9964492754
 11
22.1114049684
 21
10.9964492754
  0
LINE
  5
24B
100
AcDbEntity
  8
0
100
AcDbLine
 62
7
  6
BYLAYER
 10
22.1114049684
 20
12.9964492754
 11
22.1114049684
 21
16.9964492754
  0
LINE
  5
24C
100
AcDbEntity
  8
0
100
AcDbLine
 62
7
  6
BYLAYER
 10
22.1114049684
 20
40.6964492754
 11
22.1114049684
 21
42.7464492754
  0
LINE
  5
24D
100
AcDbEntity
  8
0
100
AcDbLine
 62
7
  6
BYLAYER
 10
20.6113967386
 20
28.0964492754
 11
15.6114049684
 21
28.0964492754
  0
LINE
  5
24E
100
AcDbEntity
  8
0
100
AcDbLine
 62
7
  6
BYLAYER
 10
14.9953795646
 20
29.1634365735
 11
21.2274303722
 21
29.1634365735
  0
LINE
  5
24F
100
AcDbEntity
  8
0
100
AcDbLine
 62
7
  6
BYLAYER
 10
20.4114049684
 20
27.8964492754
 11
20.6114049684
 21
27.6964492754
  0
LINE
  5
250
100
AcDbEntity
  8
0
100
AcDbLine
 62
7
  6
BYLAYER
 10
21.3614049684
 20
29.6634365735
 11
14.8614049684
 21
29.6634365735
  0
LINE
  5
251
100
AcDbEntity
  8
0
100
AcDbLine
 62
7
  6
BYLAYER
 10
21.3321798935
 20
46.0964492754
 11
21.5614049684
 21
44.7964492754
  0
LINE
  5
252
100
AcDbEntity
  8
0
100
AcDbLine
 62
7
  6
BYLAYER
 10
14.8614049684
 20
39.9464492754
 11
14.1114049684
 21
40.6964492754
  0
LINE
  5
253
100
AcDbEntity
  8
0
100
AcDbLine
 62
7
  6
BYLAYER
 10
14.8614049684
 20
39.9464492754
 11
21.3614049684
 21
39.9464492754
  0
LINE
  5
254
100
AcDbEntity
  8
0
100
AcDbLine
 62
7
  6
BYLAYER
 10
22.1114049684
 20
40.6964492754
 11
14.1114049684
 21
40.6964492754
  0
LINE
  5
255
100
AcDbEntity
  8
0
100
AcDbLine
 62
7
  6
BYLAYER
 10
21.3614049684
 20
43.4964492754
 11
22.1114049684
 21
42.7464492754
  0
LINE
  5
256
100
AcDbEntity
  8
0
100
AcDbLine
 62
7
  6
BYLAYER
 10
20.4114049684
 20
4.3964492754
 11
20.6114049684
 21
4.5964492754
  0
LINE
  5
257
100
AcDbEntity
  8
0
100
AcDbLine
 62
7
  6
BYLAYER
 10
14.1114049684
 20
42.7464492754
 11
22.1114049684
 21
42.7464492754
  0
LINE
  5
258
100
AcDbEntity
  8
0
100
AcDbLine
 62
7
  6
BYLAYER
 10
21.3614049684
 20
43.4964492754
 11
14.8614049684
 21
43.4964492754
  0
LINE
  5
259
100
AcDbEntity
  8
0
100
AcDbLine
 62
7
  6
BYLAYER
 10
21.5613416886
 20
44.5964492754
 11
14.6614049684
 21
44.5964492754
  0
LINE
  5
25A
100
AcDbEntity
  8
0
100
AcDbLine
 62
7
  6
BYLAYER
 10
14.6614049684
 20
44.7964492754
 11
21.5614049684
 21
44.7964492754
  0
LINE
  5
25B
100
AcDbEntity
  8
0
100
AcDbLine
 62
7
  6
BYLAYER
 10
14.8906785582
 20
46.0964492754
 11
21.3321313786
 21
46.0964492754
  0
ARC
  5
25C
100
AcDbEntity
  8
0
100
AcDbCircle
 62
7
  6
BYLAYER
 10
17.4745094009
 20
9.0815287492
 40
7.6923396187
100
AcDbArc
 50
83.3057621031
 51
88.481216195
  0
ARC
  5
25D
100
AcDbEntity
  8
0
100
AcDbCircle
 62
7
  6
BYLAYER
 10
17.4745094036
 20
20.911369765
 40
7.6923395821
100
AcDbArc
 50
271.5187837927
 51
276.6942379093
  0
ARC
  5
25E
100
AcDbEntity
  8
0
100
AcDbCircle
 62
7
  6
BYLAYER
 10
17.4747651799
 20
14.909078827
 40
7.6900393989
100
AcDbArc
 50
271.5173311699
 51
276.6943349467
  0
ARC
  5
25F
100
AcDbEntity
  8
0
100
AcDbCircle
 62
7
  6
BYLAYER
 10
17.4747651799
 20
3.0838197238
 40
7.6900393989
100
AcDbArc
 50
83.3056650533
 51
88.4826688301
  0
ARC
  5
260
100
AcDbEntity
  8
0
100
AcDbCircle
 62
7
  6
BYLAYER
 10
20.3614049684
 20
29.6634365735
 40
1.0
100
AcDbArc
 50
330.0
 51
360.0
  0
ARC
  5
261
100
AcDbEntity
  8
0
100
AcDbCircle
 62
7
  6
BYLAYER
 10
15.8614049684
 20
29.6634365735
 40
1.0
100
AcDbArc
 50
180.0
 51
210.0
  0
ARC
  5
262
100
AcDbEntity
  8
0
100
AcDbCircle
 62
7
  6
BYLAYER
 10
19.9114049684
 20
4.1964492754
 40
0.2
100
AcDbArc
 50
270.0
 51
360.0
  0
ARC
  5
263
100
AcDbEntity
  8
0
100
AcDbCircle
 62
7
  6
BYLAYER
 10
16.3114049684
 20
4.1964492754
 40
0.2
100
AcDbArc
 50
180.0
 51
270.0
  0
SPLINE
  5
264
100
AcDbEntity
  8
0
100
AcDbSpline
 62
7
  6
BYLAYER
 70
0
 71
3
 72
49
 73
45
 74
0
 42
0.0000001
 43
0.0000001
 44
0.0000000001
 40
0.0
 40
0.0
 40
0.0
 40
0.0
 40
0.015639821
 40
0.023481566
 40
0.0313142853
 40
0.0391566018
 40
0.0469855283
 40
0.0626186967
 40
0.0782449476
 40
0.0938791774
 40
0.1251135442
 40
0.1407368964
 40
0.1563600937
 40
0.1875997837
 40
0.2188399846
 40
0.2500801472
 40
0.2813201275
 40
0.3125600121
 40
0.3750365015
 40
0.4062761907
 40
0.437515899
 40
0.468755531
 40
0.4999951869
 40
0.5312348047
 40
0.5624744966
 40
0.6249520006
 40
0.656191775
 40
0.6874317218
 40
0.7186715899
 40
0.7499116289
 40
0.781151716
 40
0.8123920361
 40
0.8436321319
 40
0.8748721278
 40
0.8904964302
 40
0.9061212532
 40
0.9217514789
 40
0.9373799699
 40
0.9530162909
 40
0.9608423141
 40
0.9686826584
 40
0.9765168431
 40
0.9843611863
 40
1.0
 40
1.0
 40
1.0
 40
1.0
 10
17.4869051686
 20
4.1964492754
 30
0.0
 10
17.4869051686
 20
4.1893194366
 30
0.0
 10
17.4888428511
 20
4.1785348792
 30
0.0
 10
17.4944673486
 20
4.165386123
 30
0.0
 10
17.4999830585
 20
4.1561567364
 30
0.0
 10
17.5064516071
 20
4.147595677
 30
0.0
 10
17.5160136725
 20
4.1369823515
 30
0.0
 10
17.5294494668
 20
4.1251781421
 30
0.0
 10
17.5471415652
 20
4.1131137144
 30
0.0
 10
17.5720205418
 20
4.0991828241
 30
0.0
 10
17.5981583937
 20
4.0876807096
 30
0.0
 10
17.6249646975
 20
4.0780409257
 30
0.0
 10
17.6521216716
 20
4.069420009
 30
0.0
 10
17.6865623846
 20
4.0603021623
 30
0.0
 10
17.7283884441
 20
4.0515119256
 30
0.0
 10
17.7705451595
 20
4.0445084809
 30
0.0
 10
17.8128921985
 20
4.038800385
 30
0.0
 10
17.8695281698
 20
4.0326418982
 30
0.0
 10
17.9263558579
 20
4.0284345556
 30
0.0
 10
17.9832559333
 20
4.0257054179
 30
0.0
 10
18.0259577928
 20
4.0242699037
 30
0.0
 10
18.0686749659
 20
4.0234201607
 30
0.0
 10
18.1113996879
 20
4.0231487291
 30
0.0
 10
18.1541243446
 20
4.0234422816
 30
0.0
 10
18.2110793469
 20
4.0245429084
 30
0.0
 10
18.2680112635
 20
4.0267891876
 30
0.0
 10
18.3248548874
 20
4.0305527828
 30
0.0
 10
18.367426439
 20
4.0342025821
 30
0.0
 10
18.409906837
 20
4.0388043279
 30
0.0
 10
18.4522525524
 20
4.0445266933
 30
0.0
 10
18.4944001693
 20
4.0515796362
 30
0.0
 10
18.5362348484
 20
4.0603325405
 30
0.0
 10
18.5775654806
 20
4.0712423107
 30
0.0
 10
18.6113620303
 20
4.0825742984
 30
0.0
 10
18.6377117116
 20
4.0934305219
 30
0.0
 10
18.6570037774
 20
4.1026547218
 30
0.0
 10
18.6756437909
 20
4.1131561811
 30
0.0
 10
18.6933017102
 20
4.1252630772
 30
0.0
 10
18.7068005239
 20
4.1369921337
 30
0.0
 10
18.716401139
 20
4.1475717887
 30
0.0
 10
18.7228659644
 20
4.1561351348
 30
0.0
 10
18.7283608873
 20
4.1653783707
 30
0.0
 10
18.7339626914
 20
4.1785371644
 30
0.0
 10
18.7359047682
 20
4.1893198958
 30
0.0
 10
18.7359047682
 20
4.1964492754
 30
0.0
  0
SPLINE
  5
265
100
AcDbEntity
  8
0
100
AcDbSpline
 62
7
  6
BYLAYER
 70
0
 71
3
 72
11
 73
7
 74
0
 42
0.0000001
 43
0.0000001
 44
0.0000000001
 40
0.0
 40
0.0
 40
0.0
 40
0.0
 40
0.2490878497
 40
0.4985977472
 40
0.7488451431
 40
1.0
 40
1.0
 40
1.0
 40
1.0
 10
20.1114048629
 20
10.9964482035
 30
0.0
 10
20.2581806908
 20
10.9964489411
 30
0.0
 10
20.5521266063
 20
10.9839134086
 30
0.0
 10
20.9903776102
 20
10.9288380893
 30
0.0
 10
21.4244081962
 20
10.8409957661
 30
0.0
 10
21.7098162063
 20
10.7638592533
 30
0.0
 10
21.8515973473
 20
10.7214295656
 30
0.0
  0
SPLINE
  5
266
100
AcDbEntity
  8
0
100
AcDbSpline
 62
7
  6
BYLAYER
 70
0
 71
3
 72
11
 73
7
 74
0
 42
0.0000001
 43
0.0000001
 44
0.0000000001
 40
0.0
 40
0.0
 40
0.0
 40
0.0
 40
0.2511548908
 40
0.5014023137
 40
0.7509121935
 40
1.0
 40
1.0
 40
1.0
 40
1.0
 10
21.8515973473
 20
7.2714689852
 30
0.0
 10
21.7098161872
 20
7.2290392917
 30
0.0
 10
21.4244081471
 20
7.1519027509
 30
0.0
 10
20.9903775277
 20
7.0640604624
 30
0.0
 10
20.5521265449
 20
7.0089851453
 30
0.0
 10
20.2581806653
 20
6.9964496092
 30
0.0
 10
20.1114048629
 20
6.9964503472
 30
0.0
  0
SPLINE
  5
267
100
AcDbEntity
  8
0
100
AcDbSpline
 62
7
  6
BYLAYER
 70
0
 71
3
 72
9
 73
5
 74
0
 42
0.0000001
 43
0.0000001
 44
0.0000000001
 40
0.0
 40
0.0
 40
0.0
 40
0.0
 40
0.495219109
 40
1.0
 40
1.0
 40
1.0
 40
1.0
 10
22.1114049684
 20
7.2217363646
 30
0.0
 10
22.0677692356
 20
7.2247596925
 30
0.0
 10
21.9799609252
 20
7.2363799823
 30
0.0
 10
21.8941683811
 20
7.2582203429
 30
0.0
 10
21.8515973473
 20
7.2714687221
 30
0.0
  0
SPLINE
  5
268
100
AcDbEntity
  8
0
100
AcDbSpline
 62
7
  6
BYLAYER
 70
0
 71
3
 72
11
 73
7
 74
0
 42
0.0000001
 43
0.0000001
 44
0.0000000001
 40
0.0
 40
0.0
 40
0.0
 40
0.0
 40
0.2490878495
 40
0.4985977472
 40
0.7488451436
 40
1.0
 40
1.0
 40
1.0
 40
1.0
 10
20.1114048629
 20
6.9964503472
 30
0.0
 10
19.9646290525
 20
6.9964496156
 30
0.0
 10
19.6706831707
 20
7.0089851252
 30
0.0
 10
19.2324322217
 20
7.0640604785
 30
0.0
 10
18.7984016938
 20
7.1519028184
 30
0.0
 10
18.5129937135
 20
7.2290393072
 30
0.0
 10
18.3712125895
 20
7.27146899
 30
0.0
  0
SPLINE
  5
269
100
AcDbEntity
  8
0
100
AcDbSpline
 62
7
  6
BYLAYER
 70
0
 71
3
 72
11
 73
7
 74
0
 42
0.0000001
 43
0.0000001
 44
0.0000000001
 40
0.0
 40
0.0
 40
0.0
 40
0.0
 40
0.2509833123
 40
0.5011812377
 40
0.7507630403
 40
1.0
 40
1.0
 40
1.0
 40
1.0
 10
17.6783922665
 20
7.2217362458
 30
0.0
 10
17.5503150779
 20
7.1865453948
 30
0.0
 10
17.2926588913
 20
7.1229272543
 30
0.0
 10
16.9015880019
 20
7.0512338772
 30
0.0
 10
16.5073919546
 20
7.0065967718
 30
0.0
 10
16.2433044706
 20
6.9964496146
 30
0.0
 10
16.1114048629
 20
6.9964503475
 30
0.0
  0
SPLINE
  5
26A
100
AcDbEntity
  8
0
100
AcDbSpline
 62
7
  6
BYLAYER
 70
0
 71
3
 72
11
 73
7
 74
0
 42
0.0000001
 43
0.0000001
 44
0.0000000001
 40
0.0
 40
0.0
 40
0.0
 40
0.0
 40
0.2511548903
 40
0.5014023136
 40
0.7509121937
 40
1.0
 40
1.0
 40
1.0
 40
1.0
 10
18.3712125895
 20
10.7214295608
 30
0.0
 10
18.5129937326
 20
10.7638592493
 30
0.0
 10
18.7984017429
 20
10.840995766
 30
0.0
 10
19.2324323043
 20
10.9288380713
 30
0.0
 10
19.6706832321
 20
10.9839134223
 30
0.0
 10
19.964629078
 20
10.9964489355
 30
0.0
 10
20.1114048629
 20
10.9964482035
 30
0.0
  0
SPLINE
  5
26B
100
AcDbEntity
  8
0
100
AcDbSpline
 62
7
  6
BYLAYER
 70
0
 71
3
 72
11
 73
7
 74
0
 42
0.0000001
 43
0.0000001
 44
0.0000000001
 40
0.0
 40
0.0
 40
0.0
 40
0.0
 40
0.2492369842
 40
0.4988187978
 40
0.7490167077
 40
1.0
 40
1.0
 40
1.0
 40
1.0
 10
16.1114048629
 20
10.9964482032
 30
0.0
 10
16.2433044836
 20
10.9964489359
 30
0.0
 10
16.5073919865
 20
10.9863017805
 30
0.0
 10
16.9015880448
 20
10.9416646734
 30
0.0
 10
17.2926589186
 20
10.8699712837
 30
0.0
 10
17.5503150881
 20
10.8063531531
 30
0.0
 10
17.6783922665
 20
10.7711623049
 30
0.0
  0
SPLINE
  5
26C
100
AcDbEntity
  8
0
100
AcDbSpline
 62
7
  6
BYLAYER
 70
0
 71
3
 72
11
 73
7
 74
0
 42
0.0000001
 43
0.0000001
 44
0.0000000001
 40
0.0
 40
0.0
 40
0.0
 40
0.0
 40
0.2492369839
 40
0.4988187976
 40
0.7490167077
 40
1.0
 40
1.0
 40
1.0
 40
1.0
 10
16.1114048629
 20
6.9964503475
 30
0.0
 10
15.9795052596
 20
6.9964496202
 30
0.0
 10
15.7154177909
 20
7.0065967631
 30
0.0
 10
15.3212217859
 20
7.0512338875
 30
0.0
 10
14.9301509673
 20
7.1229272892
 30
0.0
 10
14.6724948318
 20
7.1865454129
 30
0.0
 10
14.5444176703
 20
7.2217362569
 30
0.0
  0
SPLINE
  5
26D
100
AcDbEntity
  8
0
100
AcDbSpline
 62
7
  6
BYLAYER
 70
0
 71
3
 72
9
 73
5
 74
0
 42
0.0000001
 43
0.0000001
 44
0.0000000001
 40
0.0
 40
0.0
 40
0.0
 40
0.0
 40
0.4987361516
 40
1.0
 40
1.0
 40
1.0
 40
1.0
 10
14.5444176703
 20
7.2217358731
 30
0.0
 10
14.4719740467
 20
7.2247474228
 30
0.0
 10
14.3268974009
 20
7.2362144848
 30
0.0
 10
14.1830405218
 20
7.2580932437
 30
0.0
 10
14.1114049684
 20
7.2714693103
 30
0.0
  0
SPLINE
  5
26E
100
AcDbEntity
  8
0
100
AcDbSpline
 62
7
  6
BYLAYER
 70
0
 71
3
 72
11
 73
7
 74
0
 42
0.0000001
 43
0.0000001
 44
0.0000000001
 40
0.0
 40
0.0
 40
0.0
 40
0.0
 40
0.2509833123
 40
0.5011812379
 40
0.7507630406
 40
1.0
 40
1.0
 40
1.0
 40
1.0
 10
14.5444176703
 20
10.7711622938
 30
0.0
 10
14.672494842
 20
10.8063531407
 30
0.0
 10
14.9301509946
 20
10.8699712742
 30
0.0
 10
15.3212218287
 20
10.9416646634
 30
0.0
 10
15.7154178228
 20
10.986301786
 30
0.0
 10
15.9795052725
 20
10.9964489308
 30
0.0
 10
16.1114048629
 20
10.9964482032
 30
0.0
  0
SPLINE
  5
26F
100
AcDbEntity
  8
0
100
AcDbSpline
 62
7
  6
BYLAYER
 70
0
 71
3
 72
9
 73
5
 74
0
 42
0.0000001
 43
0.0000001
 44
0.0000000001
 40
0.0
 40
0.0
 40
0.0
 40
0.0
 40
0.504780891
 40
1.0
 40
1.0
 40
1.0
 40
1.0
 10
21.8515973473
 20
10.7214298286
 30
0.0
 10
21.8941683811
 20
10.7346782079
 30
0.0
 10
21.9799609252
 20
10.7565185685
 30
0.0
 10
22.0677692356
 20
10.7681388583
 30
0.0
 10
22.1114049684
 20
10.7711621861
 30
0.0
  0
SPLINE
  5
270
100
AcDbEntity
  8
0
100
AcDbSpline
 62
7
  6
BYLAYER
 70
0
 71
3
 72
9
 73
5
 74
0
 42
0.0000001
 43
0.0000001
 44
0.0000000001
 40
0.0
 40
0.0
 40
0.0
 40
0.0
 40
0.5012638484
 40
1.0
 40
1.0
 40
1.0
 40
1.0
 10
14.1114049684
 20
10.7214292404
 30
0.0
 10
14.1830405218
 20
10.7348053071
 30
0.0
 10
14.3268974009
 20
10.7566840659
 30
0.0
 10
14.4719740467
 20
10.7681511279
 30
0.0
 10
14.5444176703
 20
10.7711626776
 30
0.0
  0
SPLINE
  5
271
100
AcDbEntity
  8
0
100
AcDbSpline
 62
7
  6
BYLAYER
 70
0
 71
3
 72
11
 73
7
 74
0
 42
0.0000001
 43
0.0000001
 44
0.0000000001
 40
0.0
 40
0.0
 40
0.0
 40
0.0
 40
0.2511548908
 40
0.5014023137
 40
0.7509121935
 40
1.0
 40
1.0
 40
1.0
 40
1.0
 10
21.8515973473
 20
13.2714689852
 30
0.0
 10
21.7098161872
 20
13.2290392917
 30
0.0
 10
21.4244081471
 20
13.1519027509
 30
0.0
 10
20.9903775277
 20
13.0640604624
 30
0.0
 10
20.5521265449
 20
13.0089851453
 30
0.0
 10
20.2581806653
 20
12.9964496092
 30
0.0
 10
20.1114048629
 20
12.9964503472
 30
0.0
  0
SPLINE
  5
272
100
AcDbEntity
  8
0
100
AcDbSpline
 62
7
  6
BYLAYER
 70
0
 71
3
 72
11
 73
7
 74
0
 42
0.0000001
 43
0.0000001
 44
0.0000000001
 40
0.0
 40
0.0
 40
0.0
 40
0.0
 40
0.2539262675
 40
0.5047681695
 40
0.7532163486
 40
1.0
 40
1.0
 40
1.0
 40
1.0
 10
21.8515973473
 20
13.2714687221
 30
0.0
 10
21.87302143
 20
13.2648014099
 30
0.0
 10
21.9159566685
 20
13.2526244599
 30
0.0
 10
21.9809655911
 20
13.2381824214
 30
0.0
 10
22.0460829256
 20
13.2276718233
 30
0.0
 10
22.089650695
 20
13.2232436224
 30
0.0
 10
22.1114049684
 20
13.2217363646
 30
0.0
  0
SPLINE
  5
273
100
AcDbEntity
  8
0
100
AcDbSpline
 62
7
  6
BYLAYER
 70
0
 71
3
 72
11
 73
7
 74
0
 42
0.0000001
 43
0.0000001
 44
0.0000000001
 40
0.0
 40
0.0
 40
0.0
 40
0.0
 40
0.2467836514
 40
0.4952318305
 40
0.7460737325
 40
1.0
 40
1.0
 40
1.0
 40
1.0
 10
22.1114049684
 20
16.7711621862
 30
0.0
 10
22.089650695
 20
16.7696549283
 30
0.0
 10
22.0460829256
 20
16.7652267275
 30
0.0
 10
21.9809655911
 20
16.7547161294
 30
0.0
 10
21.9159566685
 20
16.7402740908
 30
0.0
 10
21.87302143
 20
16.7280971409
 30
0.0
 10
21.8515973473
 20
16.7214298286
 30
0.0
  0
SPLINE
  5
274
100
AcDbEntity
  8
0
100
AcDbSpline
 62
7
  6
BYLAYER
 70
0
 71
3
 72
11
 73
7
 74
0
 42
0.0000001
 43
0.0000001
 44
0.0000000001
 40
0.0
 40
0.0
 40
0.0
 40
0.0
 40
0.2511548903
 40
0.5014023136
 40
0.7509121937
 40
1.0
 40
1.0
 40
1.0
 40
1.0
 10
18.3712125895
 20
16.7214295608
 30
0.0
 10
18.5129937326
 20
16.7638592493
 30
0.0
 10
18.7984017429
 20
16.840995766
 30
0.0
 10
19.2324323043
 20
16.9288380713
 30
0.0
 10
19.6706832321
 20
16.9839134223
 30
0.0
 10
19.964629078
 20
16.9964489356
 30
0.0
 10
20.1114048629
 20
16.9964482035
 30
0.0
  0
SPLINE
  5
275
100
AcDbEntity
  8
0
100
AcDbSpline
 62
7
  6
BYLAYER
 70
0
 71
3
 72
11
 73
7
 74
0
 42
0.0000001
 43
0.0000001
 44
0.0000000001
 40
0.0
 40
0.0
 40
0.0
 40
0.0
 40
0.2490878497
 40
0.4985977472
 40
0.7488451431
 40
1.0
 40
1.0
 40
1.0
 40
1.0
 10
20.1114048629
 20
16.9964482035
 30
0.0
 10
20.2581806908
 20
16.9964489411
 30
0.0
 10
20.5521266063
 20
16.9839134086
 30
0.0
 10
20.9903776102
 20
16.9288380893
 30
0.0
 10
21.4244081962
 20
16.8409957661
 30
0.0
 10
21.7098162063
 20
16.7638592534
 30
0.0
 10
21.8515973473
 20
16.7214295656
 30
0.0
  0
SPLINE
  5
276
100
AcDbEntity
  8
0
100
AcDbSpline
 62
7
  6
BYLAYER
 70
0
 71
3
 72
11
 73
7
 74
0
 42
0.0000001
 43
0.0000001
 44
0.0000000001
 40
0.0
 40
0.0
 40
0.0
 40
0.0
 40
0.2492369842
 40
0.4988187978
 40
0.7490167077
 40
1.0
 40
1.0
 40
1.0
 40
1.0
 10
16.1114048629
 20
16.9964482033
 30
0.0
 10
16.2433044836
 20
16.9964489359
 30
0.0
 10
16.5073919865
 20
16.9863017805
 30
0.0
 10
16.9015880448
 20
16.9416646734
 30
0.0
 10
17.2926589186
 20
16.8699712837
 30
0.0
 10
17.5503150881
 20
16.8063531532
 30
0.0
 10
17.6783922665
 20
16.771162305
 30
0.0
  0
SPLINE
  5
277
100
AcDbEntity
  8
0
100
AcDbSpline
 62
7
  6
BYLAYER
 70
0
 71
3
 72
11
 73
7
 74
0
 42
0.0000001
 43
0.0000001
 44
0.0000000001
 40
0.0
 40
0.0
 40
0.0
 40
0.0
 40
0.2509833123
 40
0.5011812377
 40
0.7507630403
 40
1.0
 40
1.0
 40
1.0
 40
1.0
 10
17.6783922665
 20
13.2217362458
 30
0.0
 10
17.5503150779
 20
13.1865453948
 30
0.0
 10
17.2926588913
 20
13.1229272543
 30
0.0
 10
16.9015880019
 20
13.0512338772
 30
0.0
 10
16.5073919546
 20
13.0065967718
 30
0.0
 10
16.2433044706
 20
12.9964496146
 30
0.0
 10
16.1114048629
 20
12.9964503475
 30
0.0
  0
SPLINE
  5
278
100
AcDbEntity
  8
0
100
AcDbSpline
 62
7
  6
BYLAYER
 70
0
 71
3
 72
11
 73
7
 74
0
 42
0.0000001
 43
0.0000001
 44
0.0000000001
 40
0.0
 40
0.0
 40
0.0
 40
0.0
 40
0.2490878495
 40
0.4985977472
 40
0.7488451436
 40
1.0
 40
1.0
 40
1.0
 40
1.0
 10
20.1114048629
 20
12.9964503472
 30
0.0
 10
19.9646290525
 20
12.9964496156
 30
0.0
 10
19.6706831707
 20
13.0089851252
 30
0.0
 10
19.2324322217
 20
13.0640604785
 30
0.0
 10
18.7984016938
 20
13.1519028184
 30
0.0
 10
18.5129937135
 20
13.2290393072
 30
0.0
 10
18.3712125895
 20
13.27146899
 30
0.0
  0
SPLINE
  5
279
100
AcDbEntity
  8
0
100
AcDbSpline
 62
7
  6
BYLAYER
 70
0
 71
3
 72
11
 73
7
 74
0
 42
0.0000001
 43
0.0000001
 44
0.0000000001
 40
0.0
 40
0.0
 40
0.0
 40
0.0
 40
0.2510409416
 40
0.5012607194
 40
0.7508501781
 40
1.0
 40
1.0
 40
1.0
 40
1.0
 10
14.1114049684
 20
13.2714693103
 30
0.0
 10
14.1472869274
 20
13.2647692926
 30
0.0
 10
14.2191575656
 20
13.2525513918
 30
0.0
 10
14.3274018276
 20
13.2381392153
 30
0.0
 10
14.4358182806
 20
13.2276510714
 30
0.0
 10
14.508221781
 20
13.2232405704
 30
0.0
 10
14.5444176703
 20
13.2217358731
 30
0.0
  0
SPLINE
  5
27A
100
AcDbEntity
  8
0
100
AcDbSpline
 62
7
  6
BYLAYER
 70
0
 71
3
 72
11
 73
7
 74
0
 42
0.0000001
 43
0.0000001
 44
0.0000000001
 40
0.0
 40
0.0
 40
0.0
 40
0.0
 40
0.2491498219
 40
0.4987392806
 40
0.7489590584
 40
1.0
 40
1.0
 40
1.0
 40
1.0
 10
14.5444176703
 20
16.7711626776
 30
0.0
 10
14.508221781
 20
16.7696579804
 30
0.0
 10
14.4358182806
 20
16.7652474793
 30
0.0
 10
14.3274018276
 20
16.7547593354
 30
0.0
 10
14.2191575656
 20
16.7403471589
 30
0.0
 10
14.1472869274
 20
16.7281292581
 30
0.0
 10
14.1114049684
 20
16.7214292404
 30
0.0
  0
SPLINE
  5
27B
100
AcDbEntity
  8
0
100
AcDbSpline
 62
7
  6
BYLAYER
 70
0
 71
3
 72
11
 73
7
 74
0
 42
0.0000001
 43
0.0000001
 44
0.0000000001
 40
0.0
 40
0.0
 40
0.0
 40
0.0
 40
0.2509833123
 40
0.5011812379
 40
0.7507630406
 40
1.0
 40
1.0
 40
1.0
 40
1.0
 10
14.5444176703
 20
16.7711622938
 30
0.0
 10
14.672494842
 20
16.8063531407
 30
0.0
 10
14.9301509946
 20
16.8699712742
 30
0.0
 10
15.3212218287
 20
16.9416646634
 30
0.0
 10
15.7154178228
 20
16.986301786
 30
0.0
 10
15.9795052725
 20
16.9964489308
 30
0.0
 10
16.1114048629
 20
16.9964482033
 30
0.0
  0
SPLINE
  5
27C
100
AcDbEntity
  8
0
100
AcDbSpline
 62
7
  6
BYLAYER
 70
0
 71
3
 72
11
 73
7
 74
0
 42
0.0000001
 43
0.0000001
 44
0.0000000001
 40
0.0
 40
0.0
 40
0.0
 40
0.0
 40
0.2492369839
 40
0.4988187976
 40
0.7490167077
 40
1.0
 40
1.0
 40
1.0
 40
1.0
 10
16.1114048629
 20
12.9964503475
 30
0.0
 10
15.9795052596
 20
12.9964496202
 30
0.0
 10
15.7154177909
 20
13.0065967631
 30
0.0
 10
15.3212217859
 20
13.0512338875
 30
0.0
 10
14.9301509673
 20
13.1229272892
 30
0.0
 10
14.6724948318
 20
13.1865454129
 30
0.0
 10
14.5444176703
 20
13.2217362569
 30
0.0
  0
SPLINE
  5
27D
100
AcDbEntity
  8
0
100
AcDbSpline
 62
7
  6
BYLAYER
 70
0
 71
3
 72
19
 73
15
 74
0
 42
0.0000001
 43
0.0000001
 44
0.0000000001
 40
0.0
 40
0.0
 40
0.0
 40
0.0
 40
0.0194515705
 40
0.0435929555
 40
0.0769912144
 40
0.1193330466
 40
0.1701449416
 40
0.2288750446
 40
0.2949590251
 40
0.3677175631
 40
0.4464247221
 40
0.6187382777
 40
0.8057470806
 40
1.0
 40
1.0
 40
1.0
 40
1.0
 10
15.4614116099
 20
21.1964872988
 30
0.0
 10
15.4607815264
 20
21.1932877752
 30
0.0
 10
15.4640685924
 20
21.2105545507
 30
0.0
 10
15.4653984039
 20
21.2180441521
 30
0.0
 10
15.4687335961
 20
21.2366551161
 30
0.0
 10
15.4721538735
 20
21.2567556847
 30
0.0
 10
15.4762898328
 20
21.2821758352
 30
0.0
 10
15.4806974251
 20
21.3111893845
 30
0.0
 10
15.4853104492
 20
21.3440209452
 30
0.0
 10
15.4899270261
 20
21.3801903922
 30
0.0
 10
15.496052088
 20
21.4341290735
 30
0.0
 10
15.5026307215
 20
21.5072799217
 30
0.0
 10
15.5077797917
 20
21.599960487
 30
0.0
 10
15.5090022325
 20
21.6638835833
 30
0.0
 10
15.5090022325
 20
21.6964492754
 30
0.0
  0
SPLINE
  5
27E
100
AcDbEntity
  8
0
100
AcDbSpline
 62
7
  6
BYLAYER
 70
0
 71
3
 72
32
 73
28
 74
0
 42
0.0000001
 43
0.0000001
 44
0.0000000001
 40
0.0
 40
0.0
 40
0.0
 40
0.0
 40
0.1941773917
 40
0.3811426919
 40
0.4695107771
 40
0.5534054698
 40
0.6320613298
 40
0.7047666964
 40
0.7708113785
 40
0.8295349619
 40
0.8803746442
 40
0.9026638517
 40
0.9227737878
 40
0.9406524067
 40
0.956258122
 40
0.9695494045
 40
0.9804846315
 40
0.985055696
 40
0.9890221061
 40
0.9923790411
 40
0.9951249467
 40
0.9972598816
 40
0.9987839206
 40
0.9993168829
 40
0.9996971621
 40
0.9999247957
 40
1.0
 40
1.0
 40
1.0
 40
1.0
 10
15.6619138713
 20
21.6964492754
 30
0.0
 10
15.6619138713
 20
21.7290267687
 30
0.0
 10
15.6604415233
 20
21.7929767984
 30
0.0
 10
15.6557064761
 20
21.8716206472
 30
0.0
 10
15.6505548712
 20
21.9316707992
 30
0.0
 10
15.6462707766
 20
21.9735512705
 30
0.0
 10
15.6416223247
 20
22.01274749
 30
0.0
 10
15.6367864728
 20
22.0489013644
 30
0.0
 10
15.6319313213
 20
22.0816752579
 30
0.0
 10
15.627228742
 20
22.1107603599
 30
0.0
 10
15.6234505653
 20
22.1325568671
 30
0.0
 10
15.6206704015
 20
22.1479507069
 30
0.0
 10
15.618837594
 20
22.1578961666
 30
0.0
 10
15.617180545
 20
22.1667337791
 30
0.0
 10
15.6157120306
 20
22.1744428022
 30
0.0
 10
15.6144452171
 20
22.181004339
 30
0.0
 10
15.6135201289
 20
22.1857464266
 30
0.0
 10
15.6128925015
 20
22.1889524498
 30
0.0
 10
15.6125089403
 20
22.1909110045
 30
0.0
 10
15.6121861834
 20
22.1925685885
 30
0.0
 10
15.6119218934
 20
22.1939269022
 30
0.0
 10
15.6117230634
 20
22.1949784317
 30
0.0
 10
15.611584572
 20
22.1956772556
 30
0.0
 10
15.6115207115
 20
22.1960689007
 30
0.0
 10
15.6114700496
 20
22.1962745004
 30
0.0
 10
15.6114807096
 20
22.1963572428
 30
0.0
 10
15.6114428439
 20
22.1964387228
 30
0.0
 10
15.6114554611
 20
22.1964387008
 30
0.0
  0
SPLINE
  5
27F
100
AcDbEntity
  8
0
100
AcDbSpline
 62
7
  6
BYLAYER
 70
0
 71
3
 72
32
 73
28
 74
0
 42
0.0000001
 43
0.0000001
 44
0.0000000001
 40
0.0
 40
0.0
 40
0.0
 40
0.0
 40
0.0000750312
 40
0.000302438
 40
0.0006826167
 40
0.0012156386
 40
0.0027403459
 40
0.0048767681
 40
0.0076250722
 40
0.0109854037
 40
0.0149561903
 40
0.0195324164
 40
0.0304794743
 40
0.0437832141
 40
0.0594004282
 40
0.0772881069
 40
0.0974032945
 40
0.1196932794
 40
0.1705247951
 40
0.2292343066
 40
0.2952660117
 40
0.367961801
 40
0.4466117224
 40
0.5305031057
 40
0.6188687339
 40
0.8058290382
 40
1.0
 40
1.0
 40
1.0
 40
1.0
 10
15.6114307257
 20
21.1964603659
 30
0.0
 10
15.6114181373
 20
21.1964603694
 30
0.0
 10
15.6114532978
 20
21.1965418813
 30
0.0
 10
15.6114441763
 20
21.1966245876
 30
0.0
 10
15.6114936768
 20
21.196830188
 30
0.0
 10
15.6115588979
 20
21.1972217979
 30
0.0
 10
15.6116993963
 20
21.1979205643
 30
0.0
 10
15.6119035367
 20
21.1989719027
 30
0.0
 10
15.6121754925
 20
21.2003299779
 30
0.0
 10
15.6125089819
 20
21.201987223
 30
0.0
 10
15.6129062012
 20
21.2039453188
 30
0.0
 10
15.6135565826
 20
21.2071505465
 30
0.0
 10
15.6145143344
 20
21.2118913121
 30
0.0
 10
15.6158209447
 20
21.2184513411
 30
0.0
 10
15.6173275114
 20
21.2261588752
 30
0.0
 10
15.6190164638
 20
21.2349951023
 30
0.0
 10
15.6208701676
 20
21.2449395449
 30
0.0
 10
15.6236604995
 20
21.2603316102
 30
0.0
 10
15.6274217239
 20
21.2821280862
 30
0.0
 10
15.6320779996
 20
21.3112154591
 30
0.0
 10
15.6368750077
 20
21.3439925478
 30
0.0
 10
15.6416538243
 20
21.3801500607
 30
0.0
 10
15.6462577273
 20
21.4193492413
 30
0.0
 10
15.6505233832
 20
21.4612305455
 30
0.0
 10
15.6556773265
 20
21.5212801093
 30
0.0
 10
15.6604347762
 20
21.5999221874
 30
0.0
 10
15.6619138713
 20
21.663872036
 30
0.0
 10
15.6619138713
 20
21.6964492754
 30
0.0
  0
SPLINE
  5
280
100
AcDbEntity
  8
0
100
AcDbSpline
 62
7
  6
BYLAYER
 70
0
 71
3
 72
15
 73
11
 74
0
 42
0.0000001
 43
0.0000001
 44
0.0000000001
 40
0.0
 40
0.0
 40
0.0
 40
0.0
 40
0.3812191241
 40
0.5537101799
 40
0.7052423739
 40
0.8299193164
 40
0.9229217878
 40
0.9563260943
 40
0.9805032795
 40
1.0
 40
1.0
 40
1.0
 40
1.0
 10
15.5090022325
 20
21.6964492754
 30
0.0
 10
15.5090022325
 20
21.7603545524
 30
0.0
 10
15.5054738378
 20
21.8532175456
 30
0.0
 10
15.4949769347
 20
21.9709847244
 30
0.0
 10
15.4859864589
 20
22.045674545
 30
0.0
 10
15.4770384005
 20
22.1069221555
 30
0.0
 10
15.470096845
 20
22.14843777
 30
0.0
 10
15.4656969307
 20
22.1732946453
 30
0.0
 10
15.4633406795
 20
22.1859987783
 30
0.0
 10
15.4620434361
 20
22.1932045796
 30
0.0
 10
15.4614116105
 20
22.196411239
 30
0.0
  0
ENDSEC
  0
SECTION
  2
OBJECTS
  0
DICTIONARY
  5
C
100
AcDbDictionary
280
0
281
1
  3
ACAD_GROUP
350
D
  3
ACAD_MLINESTYLE
350
17
  3
ACAD_LAYOUT
350
1A
  3
ACAD_PLOTSETTINGS
350
19
  3
ACAD_PLOTSTYLENAME
350
E
  0
DICTIONARY
  5
D
102
{ACAD_REACTORS
330
C
102
}
100
AcDbDictionary
280
0
281
1
  0
ACDBDICTIONARYWDFLT
  5
E
102
{ACAD_REACTORS
330
C
102
}
100
AcDbDictionary
281
1
  3
Normal
350
F
100
AcDbDictionaryWithDefault
340
F
  0
DICTIONARY
  5
17
102
{ACAD_REACTORS
330
C
102
}
100
AcDbDictionary
280
0
281
1
  3
Standard
350
18
  0
DICTIONARY
  5
19
102
{ACAD_REACTORS
330
C
102
}
100
AcDbDictionary
281
1
  0
DICTIONARY
  5
1A
102
{ACAD_REACTORS
330
C
102
}
100
AcDbDictionary
281
1
  3
Model
350
281
  3
Layout1
350
282
  0
ACDBPLACEHOLDER
  5
F
102
{ACAD_REACTORS
330
E
102
}
  0
MLINESTYLE
  5
18
102
{ACAD_REACTORS
330
17
102
}
100
AcDbMlineStyle
  2
STANDARD
 70
0
  3

 62
256
 51
90.0
 52
90.0
 71
2
 49
0.5
 62
256
  6
BYLAYER
 49
-0.5
 62
256
  6
BYLAYER
  0
LAYOUT
  5
281
102
{ACAD_REACTORS
330
1A
102
}
100
AcDbPlotSettings
  1

  2
none_device
  4

  6

 40
0.0
 41
0.0
 42
0.0
 43
0.0
 44
210.0
 45
297.0
 46
0.0
 47
0.0
 48
0.0
 49
0.0
140
0.0
141
0.0
142
1.0
143
1.0
 70
1024
 72
1
 73
0
 74
0
  7

 75
0
147
1.0
148
0.0
149
0.0
100
AcDbLayout
  1
Model
 70
0
 71
0
 10
0.0
 20
0.0
 11
210.0
 21
297.0
 12
0.0
 22
0.0
 32
0.0
 14
0.0
 24
0.0
 34
0.0
 15
0.0
 25
0.0
 35
0.0
146
0.0
 13
0.0
 23
0.0
 33
0.0
 16
1.0
 26
0.0
 36
0.0
 17
0.0
 27
1.0
 37
0.0
 76
0
330
210
345
0
346
0
  0
LAYOUT
  5
282
102
{ACAD_REACTORS
330
1A
102
}
100
AcDbPlotSettings
  1

  2
none_device
  4

  6

 40
0.0
 41
0.0
 42
0.0
 43
0.0
 44
210.0
 45
297.0
 46
0.0
 47
0.0
 48
0.0
 49
0.0
140
0.0
141
0.0
142
1.0
143
1.0
 70
0
 72
1
 73
0
 74
0
  7

 75
0
147
1.0
148
0.0
149
0.0
100
AcDbLayout
  1
Layout1
 70
0
 71
1
 10
0.0
 20
0.0
 11
210.0
 21
297.0
 12
0.0
 22
0.0
 32
0.0
 14
0.0
 24
0.0
 34
0.0
 15
0.0
 25
0.0
 35
0.0
146
0.0
 13
0.0
 23
0.0
 33
0.0
 16
1.0
 26
0.0
 36
0.0
 17
0.0
 27
1.0
 37
0.0
 76
0
330
211
345
0
346
0
  0
ENDSEC
  0
EOF
