999
DXF file: C:\Users\sesa63760\Dev\_Creo\CAD\MCADID0001186_3D-CAD\drw0001_5.dxf
999
Pro/ENGINEER 2019471 by Parametric Technology Corporation
  0
SECTION
  2
HEADER
  9
$ACADVER
  1
AC1024
  9
$DWGCODEPAGE
  3
ANSI_1252
  9
$EXTMAX
 10
70.9043496186
 20
100.2790087464
 30
0.0
  9
$EXTMIN
 10
0.0
 20
0.0
 30
0.0
  9
$LIMMIN
 10
0.0
 20
0.0
  9
$LIMMAX
 10
70.9043496186
 20
100.2790087464
  9
$VIEWCTR
 10
35.4521748093
 20
50.1395043732
  9
$VIEWSIZE
 40
100.2790087464
  9
$CLAYER
  8
0
  9
$LTSCALE
 40
6.5367057553
  9
$CELTYPE
  6
BYLAYER
  9
$DIMSCALE
 40
1.0
  9
$DIMASZ
 40
0.8440994002
  9
$DIMEXO
 40
1.0
  9
$DIMDLI
 40
4.5162694309
  9
$DIMEXE
 40
1.0
  9
$DIMCEN
 40
1.06964276
  9
$DIMLFAC
 40
1.0
  9
$DIMBLK
  1
_FILLED
  9
$DIMALT
 70
0
  9
$DIMALTF
 40
0.0393700787
  9
$DIMTXT
 40
1.1817391603
  9
$DIMTOL
 70
1
  9
$DIMLIM
 70
0
  9
$DIMTFAC
 40
1.0
  9
$DIMTP
 40
0.01
  9
$DIMTM
 40
0.01
  9
$DIMGAP
 40
0.625
  9
$DIMDSEP
 70
46
  9
$AUNITS
 70
0
  9
$PDMODE
 70
3
  9
$PDSIZE
 40
0.3125
  9
$HANDSEED
  5
28B
  9
$TILEMODE
 70
1
  9
$MEASUREMENT
 70
1
  9
$INSUNITS
 70
4
  0
ENDSEC
  0
SECTION
  2
CLASSES
  0
CLASS
  1
ACDBDICTIONARYWDFLT
  2
AcDbDictionaryWithDefault
  3
AutoCAD 2000
 90
0
 91
1
280
0
281
0
  0
CLASS
  1
ACDBPLACEHOLDER
  2
AcDbPlaceHolder
  3
AutoCAD 2000
 90
0
 91
1
280
0
281
0
  0
CLASS
  1
LAYOUT
  2
AcDbLayout
  3
AutoCAD 2000
 90
0
 91
0
280
0
281
0
  0
ENDSEC
  0
SECTION
  2
TABLES
  0
TABLE
  2
VPORT
  5
8
100
AcDbSymbolTable
 70
2
  0
VPORT
  5
1F4
100
AcDbSymbolTableRecord
100
AcDbViewportTableRecord
  2
*ACTIVE
 70
0
 10
0.0
 20
0.0
 11
1.0
 21
1.0
 12
35.4521748093
 22
50.1395043732
 13
0.0
 23
0.0
 14
1.0
 24
1.0
 15
0.0
 25
0.0
 16
0.0
 26
0.0
 36
1.0
 17
0.0
 27
0.0
 37
0.0
 40
100.2790087464
 41
0.7070707071
 42
50.0
 43
0.0
 44
0.0
 50
0.0
 51
0.0
 71
0
 72
100
 73
1
 74
1
 75
0
 76
0
 77
0
 78
0
  0
ENDTAB
  0
TABLE
  2
LTYPE
  5
5
100
AcDbSymbolTable
 70
6
  0
LTYPE
  5
14
100
AcDbSymbolTableRecord
100
AcDbLinetypeTableRecord
  2
BYBLOCK
 70
0
  3

 72
65
 73
0
 40
0.0
  0
LTYPE
  5
15
100
AcDbSymbolTableRecord
100
AcDbLinetypeTableRecord
  2
BYLAYER
 70
0
  3

 72
65
 73
0
 40
0.0
  0
LTYPE
  5
16
100
AcDbSymbolTableRecord
100
AcDbLinetypeTableRecord
  2
CONTINUOUS
 70
64
  3
Solid line
 72
65
 73
0
 40
0.0
  0
LTYPE
  5
1F5
100
AcDbSymbolTableRecord
100
AcDbLinetypeTableRecord
  2
CENTER
 70
64
  3
____ _ ____ _ ____ _ ____ _ ____ _ ____ _ ____
 72
65
 73
4
 40
0.6
 49
0.375
 74
0
 49
-0.075
 74
0
 49
0.075
 74
0
 49
-0.075
 74
0
  0
LTYPE
  5
1F6
100
AcDbSymbolTableRecord
100
AcDbLinetypeTableRecord
  2
HIDDEN
 70
64
  3
- - - - - - - - - - - - - - - - - - - -
 72
65
 73
2
 40
0.2
 49
0.1
 74
0
 49
-0.1
 74
0
  0
LTYPE
  5
1F7
100
AcDbSymbolTableRecord
100
AcDbLinetypeTableRecord
  2
PHANTOM
 70
64
  3
_____ _ _ _____ _ _ _____ _ _ _____
 72
65
 73
6
 40
0.8
 49
0.45
 74
0
 49
-0.05
 74
0
 49
0.1
 74
0
 49
-0.05
 74
0
 49
0.1
 74
0
 49
-0.05
 74
0
  0
LTYPE
  5
1F8
100
AcDbSymbolTableRecord
100
AcDbLinetypeTableRecord
  2
DOT
 70
64
  3
. . . . . . . . . . . . . . . . . . . .
 72
65
 73
2
 40
0.2
 49
0.1
 74
0
 49
-0.1
 74
0
  0
LTYPE
  5
1F9
100
AcDbSymbolTableRecord
100
AcDbLinetypeTableRecord
  2
DASHED
 70
64
  3
- - - - - - - - - - - - - - - - - - - -
 72
65
 73
2
 40
0.2
 49
0.1
 74
0
 49
-0.1
 74
0
  0
ENDTAB
  0
TABLE
  2
LAYER
  5
2
100
AcDbSymbolTable
 70
36
  0
LAYER
  5
10
100
AcDbSymbolTableRecord
100
AcDbLayerTableRecord
  2
0
 70
0
 62
7
  6
CONTINUOUS
370
-3
390
F
  0
LAYER
  5
1FA
100
AcDbSymbolTableRecord
100
AcDbLayerTableRecord
  2
DEFAULT_1
 70
0
 62
7
  6
CENTER
370
-3
390
F
  0
LAYER
  5
1FB
100
AcDbSymbolTableRecord
100
AcDbLayerTableRecord
  2
DEFAULT_2
 70
0
 62
8
  6
HIDDEN
370
-3
390
F
  0
LAYER
  5
1FC
100
AcDbSymbolTableRecord
100
AcDbLayerTableRecord
  2
DEFAULT_3
 70
0
 62
7
  6
PHANTOM
370
-3
390
F
  0
LAYER
  5
1FD
100
AcDbSymbolTableRecord
100
AcDbLayerTableRecord
  2
00_COMPONENTS
 70
0
 62
7
  6
CONTINUOUS
370
-3
390
F
  0
LAYER
  5
1FE
100
AcDbSymbolTableRecord
100
AcDbLayerTableRecord
  2
01_1_DEFAULT_DATUMS
 70
0
 62
7
  6
CONTINUOUS
370
-3
390
F
  0
LAYER
  5
1FF
100
AcDbSymbolTableRecord
100
AcDbLayerTableRecord
  2
01_PLANES
 70
0
 62
7
  6
CONTINUOUS
370
-3
390
F
  0
LAYER
  5
200
100
AcDbSymbolTableRecord
100
AcDbLayerTableRecord
  2
02_COORD_SYS
 70
0
 62
7
  6
CONTINUOUS
370
-3
390
F
  0
LAYER
  5
201
100
AcDbSymbolTableRecord
100
AcDbLayerTableRecord
  2
03_AXES
 70
0
 62
7
  6
CONTINUOUS
370
-3
390
F
  0
LAYER
  5
202
100
AcDbSymbolTableRecord
100
AcDbLayerTableRecord
  2
04_POINTS
 70
0
 62
7
  6
CONTINUOUS
370
-3
390
F
  0
LAYER
  5
203
100
AcDbSymbolTableRecord
100
AcDbLayerTableRecord
  2
05_CURVES
 70
0
 62
7
  6
CONTINUOUS
370
-3
390
F
  0
LAYER
  5
204
100
AcDbSymbolTableRecord
100
AcDbLayerTableRecord
  2
06_SURFS
 70
0
 62
7
  6
CONTINUOUS
370
-3
390
F
  0
LAYER
  5
205
100
AcDbSymbolTableRecord
100
AcDbLayerTableRecord
  2
07_COSMETICS
 70
0
 62
7
  6
CONTINUOUS
370
-3
390
F
  0
LAYER
  5
206
100
AcDbSymbolTableRecord
100
AcDbLayerTableRecord
  2
10_NOTES
 70
0
 62
7
  6
CONTINUOUS
370
-3
390
F
  0
LAYER
  5
207
100
AcDbSymbolTableRecord
100
AcDbLayerTableRecord
  2
11_NOTES_PUB
 70
0
 62
7
  6
CONTINUOUS
370
-3
390
F
  0
LAYER
  5
208
100
AcDbSymbolTableRecord
100
AcDbLayerTableRecord
  2
13_REF_GTOL
 70
0
 62
7
  6
CONTINUOUS
370
-3
390
F
  0
LAYER
  5
209
100
AcDbSymbolTableRecord
100
AcDbLayerTableRecord
  2
16_MISC
 70
0
 62
7
  6
CONTINUOUS
370
-3
390
F
  0
LAYER
  5
20A
100
AcDbSymbolTableRecord
100
AcDbLayerTableRecord
  2
17_NO_PRINT
 70
0
 62
7
  6
CONTINUOUS
370
-3
390
F
  0
LAYER
  5
20B
100
AcDbSymbolTableRecord
100
AcDbLayerTableRecord
  2
18_DATUM_CAMS_JOINTS
 70
0
 62
7
  6
CONTINUOUS
370
-3
390
F
  0
LAYER
  5
20C
100
AcDbSymbolTableRecord
100
AcDbLayerTableRecord
  2
19_DATUM_FUNCTIONAL
 70
0
 62
7
  6
CONTINUOUS
370
-3
390
F
  0
LAYER
  5
20D
100
AcDbSymbolTableRecord
100
AcDbLayerTableRecord
  2
20_DATUM_KINEMATIC_SCHEME
 70
0
 62
7
  6
CONTINUOUS
370
-3
390
F
  0
LAYER
  5
20E
100
AcDbSymbolTableRecord
100
AcDbLayerTableRecord
  2
_1
 70
0
 62
7
  6
CONTINUOUS
370
-3
390
F
  0
ENDTAB
  0
TABLE
  2
STYLE
  5
3
100
AcDbSymbolTable
 70
1
  0
STYLE
  5
11
100
AcDbSymbolTableRecord
100
AcDbTextStyleTableRecord
  2
STANDARD
 70
0
 40
0.0
 41
0.8
 50
0.0
 71
0
 42
0.2
  3
txt
  4

  0
STYLE
  5
20F
100
AcDbSymbolTableRecord
100
AcDbTextStyleTableRecord
  2
TEXTSTYLE_1
 70
0
 40
0.0
 41
0.8
 50
0.0
 71
0
 42
0.2
  3
gdt
  4

  0
ENDTAB
  0
TABLE
  2
VIEW
  5
6
100
AcDbSymbolTable
 70
0
  0
ENDTAB
  0
TABLE
  2
UCS
  5
7
100
AcDbSymbolTable
 70
0
  0
ENDTAB
  0
TABLE
  2
APPID
  5
9
100
AcDbSymbolTable
 70
1
  0
APPID
  5
210
100
AcDbSymbolTableRecord
100
AcDbRegAppTableRecord
  2
ACAD
 70
0
  0
ENDTAB
  0
TABLE
  2
BLOCK_RECORD
  5
1
100
AcDbSymbolTable
 70
0
  0
BLOCK_RECORD
  5
211
100
AcDbSymbolTableRecord
100
AcDbBlockTableRecord
  2
*Model_Space
  0
BLOCK_RECORD
  5
212
100
AcDbSymbolTableRecord
100
AcDbBlockTableRecord
  2
*Paper_Space
  0
BLOCK_RECORD
  5
213
100
AcDbSymbolTableRecord
100
AcDbBlockTableRecord
  2
_FILLED
  0
ENDTAB
  0
TABLE
  2
DIMSTYLE
  5
A
100
AcDbSymbolTable
 70
1
100
AcDbDimStyleTable
 71
0
  0
DIMSTYLE
105
214
100
AcDbSymbolTableRecord
100
AcDbDimStyleTableRecord
  2
STANDARD
 70
0
  3

  4

 40
1.0
 41
0.8440994002
 42
1.0
 43
0.38
 44
1.0
 45
0.0
 46
0.0
 47
0.01
 48
0.01
140
1.1817391603
141
0.09
142
0.0
143
25.4
144
1.0
145
0.0
146
1.0
147
0.625
 71
1
 72
0
 73
0
 74
0
 75
0
 76
0
 77
1
 78
8
 79
2
170
0
171
1
172
0
173
0
174
0
175
0
176
0
177
0
178
0
270
2
179
2
271
2
272
2
273
2
274
2
275
0
280
0
281
0
282
0
283
1
284
8
285
0
286
0
287
3
288
0
340
11
278
46
341
213
342
213
343
213
344
213
  0
ENDTAB
  0
ENDSEC
  0
SECTION
  2
BLOCKS
  0
BLOCK
  5
20
100
AcDbEntity
  8
0
100
AcDbBlockBegin
  2
*Model_Space
 70
0
 10
0.0
 20
0.0
 30
0.0
  3
*Model_Space
  1

  0
ENDBLK
  5
21
100
AcDbEntity
  8
0
100
AcDbBlockEnd
  0
BLOCK
  5
1C
100
AcDbEntity
  8
0
100
AcDbBlockBegin
  2
*Paper_Space
 70
0
 10
0.0
 20
0.0
 30
0.0
  3
*Paper_Space
  1

  0
ENDBLK
  5
1D
100
AcDbEntity
  8
0
100
AcDbBlockEnd
  0
BLOCK
  5
215
100
AcDbEntity
  8
0
100
AcDbBlockBegin
  2
_FILLED
 70
64
 10
0.0
 20
0.0
  3
_FILLED
  1

  0
SOLID
  5
216
100
AcDbEntity
  8
0
  6
BYBLOCK
 62
0
100
AcDbTrace
 10
0.0
 20
0.0
 11
-1.0
 21
0.25
 12
-1.0
 22
-0.25
 13
-1.0
 23
-0.25
  0
ENDBLK
  5
217
100
AcDbEntity
  8
0
  6
BYBLOCK
 62
0
100
AcDbBlockEnd
  0
ENDSEC
  0
SECTION
  2
ENTITIES
  0
LINE
  5
218
100
AcDbEntity
  8
_1
100
AcDbLine
 62
7
  6
CONTINUOUS
 10
35.9044586639
 20
8.162244898
 11
50.2962579986
 21
8.5391074266
  0
LINE
  5
219
100
AcDbEntity
  8
_1
100
AcDbLine
 62
7
  6
CONTINUOUS
 10
50.7641920069
 20
13.1622449001
 11
35.9044586639
 21
13.1622448986
  0
LINE
  5
21A
100
AcDbEntity
  8
_1
100
AcDbLine
 62
7
  6
CONTINUOUS
 10
22.1044586639
 20
46.5814584627
 11
22.1044586639
 21
49.487244898
  0
LINE
  5
21B
100
AcDbEntity
  8
_1
100
AcDbLine
 62
7
  6
CONTINUOUS
 10
22.3044586639
 20
52.3372448979
 11
22.3044586639
 21
47.887244898
  0
LINE
  5
21C
100
AcDbEntity
  8
_1
100
AcDbLine
 62
7
  6
CONTINUOUS
 10
22.6044585514
 20
46.5814561108
 11
22.6044586358
 21
47.887244898
  0
LINE
  5
21D
100
AcDbEntity
  8
_1
100
AcDbLine
 62
7
  6
CONTINUOUS
 10
22.8044586639
 20
47.887244898
 11
22.8044586639
 21
52.337244898
  0
LINE
  5
21E
100
AcDbEntity
  8
_1
100
AcDbLine
 62
7
  6
CONTINUOUS
 10
23.0044586639
 20
52.537244898
 11
23.0044586639
 21
53.037244898
  0
LINE
  5
21F
100
AcDbEntity
  8
_1
100
AcDbLine
 62
7
  6
CONTINUOUS
 10
23.6044586639
 20
46.387244898
 11
23.6044586639
 21
45.317244898
  0
LINE
  5
220
100
AcDbEntity
  8
_1
100
AcDbLine
 62
7
  6
CONTINUOUS
 10
23.6044586639
 20
47.187244898
 11
23.6044586639
 21
47.887244898
  0
LINE
  5
221
100
AcDbEntity
  8
_1
100
AcDbLine
 62
7
  6
CONTINUOUS
 10
23.6107332706
 20
47.887244898
 11
23.6107332706
 21
47.387244898
  0
LINE
  5
222
100
AcDbEntity
  8
_1
100
AcDbLine
 62
7
  6
CONTINUOUS
 10
24.4044576794
 20
46.387244898
 11
24.4044586642
 21
47.887244898
  0
LINE
  5
223
100
AcDbEntity
  8
_1
100
AcDbLine
 62
7
  6
CONTINUOUS
 10
22.3973518829
 20
45.874351679
 11
22.9544586639
 21
45.317244898
  0
LINE
  5
224
100
AcDbEntity
  8
_1
100
AcDbLine
 62
7
  6
CONTINUOUS
 10
22.7509035324
 20
46.2279066516
 11
23.6044586639
 21
45.3743516791
  0
LINE
  5
225
100
AcDbEntity
  8
_1
100
AcDbLine
 62
7
  6
CONTINUOUS
 10
27.6044586639
 20
53.037244898
 11
27.6044586639
 21
46.387244898
  0
LINE
  5
226
100
AcDbEntity
  8
_1
100
AcDbLine
 62
7
  6
CONTINUOUS
 10
27.7044586639
 20
46.417244898
 11
27.7044586639
 21
51.247244898
  0
LINE
  5
227
100
AcDbEntity
  8
_1
100
AcDbLine
 62
7
  6
CONTINUOUS
 10
30.7344586639
 20
51.247244898
 11
30.7344586639
 21
52.6955024675
  0
LINE
  5
228
100
AcDbEntity
  8
_1
100
AcDbLine
 62
7
  6
CONTINUOUS
 10
22.397351883
 20
45.8743516789
 11
22.7509052736
 21
46.2279050695
  0
LINE
  5
229
100
AcDbEntity
  8
_1
100
AcDbLine
 62
7
  6
CONTINUOUS
 10
34.6009683155
 20
43.779966948
 11
34.4044586639
 21
43.779966948
  0
LINE
  5
22A
100
AcDbEntity
  8
_1
100
AcDbLine
 62
7
  6
CONTINUOUS
 10
35.9044586639
 20
43.557244898
 11
34.6009681826
 21
43.5799974089
  0
LINE
  5
22B
100
AcDbEntity
  8
_1
100
AcDbLine
 62
7
  6
CONTINUOUS
 10
34.6009684483
 20
43.779982175
 11
35.9044586639
 21
43.757214437
  0
LINE
  5
22C
100
AcDbEntity
  8
_1
100
AcDbLine
 62
7
  6
CONTINUOUS
 10
30.9044586639
 20
49.417244898
 11
30.9044586639
 21
49.517244898
  0
LINE
  5
22D
100
AcDbEntity
  8
_1
100
AcDbLine
 62
7
  6
CONTINUOUS
 10
31.869570249
 20
49.217244898
 11
31.869570249
 21
48.417244898
  0
LINE
  5
22E
100
AcDbEntity
  8
_1
100
AcDbLine
 62
7
  6
CONTINUOUS
 10
32.0240787461
 20
48.417244898
 11
32.0240787461
 21
49.217244898
  0
LINE
  5
22F
100
AcDbEntity
  8
_1
100
AcDbLine
 62
7
  6
CONTINUOUS
 10
32.7196325966
 20
48.617244898
 11
32.7196325966
 21
49.0172448979
  0
LINE
  5
230
100
AcDbEntity
  8
_1
100
AcDbLine
 62
7
  6
CONTINUOUS
 10
32.7344586639
 20
47.917244898
 11
32.7344586639
 21
49.717244898
  0
LINE
  5
231
100
AcDbEntity
  8
_1
100
AcDbLine
 62
7
  6
CONTINUOUS
 10
32.7344586639
 20
51.247244898
 11
32.7344586639
 21
52.6955024675
  0
LINE
  5
232
100
AcDbEntity
  8
_1
100
AcDbLine
 62
7
  6
CONTINUOUS
 10
32.9844586639
 20
48.022244898
 11
32.9844586639
 21
49.717244898
  0
LINE
  5
233
100
AcDbEntity
  8
_1
100
AcDbLine
 62
7
  6
CONTINUOUS
 10
33.2544586639
 20
49.717244898
 11
33.2544586639
 21
47.917244898
  0
LINE
  5
234
100
AcDbEntity
  8
_1
100
AcDbLine
 62
7
  6
CONTINUOUS
 10
34.6009683155
 20
45.279966948
 11
34.4044586639
 21
45.279966948
  0
LINE
  5
235
100
AcDbEntity
  8
_1
100
AcDbLine
 62
7
  6
CONTINUOUS
 10
22.9544586639
 20
45.317244898
 11
23.6044586639
 21
45.317244898
  0
LINE
  5
236
100
AcDbEntity
  8
_1
100
AcDbLine
 62
7
  6
CONTINUOUS
 10
23.6044586639
 20
46.387244898
 11
27.6044586639
 21
46.387244898
  0
LINE
  5
237
100
AcDbEntity
  8
_1
100
AcDbLine
 62
7
  6
CONTINUOUS
 10
27.7044586639
 20
46.417244898
 11
34.4044586639
 21
46.417244898
  0
LINE
  5
238
100
AcDbEntity
  8
_1
100
AcDbLine
 62
7
  6
CONTINUOUS
 10
22.6044586639
 20
46.5814584641
 11
22.1044586639
 21
46.5814584641
  0
LINE
  5
239
100
AcDbEntity
  8
_1
100
AcDbLine
 62
7
  6
CONTINUOUS
 10
27.6044586639
 20
46.687244898
 11
27.7044586639
 21
46.687244898
  0
LINE
  5
23A
100
AcDbEntity
  8
_1
100
AcDbLine
 62
7
  6
CONTINUOUS
 10
34.4044586639
 20
46.867244898
 11
27.7044586639
 21
46.867244898
  0
LINE
  5
23B
100
AcDbEntity
  8
_1
100
AcDbLine
 62
7
  6
CONTINUOUS
 10
27.6044586639
 20
46.887244898
 11
24.4044574459
 21
46.8872448982
  0
LINE
  5
23C
100
AcDbEntity
  8
_1
100
AcDbLine
 62
7
  6
CONTINUOUS
 10
27.7044586639
 20
47.187244898
 11
27.6044586639
 21
47.187244898
  0
LINE
  5
23D
100
AcDbEntity
  8
_1
100
AcDbLine
 62
7
  6
CONTINUOUS
 10
23.6044586639
 20
47.387244898
 11
23.6107332706
 21
47.387244898
  0
LINE
  5
23E
100
AcDbEntity
  8
_1
100
AcDbLine
 62
7
  6
CONTINUOUS
 10
35.9044586639
 20
45.057244898
 11
34.6009684483
 21
45.0799974043
  0
LINE
  5
23F
100
AcDbEntity
  8
_1
100
AcDbLine
 62
7
  6
CONTINUOUS
 10
34.6009681826
 20
45.279966948
 11
35.9044586639
 21
45.257214437
  0
LINE
  5
240
100
AcDbEntity
  8
_1
100
AcDbLine
 62
7
  6
CONTINUOUS
 10
34.4044586639
 20
54.1345228479
 11
34.4044586639
 21
43.779966948
  0
LINE
  5
241
100
AcDbEntity
  8
_1
100
AcDbLine
 62
7
  6
CONTINUOUS
 10
34.6009684483
 20
43.779982175
 11
34.6009681826
 21
45.0799974089
  0
LINE
  5
242
100
AcDbEntity
  8
_1
100
AcDbLine
 62
7
  6
CONTINUOUS
 10
34.6009681826
 20
45.279966948
 11
34.6009684483
 21
54.1345228526
  0
LINE
  5
243
100
AcDbEntity
  8
_1
100
AcDbLine
 62
7
  6
CONTINUOUS
 10
35.9044586639
 20
8.162244898
 11
35.9044586639
 21
92.062244898
  0
LINE
  5
244
100
AcDbEntity
  8
_1
100
AcDbLine
 62
7
  6
CONTINUOUS
 10
24.4044586639
 20
47.887244898
 11
22.1044586639
 21
47.887244898
  0
LINE
  5
245
100
AcDbEntity
  8
_1
100
AcDbLine
 62
7
  6
CONTINUOUS
 10
33.2544586639
 20
47.917244898
 11
31.1044586639
 21
47.917244898
  0
LINE
  5
246
100
AcDbEntity
  8
_1
100
AcDbLine
 62
7
  6
CONTINUOUS
 10
33.2544586639
 20
48.022244898
 11
32.9844586639
 21
48.022244898
  0
LINE
  5
247
100
AcDbEntity
  8
_1
100
AcDbLine
 62
7
  6
CONTINUOUS
 10
31.1044586639
 20
48.417244898
 11
32.5294212933
 21
48.417244898
  0
LINE
  5
248
100
AcDbEntity
  8
_1
100
AcDbLine
 62
7
  6
CONTINUOUS
 10
31.1044586639
 20
49.217244898
 11
32.5294212933
 21
49.217244898
  0
LINE
  5
249
100
AcDbEntity
  8
_1
100
AcDbLine
 62
7
  6
CONTINUOUS
 10
22.1044586639
 20
49.487244898
 11
22.3044586639
 21
49.487244898
  0
LINE
  5
24A
100
AcDbEntity
  8
_1
100
AcDbLine
 62
7
  6
CONTINUOUS
 10
31.1044586639
 20
49.717244898
 11
33.2544586639
 21
49.717244898
  0
LINE
  5
24B
100
AcDbEntity
  8
_1
100
AcDbLine
 62
7
  6
CONTINUOUS
 10
34.4044586639
 20
51.247244898
 11
27.7044586639
 21
51.247244898
  0
LINE
  5
24C
100
AcDbEntity
  8
_1
100
AcDbLine
 62
7
  6
CONTINUOUS
 10
27.6044586639
 20
52.237244898
 11
30.7344586639
 21
52.237244898
  0
LINE
  5
24D
100
AcDbEntity
  8
_1
100
AcDbLine
 62
7
  6
CONTINUOUS
 10
32.7344586639
 20
52.237244898
 11
34.4044586639
 21
52.237244898
  0
LINE
  5
24E
100
AcDbEntity
  8
_1
100
AcDbLine
 62
7
  6
CONTINUOUS
 10
22.3044586639
 20
52.337244898
 11
22.8044586639
 21
52.337244898
  0
LINE
  5
24F
100
AcDbEntity
  8
_1
100
AcDbLine
 62
7
  6
CONTINUOUS
 10
23.0044586639
 20
52.537244898
 11
27.6044586639
 21
52.537244898
  0
LINE
  5
250
100
AcDbEntity
  8
_1
100
AcDbLine
 62
7
  6
CONTINUOUS
 10
30.7344586639
 20
52.6955024675
 11
32.7344586639
 21
52.6955024675
  0
LINE
  5
251
100
AcDbEntity
  8
_1
100
AcDbLine
 62
7
  6
CONTINUOUS
 10
34.4044586639
 20
52.737244898
 11
27.6044586639
 21
52.737244898
  0
LINE
  5
252
100
AcDbEntity
  8
_1
100
AcDbLine
 62
7
  6
CONTINUOUS
 10
27.6044586639
 20
53.037244898
 11
23.004458664
 21
53.037244898
  0
LINE
  5
253
100
AcDbEntity
  8
_1
100
AcDbLine
 62
7
  6
CONTINUOUS
 10
40.4044586639
 20
92.362244898
 11
40.4044586639
 21
91.9444083007
  0
LINE
  5
254
100
AcDbEntity
  8
_1
100
AcDbLine
 62
7
  6
CONTINUOUS
 10
40.9044586639
 20
73.112244898
 11
40.9044586639
 21
67.112244898
  0
LINE
  5
255
100
AcDbEntity
  8
_1
100
AcDbLine
 62
7
  6
CONTINUOUS
 10
41.4044586639
 20
91.9182222795
 11
41.4044586639
 21
92.362244898
  0
LINE
  5
256
100
AcDbEntity
  8
_1
100
AcDbLine
 62
7
  6
CONTINUOUS
 10
41.9044586639
 20
67.112244898
 11
41.9044586639
 21
73.112244898
  0
LINE
  5
257
100
AcDbEntity
  8
_1
100
AcDbLine
 62
7
  6
CONTINUOUS
 10
42.4044586639
 20
92.362244898
 11
42.4044586639
 21
91.8920364575
  0
LINE
  5
258
100
AcDbEntity
  8
_1
100
AcDbLine
 62
7
  6
CONTINUOUS
 10
35.9044586639
 20
54.1572753589
 11
34.6009684483
 21
54.1345228526
  0
LINE
  5
259
100
AcDbEntity
  8
_1
100
AcDbLine
 62
7
  6
CONTINUOUS
 10
34.6009681826
 20
54.334492387
 11
35.9044586639
 21
54.357244898
  0
LINE
  5
25A
100
AcDbEntity
  8
_1
100
AcDbLine
 62
7
  6
CONTINUOUS
 10
34.4044586639
 20
54.1345228479
 11
34.6009683155
 21
54.1345228479
  0
LINE
  5
25B
100
AcDbEntity
  8
_1
100
AcDbLine
 62
7
  6
CONTINUOUS
 10
42.9044586639
 20
75.112244898
 11
42.9044586639
 21
65.112244898
  0
LINE
  5
25C
100
AcDbEntity
  8
_1
100
AcDbLine
 62
7
  6
CONTINUOUS
 10
43.4044586639
 20
91.8658504364
 11
43.4044586639
 21
92.362244898
  0
LINE
  5
25D
100
AcDbEntity
  8
_1
100
AcDbLine
 62
7
  6
CONTINUOUS
 10
43.9044586639
 20
65.112244898
 11
43.9044586639
 21
75.112244898
  0
LINE
  5
25E
100
AcDbEntity
  8
_1
100
AcDbLine
 62
7
  6
CONTINUOUS
 10
44.4044586639
 20
92.362244898
 11
44.4044586639
 21
91.8396646144
  0
LINE
  5
25F
100
AcDbEntity
  8
_1
100
AcDbLine
 62
7
  6
CONTINUOUS
 10
44.9044586639
 20
77.112244898
 11
44.9044586639
 21
63.112244898
  0
LINE
  5
260
100
AcDbEntity
  8
_1
100
AcDbLine
 62
7
  6
CONTINUOUS
 10
45.4044586639
 20
91.8134785933
 11
45.4044586639
 21
92.362244898
  0
LINE
  5
261
100
AcDbEntity
  8
_1
100
AcDbLine
 62
7
  6
CONTINUOUS
 10
45.9044586639
 20
63.112244898
 11
45.9044586639
 21
77.112244898
  0
LWPOLYLINE
  5
262
100
AcDbEntity
  8
_1
100
AcDbPolyline
 62
7
  6
CONTINUOUS
 90
14
 70
0
 10
50.7641908968
 20
87.0622448873
 10
50.7637104747
 20
87.3129997563
 10
50.7562724951
 20
88.0776661233
 10
50.7408832691
 20
88.7849803911
 10
50.7190635579
 20
89.4199275578
 10
50.6924154971
 20
89.9720375286
 10
50.6624902062
 20
90.4360063726
 10
50.6467354235
 20
90.6346079197
 10
50.6143627955
 20
90.9667236313
 10
50.5814970637
 20
91.2170215751
 10
50.5479686644
 20
91.3957818877
 10
50.5085923957
 20
91.5236204743
 10
50.4108867549
 20
91.6487636938
 10
50.2972474131
 20
91.6853279446
  0
LINE
  5
263
100
AcDbEntity
  8
_1
100
AcDbLine
 62
7
  6
CONTINUOUS
 10
50.5694275972
 20
87.0622448982
 11
50.5694275972
 21
13.1622448997
  0
LINE
  5
264
100
AcDbEntity
  8
_1
100
AcDbLine
 62
7
  6
CONTINUOUS
 10
50.7641922076
 20
13.1622449001
 11
50.7641922076
 21
87.0622448951
  0
LWPOLYLINE
  5
265
100
AcDbEntity
  8
_1
100
AcDbPolyline
 62
7
  6
CONTINUOUS
 90
7
 70
0
 10
50.6628163563
 20
9.7928920698
 10
50.6927473865
 20
10.258373569
 10
50.7193757668
 20
10.8121503335
 10
50.7411439662
 20
11.4488540811
 10
50.7564459572
 20
12.1578971298
 10
50.763757105
 20
12.9240636005
 10
50.7641901465
 20
13.1622449069
  0
LWPOLYLINE
  5
266
100
AcDbEntity
  8
_1
100
AcDbPolyline
 62
7
  6
CONTINUOUS
 90
7
 70
0
 10
50.6624902061
 20
9.7884834228
 10
50.692415497
 20
10.2524522667
 10
50.7190635579
 20
10.8045622372
 10
50.740883269
 20
11.4395094037
 10
50.7562724951
 20
12.1468236713
 10
50.7637104747
 20
12.911490038
 10
50.7641761958
 20
13.1545717548
  0
LWPOLYLINE
  5
267
100
AcDbEntity
  8
_1
100
AcDbPolyline
 62
7
  6
CONTINUOUS
 90
7
 70
0
 10
50.4111245382
 20
8.5760306594
 10
50.5085923957
 20
8.7008693215
 10
50.5479686643
 20
8.8287079081
 10
50.5814970637
 20
9.0074682207
 10
50.6143627954
 20
9.2577661644
 10
50.6467354234
 20
9.5898818758
 10
50.6628163563
 20
9.7928920698
  0
LINE
  5
268
100
AcDbEntity
  8
_1
100
AcDbLine
 62
7
  6
CONTINUOUS
 10
35.9044586639
 20
87.0622448979
 11
50.7641919237
 21
87.0622448951
  0
LWPOLYLINE
  5
269
100
AcDbEntity
  8
_1
100
AcDbPolyline
 62
7
  6
CONTINUOUS
 90
7
 70
0
 10
50.2967964394
 20
8.5391390826
 10
50.41156213
 20
8.5761718623
 10
50.5088203766
 20
8.7014143973
 10
50.548181516
 20
8.8296203927
 10
50.581743965
 20
9.0090559027
 10
50.6146482549
 20
9.2603026534
 10
50.647051556
 20
9.5936033742
  0
LINE
  5
26A
100
AcDbEntity
  8
_1
100
AcDbLine
 62
7
  6
CONTINUOUS
 10
40.4044586639
 20
92.362244898
 11
41.4044586639
 21
92.362244898
  0
LINE
  5
26B
100
AcDbEntity
  8
_1
100
AcDbLine
 62
7
  6
CONTINUOUS
 10
42.4044586639
 20
92.362244898
 11
43.4044586639
 21
92.362244898
  0
LINE
  5
26C
100
AcDbEntity
  8
_1
100
AcDbLine
 62
7
  6
CONTINUOUS
 10
44.4044586639
 20
92.362244898
 11
45.4044586639
 21
92.362244898
  0
LINE
  5
26D
100
AcDbEntity
  8
_1
100
AcDbLine
 62
7
  6
CONTINUOUS
 10
50.2962599568
 20
91.6853823181
 11
35.9044586639
 21
92.062244898
  0
LINE
  5
26E
100
AcDbEntity
  8
_1
100
AcDbLine
 62
7
  6
CONTINUOUS
 10
50.2972474131
 20
91.6853279446
 11
50.2962592748
 21
91.685356271
  0
LINE
  5
26F
100
AcDbEntity
  8
_1
100
AcDbLine
 62
7
  6
CONTINUOUS
 10
50.4111240786
 20
91.6484597251
 11
50.297189007
 21
91.6853390145
  0
ARC
  5
270
100
AcDbEntity
  8
_1
100
AcDbCircle
 62
7
  6
CONTINUOUS
 10
23.1044586639
 20
46.5814584603
 40
1.0
100
AcDbArc
 50
179.99999992
 51
225.0000000094
  0
ARC
  5
271
100
AcDbEntity
  8
_1
100
AcDbCircle
 62
7
  6
CONTINUOUS
 10
24.4044586639
 20
47.187244898
 40
0.8
100
AcDbArc
 50
180.0
 51
270.0
  0
ARC
  5
272
100
AcDbEntity
  8
_1
100
AcDbCircle
 62
7
  6
CONTINUOUS
 10
23.0044586639
 20
52.337244898
 40
0.7
100
AcDbArc
 50
89.9999999946
 51
180.0
  0
ARC
  5
273
100
AcDbEntity
  8
_1
100
AcDbCircle
 62
7
  6
CONTINUOUS
 10
23.1044586639
 20
46.5814584603
 40
0.5000002531
100
AcDbArc
 50
180.0002692354
 51
224.9997307648
  0
ARC
  5
274
100
AcDbEntity
  8
_1
100
AcDbCircle
 62
7
  6
CONTINUOUS
 10
45.4044586639
 20
77.112244898
 40
0.5
100
AcDbArc
 50
0.0
 51
180.0
  0
ARC
  5
275
100
AcDbEntity
  8
_1
100
AcDbCircle
 62
7
  6
CONTINUOUS
 10
45.4044586639
 20
63.112244898
 40
0.5
100
AcDbArc
 50
180.0
 51
360.0
  0
ARC
  5
276
100
AcDbEntity
  8
_1
100
AcDbCircle
 62
7
  6
CONTINUOUS
 10
43.4044586639
 20
75.112244898
 40
0.5
100
AcDbArc
 50
0.0
 51
180.0
  0
ARC
  5
277
100
AcDbEntity
  8
_1
100
AcDbCircle
 62
7
  6
CONTINUOUS
 10
43.4044586639
 20
65.112244898
 40
0.5
100
AcDbArc
 50
180.0
 51
360.0
  0
ARC
  5
278
100
AcDbEntity
  8
_1
100
AcDbCircle
 62
7
  6
CONTINUOUS
 10
41.4044586639
 20
73.112244898
 40
0.5
100
AcDbArc
 50
0.0
 51
180.0
  0
ARC
  5
279
100
AcDbEntity
  8
_1
100
AcDbCircle
 62
7
  6
CONTINUOUS
 10
41.4044586639
 20
67.112244898
 40
0.5
100
AcDbArc
 50
180.0
 51
360.0
  0
ARC
  5
27A
100
AcDbEntity
  8
_1
100
AcDbCircle
 62
7
  6
CONTINUOUS
 10
31.1044586639
 20
48.167244898
 40
0.25
100
AcDbArc
 50
90.0
 51
270.0
  0
ARC
  5
27B
100
AcDbEntity
  8
_1
100
AcDbCircle
 62
7
  6
CONTINUOUS
 10
31.1044586639
 20
49.517244898
 40
0.2
100
AcDbArc
 50
90.0
 51
180.0
  0
ARC
  5
27C
100
AcDbEntity
  8
_1
100
AcDbCircle
 62
7
  6
CONTINUOUS
 10
31.1044586639
 20
49.417244898
 40
0.2
100
AcDbArc
 50
180.0
 51
270.0
  0
ARC
  5
27D
100
AcDbEntity
  8
_1
100
AcDbCircle
 62
7
  6
CONTINUOUS
 10
23.0044586639
 20
52.337244898
 40
0.2
100
AcDbArc
 50
90.0
 51
180.0
  0
ARC
  5
27E
100
AcDbEntity
  8
_1
100
AcDbCircle
 62
7
  6
CONTINUOUS
 10
34.6044586639
 20
43.779966948
 40
0.2
100
AcDbArc
 50
180.0
 51
269.0000000001
  0
ARC
  5
27F
100
AcDbEntity
  8
_1
100
AcDbCircle
 62
7
  6
CONTINUOUS
 10
34.6044586639
 20
45.279966948
 40
0.2
100
AcDbArc
 50
180.0
 51
269.0000380655
  0
ARC
  5
280
100
AcDbEntity
  8
_1
100
AcDbCircle
 62
7
  6
CONTINUOUS
 10
34.6044586639
 20
54.1345228479
 40
0.2
100
AcDbArc
 50
90.9999999999
 51
180.0
  0
SPLINE
  5
281
100
AcDbEntity
  8
_1
100
AcDbSpline
 62
7
  6
CONTINUOUS
 70
0
 71
3
 72
11
 73
7
 74
0
 42
0.0000001
 43
0.0000001
 44
0.0000000001
 40
0.0
 40
0.0
 40
0.0
 40
0.0
 40
0.2442150992
 40
0.491809968
 40
0.7441979607
 40
1.0
 40
1.0
 40
1.0
 40
1.0
 10
32.5294212933
 20
48.417244898
 30
0.0
 10
32.5542131784
 20
48.417244898
 30
0.0
 10
32.6047257452
 20
48.4278410657
 30
0.0
 10
32.6679220427
 20
48.4727446574
 30
0.0
 10
32.7099021778
 20
48.5391576562
 30
0.0
 10
32.7196325966
 20
48.5912767462
 30
0.0
 10
32.7196325966
 20
48.617244898
 30
0.0
  0
SPLINE
  5
282
100
AcDbEntity
  8
_1
100
AcDbSpline
 62
7
  6
CONTINUOUS
 70
0
 71
3
 72
11
 73
7
 74
0
 42
0.0000001
 43
0.0000001
 44
0.0000000001
 40
0.0
 40
0.0
 40
0.0
 40
0.0
 40
0.2558022839
 40
0.5081903429
 40
0.7557851363
 40
1.0
 40
1.0
 40
1.0
 40
1.0
 10
32.7196325966
 20
49.0172448979
 30
0.0
 10
32.7196325966
 20
49.0432130746
 30
0.0
 10
32.7099021621
 20
49.0953321977
 30
0.0
 10
32.6679219848
 20
49.1617452002
 30
0.0
 10
32.6047256882
 20
49.2066487479
 30
0.0
 10
32.5542131545
 20
49.217244898
 30
0.0
 10
32.5294212933
 20
49.217244898
 30
0.0
  0
SPLINE
  5
283
100
AcDbEntity
  8
_1
100
AcDbSpline
 62
7
  6
CONTINUOUS
 70
0
 71
3
 72
18
 73
14
 74
0
 42
0.0000001
 43
0.0000001
 44
0.0000000001
 40
0.0
 40
0.0
 40
0.0
 40
0.0
 40
0.0313421002
 40
0.0642361527
 40
0.100134914
 40
0.140159994
 40
0.1850871487
 40
0.2353058475
 40
0.3521515555
 40
0.4907329301
 40
0.6482127482
 40
0.8202851355
 40
1.0
 40
1.0
 40
1.0
 40
1.0
 10
23.6044586652
 20
47.1872421876
 30
0.0
 10
23.6044845895
 20
47.1777501307
 30
0.0
 10
23.6070187632
 20
47.1582246731
 30
0.0
 10
23.6180820781
 20
47.1297260635
 30
0.0
 10
23.6362012744
 20
47.1019606742
 30
0.0
 10
23.6612176228
 20
47.0750521771
 30
0.0
 10
23.6930107661
 20
47.0491003472
 30
0.0
 10
23.747017758
 20
47.0141943595
 30
0.0
 10
23.8314483368
 20
46.975207701
 30
0.0
 10
23.9509991366
 20
46.9377708133
 30
0.0
 10
24.0900811431
 20
46.9091626175
 30
0.0
 10
24.2434485616
 20
46.8913941806
 30
0.0
 10
24.3500312329
 20
46.8872506107
 30
0.0
 10
24.4044586663
 20
46.8872448924
 30
0.0
  0
SPLINE
  5
284
100
AcDbEntity
  8
_1
100
AcDbSpline
 62
7
  6
CONTINUOUS
 70
0
 71
3
 72
18
 73
14
 74
0
 42
0.0000001
 43
0.0000001
 44
0.0000000001
 40
0.0
 40
0.0
 40
0.0
 40
0.0
 40
0.0051355817
 40
0.0196489004
 40
0.0435089394
 40
0.0765566553
 40
0.1185583123
 40
0.1690366446
 40
0.2932667746
 40
0.4446560914
 40
0.6175168782
 40
0.8054114733
 40
1.0
 40
1.0
 40
1.0
 40
1.0
 10
34.6009681826
 20
45.0799974089
 30
0.0
 10
34.6006257645
 20
45.0800033859
 30
0.0
 10
34.6007020491
 20
45.0819829741
 30
0.0
 10
34.6001856529
 20
45.0842372482
 30
0.0
 10
34.6001137726
 20
45.0893516402
 30
0.0
 10
34.5998512362
 20
45.0957895121
 30
0.0
 10
34.5997222918
 20
45.1042182497
 30
0.0
 10
34.5995502377
 20
45.1186416757
 30
0.0
 10
34.5994965558
 20
45.140405096
 30
0.0
 10
34.5995997572
 20
45.1703052734
 30
0.0
 10
34.5998853766
 20
45.2044592764
 30
0.0
 10
34.6003405043
 20
45.2414893788
 30
0.0
 10
34.6007417841
 20
45.2669926353
 30
0.0
 10
34.6009681826
 20
45.279966948
 30
0.0
  0
SPLINE
  5
285
100
AcDbEntity
  8
_1
100
AcDbSpline
 62
7
  6
CONTINUOUS
 70
0
 71
3
 72
18
 73
14
 74
0
 42
0.0000001
 43
0.0000001
 44
0.0000000001
 40
0.0
 40
0.0
 40
0.0
 40
0.0
 40
0.0051356167
 40
0.019649066
 40
0.0435093218
 40
0.0765573363
 40
0.1185593485
 40
0.1690380541
 40
0.2932688836
 40
0.4446586246
 40
0.6175194491
 40
0.8054134075
 40
1.0
 40
1.0
 40
1.0
 40
1.0
 10
34.6009681826
 20
43.5799974089
 30
0.0
 10
34.6006257492
 20
43.5800033861
 30
0.0
 10
34.6007020532
 20
43.5819830717
 30
0.0
 10
34.60018563
 20
43.5842374473
 30
0.0
 10
34.6001137594
 20
43.5893520831
 30
0.0
 10
34.5998512166
 20
43.5957902558
 30
0.0
 10
34.5997222755
 20
43.6042193838
 30
0.0
 10
34.5995502254
 20
43.6186434536
 30
0.0
 10
34.5994965564
 20
43.6404078023
 30
0.0
 10
34.5995997796
 20
43.6703091951
 30
0.0
 10
34.5998854296
 20
43.7044644861
 30
0.0
 10
34.6003405942
 20
43.7414958286
 30
0.0
 10
34.600741902
 20
43.7669998842
 30
0.0
 10
34.6009683155
 20
43.7799745615
 30
0.0
  0
SPLINE
  5
286
100
AcDbEntity
  8
_1
100
AcDbSpline
 62
7
  6
CONTINUOUS
 70
0
 71
3
 72
18
 73
14
 74
0
 42
0.0000001
 43
0.0000001
 44
0.0000000001
 40
0.0
 40
0.0
 40
0.0
 40
0.0
 40
0.194588527
 40
0.3824831229
 40
0.5553439102
 40
0.7067332268
 40
0.8309633563
 40
0.8814416884
 40
0.9234433452
 40
0.956491061
 40
0.9803510998
 40
0.9948644184
 40
1.0
 40
1.0
 40
1.0
 40
1.0
 10
34.6009681826
 20
54.1345228479
 30
0.0
 10
34.6007417841
 20
54.1474971606
 30
0.0
 10
34.6003405043
 20
54.1730004173
 30
0.0
 10
34.5998853766
 20
54.2100305197
 30
0.0
 10
34.5995997572
 20
54.2441845228
 30
0.0
 10
34.5994965558
 20
54.2740847002
 30
0.0
 10
34.5995502377
 20
54.2958481205
 30
0.0
 10
34.5997222918
 20
54.3102715463
 30
0.0
 10
34.5998512362
 20
54.3187002839
 30
0.0
 10
34.6001137726
 20
54.3251381558
 30
0.0
 10
34.6001856529
 20
54.3302525477
 30
0.0
 10
34.6007020491
 20
54.3325068218
 30
0.0
 10
34.6006257645
 20
54.33448641
 30
0.0
 10
34.6009681826
 20
54.334492387
 30
0.0
  0
SPLINE
  5
287
100
AcDbEntity
  8
_1
100
AcDbSpline
 62
7
  6
CONTINUOUS
 70
0
 71
3
 72
25
 73
21
 74
0
 42
0.0000001
 43
0.0000001
 44
0.0000000001
 40
0.0
 40
0.0
 40
0.0
 40
0.0
 40
0.1939440957
 40
0.380440519
 40
0.5523498156
 40
0.6307559848
 40
0.7031173401
 40
0.7687485644
 40
0.8270319709
 40
0.8774245176
 40
0.9194659528
 40
0.9372377109
 40
0.9527926226
 40
0.9661054912
 40
0.9771608756
 40
0.9859626219
 40
0.9925508202
 40
0.9950542383
 40
0.9970758288
 40
1.0
 40
1.0
 40
1.0
 40
1.0
 10
50.5694275972
 20
13.1622448991
 30
0.0
 10
50.5694245023
 20
12.8616347422
 30
0.0
 10
50.5657507737
 20
12.2719505952
 30
0.0
 10
50.5494168472
 20
11.4159509991
 30
0.0
 10
50.5270592803
 20
10.739238693
 30
0.0
 10
50.5041105332
 20
10.2396156863
 30
0.0
 10
50.4855288725
 20
9.9047102343
 30
0.0
 10
50.4653069129
 20
9.6011514973
 30
0.0
 10
50.4437366921
 20
9.3318295205
 30
0.0
 10
50.4211086767
 20
9.0993070356
 30
0.0
 10
50.4007071472
 20
8.9296848415
 30
0.0
 10
50.3836222468
 20
8.8141145844
 30
0.0
 10
50.3714550494
 20
8.7428468052
 30
0.0
 10
50.3592500404
 20
8.6821722567
 30
0.0
 10
50.3470908159
 20
8.6321923866
 30
0.0
 10
50.3349677464
 20
8.5930096982
 30
0.0
 10
50.3243477866
 20
8.567300268
 30
0.0
 10
50.3152953858
 20
8.5525282176
 30
0.0
 10
50.3080482889
 20
8.5436752669
 30
0.0
 10
50.3007879136
 20
8.5392319657
 30
0.0
 10
50.2962572083
 20
8.5391074059
 30
0.0
  0
SPLINE
  5
288
100
AcDbEntity
  8
_1
100
AcDbSpline
 62
7
  6
CONTINUOUS
 70
0
 71
3
 72
25
 73
21
 74
0
 42
0.0000001
 43
0.0000001
 44
0.0000000001
 40
0.0
 40
0.0
 40
0.0
 40
0.0
 40
0.0029239882
 40
0.004945436
 40
0.0074487394
 40
0.0140368704
 40
0.0228386637
 40
0.0338940846
 40
0.0472069532
 40
0.0627618634
 40
0.0805336377
 40
0.1225751077
 40
0.172967683
 40
0.2312511315
 40
0.2968824018
 40
0.3692438122
 40
0.4476500382
 40
0.6195594292
 40
0.8060558791
 40
1.0
 40
1.0
 40
1.0
 40
1.0
 10
50.2962599587
 20
91.685382318
 30
0.0
 10
50.3007903737
 20
91.6852575913
 30
0.0
 10
50.3080501665
 20
91.6808143269
 30
0.0
 10
50.3152961322
 20
91.6719613069
 30
0.0
 10
50.3243473791
 20
91.6571891895
 30
0.0
 10
50.3349670214
 20
91.6314799514
 30
0.0
 10
50.3470908419
 20
91.5922974768
 30
0.0
 10
50.3592504319
 20
91.542317575
 30
0.0
 10
50.3714550921
 20
91.481642926
 30
0.0
 10
50.3836220041
 20
91.4103751137
 30
0.0
 10
50.4007071998
 20
91.2948048792
 30
0.0
 10
50.4211088572
 20
91.1251826488
 30
0.0
 10
50.4437364624
 20
90.8926600709
 30
0.0
 10
50.4653071358
 20
90.6233380752
 30
0.0
 10
50.4855286667
 20
90.3197792273
 30
0.0
 10
50.5041108334
 20
89.9848737148
 30
0.0
 10
50.527058774
 20
89.4852505805
 30
0.0
 10
50.5494170039
 20
88.808538342
 30
0.0
 10
50.5657508885
 20
87.9525389083
 30
0.0
 10
50.5694245338
 20
87.3628549548
 30
0.0
 10
50.5694275972
 20
87.062244898
 30
0.0
  0
ENDSEC
  0
SECTION
  2
OBJECTS
  0
DICTIONARY
  5
C
100
AcDbDictionary
280
0
281
1
  3
ACAD_GROUP
350
D
  3
ACAD_MLINESTYLE
350
17
  3
ACAD_LAYOUT
350
1A
  3
ACAD_PLOTSETTINGS
350
19
  3
ACAD_PLOTSTYLENAME
350
E
  0
DICTIONARY
  5
D
102
{ACAD_REACTORS
330
C
102
}
100
AcDbDictionary
280
0
281
1
  0
ACDBDICTIONARYWDFLT
  5
E
102
{ACAD_REACTORS
330
C
102
}
100
AcDbDictionary
281
1
  3
Normal
350
F
100
AcDbDictionaryWithDefault
340
F
  0
DICTIONARY
  5
17
102
{ACAD_REACTORS
330
C
102
}
100
AcDbDictionary
280
0
281
1
  3
Standard
350
18
  0
DICTIONARY
  5
19
102
{ACAD_REACTORS
330
C
102
}
100
AcDbDictionary
281
1
  0
DICTIONARY
  5
1A
102
{ACAD_REACTORS
330
C
102
}
100
AcDbDictionary
281
1
  3
Model
350
289
  3
Layout1
350
28A
  0
ACDBPLACEHOLDER
  5
F
102
{ACAD_REACTORS
330
E
102
}
  0
MLINESTYLE
  5
18
102
{ACAD_REACTORS
330
17
102
}
100
AcDbMlineStyle
  2
STANDARD
 70
0
  3

 62
256
 51
90.0
 52
90.0
 71
2
 49
0.5
 62
256
  6
BYLAYER
 49
-0.5
 62
256
  6
BYLAYER
  0
LAYOUT
  5
289
102
{ACAD_REACTORS
330
1A
102
}
100
AcDbPlotSettings
  1

  2
none_device
  4

  6

 40
0.0
 41
0.0
 42
0.0
 43
0.0
 44
210.0
 45
297.0
 46
0.0
 47
0.0
 48
0.0
 49
0.0
140
0.0
141
0.0
142
1.0
143
1.0
 70
1024
 72
1
 73
0
 74
0
  7

 75
0
147
1.0
148
0.0
149
0.0
100
AcDbLayout
  1
Model
 70
0
 71
0
 10
0.0
 20
0.0
 11
210.0
 21
297.0
 12
0.0
 22
0.0
 32
0.0
 14
0.0
 24
0.0
 34
0.0
 15
0.0
 25
0.0
 35
0.0
146
0.0
 13
0.0
 23
0.0
 33
0.0
 16
1.0
 26
0.0
 36
0.0
 17
0.0
 27
1.0
 37
0.0
 76
0
330
211
345
0
346
0
  0
LAYOUT
  5
28A
102
{ACAD_REACTORS
330
1A
102
}
100
AcDbPlotSettings
  1

  2
none_device
  4

  6

 40
0.0
 41
0.0
 42
0.0
 43
0.0
 44
210.0
 45
297.0
 46
0.0
 47
0.0
 48
0.0
 49
0.0
140
0.0
141
0.0
142
1.0
143
1.0
 70
0
 72
1
 73
0
 74
0
  7

 75
0
147
1.0
148
0.0
149
0.0
100
AcDbLayout
  1
Layout1
 70
0
 71
1
 10
0.0
 20
0.0
 11
210.0
 21
297.0
 12
0.0
 22
0.0
 32
0.0
 14
0.0
 24
0.0
 34
0.0
 15
0.0
 25
0.0
 35
0.0
146
0.0
 13
0.0
 23
0.0
 33
0.0
 16
1.0
 26
0.0
 36
0.0
 17
0.0
 27
1.0
 37
0.0
 76
0
330
212
345
0
346
0
  0
ENDSEC
  0
EOF
