999
DXF file: C:\Users\sesa63760\Dev\_Creo\CAD\MCADID0005528_3D-CAD\drw0001_5.dxf
999
Pro/ENGINEER 2019471 by Parametric Technology Corporation
  0
SECTION
  2
HEADER
  9
$ACADVER
  1
AC1024
  9
$DWGCODEPAGE
  3
ANSI_1252
  9
$EXTMAX
 10
58.3754635583
 20
82.5595841753
 30
0.0
  9
$EXTMIN
 10
0.0
 20
0.0
 30
0.0
  9
$LIMMIN
 10
0.0
 20
0.0
  9
$LIMMAX
 10
58.3754635583
 20
82.5595841753
  9
$VIEWCTR
 10
29.1877317791
 20
41.2797920876
  9
$VIEWSIZE
 40
82.5595841753
  9
$CLAYER
  8
0
  9
$LTSCALE
 40
5.3816617833
  9
$CELTYPE
  6
BYLAYER
  9
$DIMSCALE
 40
1.0
  9
$DIMASZ
 40
0.6949459947
  9
$DIMEXO
 40
1.0
  9
$DIMDLI
 40
3.7182390503
  9
$DIMEXE
 40
1.0
  9
$DIMCEN
 40
0.8806355645
  9
$DIMLFAC
 40
1.0
  9
$DIMBLK
  1
_FILLED
  9
$DIMALT
 70
0
  9
$DIMALTF
 40
0.0393700787
  9
$DIMTXT
 40
0.9729243926
  9
$DIMTOL
 70
1
  9
$DIMLIM
 70
0
  9
$DIMTFAC
 40
1.0
  9
$DIMTP
 40
0.01
  9
$DIMTM
 40
0.01
  9
$DIMGAP
 40
0.625
  9
$DIMDSEP
 70
46
  9
$AUNITS
 70
0
  9
$PDMODE
 70
3
  9
$PDSIZE
 40
0.3125
  9
$HANDSEED
  5
2F5
  9
$TILEMODE
 70
1
  9
$MEASUREMENT
 70
1
  9
$INSUNITS
 70
4
  0
ENDSEC
  0
SECTION
  2
CLASSES
  0
CLASS
  1
ACDBDICTIONARYWDFLT
  2
AcDbDictionaryWithDefault
  3
AutoCAD 2000
 90
0
 91
1
280
0
281
0
  0
CLASS
  1
ACDBPLACEHOLDER
  2
AcDbPlaceHolder
  3
AutoCAD 2000
 90
0
 91
1
280
0
281
0
  0
CLASS
  1
LAYOUT
  2
AcDbLayout
  3
AutoCAD 2000
 90
0
 91
0
280
0
281
0
  0
ENDSEC
  0
SECTION
  2
TABLES
  0
TABLE
  2
VPORT
  5
8
100
AcDbSymbolTable
 70
2
  0
VPORT
  5
1F4
100
AcDbSymbolTableRecord
100
AcDbViewportTableRecord
  2
*ACTIVE
 70
0
 10
0.0
 20
0.0
 11
1.0
 21
1.0
 12
29.1877317791
 22
41.2797920876
 13
0.0
 23
0.0
 14
1.0
 24
1.0
 15
0.0
 25
0.0
 16
0.0
 26
0.0
 36
1.0
 17
0.0
 27
0.0
 37
0.0
 40
82.5595841753
 41
0.7070707071
 42
50.0
 43
0.0
 44
0.0
 50
0.0
 51
0.0
 71
0
 72
100
 73
1
 74
1
 75
0
 76
0
 77
0
 78
0
  0
ENDTAB
  0
TABLE
  2
LTYPE
  5
5
100
AcDbSymbolTable
 70
6
  0
LTYPE
  5
14
100
AcDbSymbolTableRecord
100
AcDbLinetypeTableRecord
  2
BYBLOCK
 70
0
  3

 72
65
 73
0
 40
0.0
  0
LTYPE
  5
15
100
AcDbSymbolTableRecord
100
AcDbLinetypeTableRecord
  2
BYLAYER
 70
0
  3

 72
65
 73
0
 40
0.0
  0
LTYPE
  5
16
100
AcDbSymbolTableRecord
100
AcDbLinetypeTableRecord
  2
CONTINUOUS
 70
64
  3
Solid line
 72
65
 73
0
 40
0.0
  0
LTYPE
  5
1F5
100
AcDbSymbolTableRecord
100
AcDbLinetypeTableRecord
  2
CENTER
 70
64
  3
____ _ ____ _ ____ _ ____ _ ____ _ ____ _ ____
 72
65
 73
4
 40
0.6
 49
0.375
 74
0
 49
-0.075
 74
0
 49
0.075
 74
0
 49
-0.075
 74
0
  0
LTYPE
  5
1F6
100
AcDbSymbolTableRecord
100
AcDbLinetypeTableRecord
  2
HIDDEN
 70
64
  3
- - - - - - - - - - - - - - - - - - - -
 72
65
 73
2
 40
0.2
 49
0.1
 74
0
 49
-0.1
 74
0
  0
LTYPE
  5
1F7
100
AcDbSymbolTableRecord
100
AcDbLinetypeTableRecord
  2
PHANTOM
 70
64
  3
_____ _ _ _____ _ _ _____ _ _ _____
 72
65
 73
6
 40
0.8
 49
0.45
 74
0
 49
-0.05
 74
0
 49
0.1
 74
0
 49
-0.05
 74
0
 49
0.1
 74
0
 49
-0.05
 74
0
  0
LTYPE
  5
1F8
100
AcDbSymbolTableRecord
100
AcDbLinetypeTableRecord
  2
DOT
 70
64
  3
. . . . . . . . . . . . . . . . . . . .
 72
65
 73
2
 40
0.2
 49
0.1
 74
0
 49
-0.1
 74
0
  0
LTYPE
  5
1F9
100
AcDbSymbolTableRecord
100
AcDbLinetypeTableRecord
  2
DASHED
 70
64
  3
- - - - - - - - - - - - - - - - - - - -
 72
65
 73
2
 40
0.2
 49
0.1
 74
0
 49
-0.1
 74
0
  0
ENDTAB
  0
TABLE
  2
LAYER
  5
2
100
AcDbSymbolTable
 70
36
  0
LAYER
  5
10
100
AcDbSymbolTableRecord
100
AcDbLayerTableRecord
  2
0
 70
0
 62
7
  6
CONTINUOUS
370
-3
390
F
  0
LAYER
  5
1FA
100
AcDbSymbolTableRecord
100
AcDbLayerTableRecord
  2
DEFAULT_1
 70
0
 62
7
  6
CENTER
370
-3
390
F
  0
LAYER
  5
1FB
100
AcDbSymbolTableRecord
100
AcDbLayerTableRecord
  2
DEFAULT_2
 70
0
 62
7
  6
HIDDEN
370
-3
390
F
  0
LAYER
  5
1FC
100
AcDbSymbolTableRecord
100
AcDbLayerTableRecord
  2
DEFAULT_3
 70
0
 62
7
  6
PHANTOM
370
-3
390
F
  0
LAYER
  5
1FD
100
AcDbSymbolTableRecord
100
AcDbLayerTableRecord
  2
00_COMPONENTS
 70
0
 62
7
  6
CONTINUOUS
370
-3
390
F
  0
LAYER
  5
1FE
100
AcDbSymbolTableRecord
100
AcDbLayerTableRecord
  2
01_1_DEFAULT_DATUMS
 70
0
 62
7
  6
CONTINUOUS
370
-3
390
F
  0
LAYER
  5
1FF
100
AcDbSymbolTableRecord
100
AcDbLayerTableRecord
  2
01_PLANES
 70
0
 62
7
  6
CONTINUOUS
370
-3
390
F
  0
LAYER
  5
200
100
AcDbSymbolTableRecord
100
AcDbLayerTableRecord
  2
02_COORD_SYS
 70
0
 62
7
  6
CONTINUOUS
370
-3
390
F
  0
LAYER
  5
201
100
AcDbSymbolTableRecord
100
AcDbLayerTableRecord
  2
03_AXES
 70
0
 62
7
  6
CONTINUOUS
370
-3
390
F
  0
LAYER
  5
202
100
AcDbSymbolTableRecord
100
AcDbLayerTableRecord
  2
04_POINTS
 70
0
 62
7
  6
CONTINUOUS
370
-3
390
F
  0
LAYER
  5
203
100
AcDbSymbolTableRecord
100
AcDbLayerTableRecord
  2
05_CURVES
 70
0
 62
7
  6
CONTINUOUS
370
-3
390
F
  0
LAYER
  5
204
100
AcDbSymbolTableRecord
100
AcDbLayerTableRecord
  2
06_SURFS
 70
0
 62
7
  6
CONTINUOUS
370
-3
390
F
  0
LAYER
  5
205
100
AcDbSymbolTableRecord
100
AcDbLayerTableRecord
  2
07_COSMETICS
 70
0
 62
7
  6
CONTINUOUS
370
-3
390
F
  0
LAYER
  5
206
100
AcDbSymbolTableRecord
100
AcDbLayerTableRecord
  2
10_NOTES
 70
0
 62
7
  6
CONTINUOUS
370
-3
390
F
  0
LAYER
  5
207
100
AcDbSymbolTableRecord
100
AcDbLayerTableRecord
  2
11_NOTES_PUB
 70
0
 62
7
  6
CONTINUOUS
370
-3
390
F
  0
LAYER
  5
208
100
AcDbSymbolTableRecord
100
AcDbLayerTableRecord
  2
13_REF_GTOL
 70
0
 62
7
  6
CONTINUOUS
370
-3
390
F
  0
LAYER
  5
209
100
AcDbSymbolTableRecord
100
AcDbLayerTableRecord
  2
16_MISC
 70
0
 62
7
  6
CONTINUOUS
370
-3
390
F
  0
LAYER
  5
20A
100
AcDbSymbolTableRecord
100
AcDbLayerTableRecord
  2
17_NO_PRINT
 70
0
 62
7
  6
CONTINUOUS
370
-3
390
F
  0
LAYER
  5
20B
100
AcDbSymbolTableRecord
100
AcDbLayerTableRecord
  2
18_DATUM_CAMS_JOINTS
 70
0
 62
7
  6
CONTINUOUS
370
-3
390
F
  0
LAYER
  5
20C
100
AcDbSymbolTableRecord
100
AcDbLayerTableRecord
  2
19_DATUM_FUNCTIONAL
 70
0
 62
7
  6
CONTINUOUS
370
-3
390
F
  0
LAYER
  5
20D
100
AcDbSymbolTableRecord
100
AcDbLayerTableRecord
  2
20_DATUM_KINEMATIC_SCHEME
 70
0
 62
7
  6
CONTINUOUS
370
-3
390
F
  0
ENDTAB
  0
TABLE
  2
STYLE
  5
3
100
AcDbSymbolTable
 70
1
  0
STYLE
  5
11
100
AcDbSymbolTableRecord
100
AcDbTextStyleTableRecord
  2
STANDARD
 70
0
 40
0.0
 41
1.0
 50
0.0
 71
0
 42
0.2
  3
ARIAL.TTF
  4

  0
STYLE
  5
20E
100
AcDbSymbolTableRecord
100
AcDbTextStyleTableRecord
  2
TEXTSTYLE_1
 70
0
 40
0.0
 41
0.8
 50
0.0
 71
0
 42
0.2
  3
gdt
  4

  0
ENDTAB
  0
TABLE
  2
VIEW
  5
6
100
AcDbSymbolTable
 70
0
  0
ENDTAB
  0
TABLE
  2
UCS
  5
7
100
AcDbSymbolTable
 70
0
  0
ENDTAB
  0
TABLE
  2
APPID
  5
9
100
AcDbSymbolTable
 70
1
  0
APPID
  5
20F
100
AcDbSymbolTableRecord
100
AcDbRegAppTableRecord
  2
ACAD
 70
0
  0
ENDTAB
  0
TABLE
  2
BLOCK_RECORD
  5
1
100
AcDbSymbolTable
 70
0
  0
BLOCK_RECORD
  5
210
100
AcDbSymbolTableRecord
100
AcDbBlockTableRecord
  2
*Model_Space
  0
BLOCK_RECORD
  5
211
100
AcDbSymbolTableRecord
100
AcDbBlockTableRecord
  2
*Paper_Space
  0
BLOCK_RECORD
  5
212
100
AcDbSymbolTableRecord
100
AcDbBlockTableRecord
  2
_FILLED
  0
ENDTAB
  0
TABLE
  2
DIMSTYLE
  5
A
100
AcDbSymbolTable
 70
1
100
AcDbDimStyleTable
 71
0
  0
DIMSTYLE
105
213
100
AcDbSymbolTableRecord
100
AcDbDimStyleTableRecord
  2
STANDARD
 70
0
  3

  4

 40
1.0
 41
0.6949459947
 42
1.0
 43
0.38
 44
1.0
 45
0.0
 46
0.0
 47
0.01
 48
0.01
140
0.9729243926
141
0.09
142
0.0
143
25.4
144
1.0
145
0.0
146
1.0
147
0.625
 71
1
 72
0
 73
0
 74
0
 75
0
 76
0
 77
1
 78
8
 79
2
170
0
171
1
172
0
173
0
174
0
175
0
176
0
177
0
178
0
270
2
179
2
271
2
272
2
273
2
274
2
275
0
280
0
281
0
282
0
283
1
284
8
285
0
286
0
287
3
288
0
340
11
278
46
341
212
342
212
343
212
344
212
  0
ENDTAB
  0
ENDSEC
  0
SECTION
  2
BLOCKS
  0
BLOCK
  5
20
100
AcDbEntity
  8
0
100
AcDbBlockBegin
  2
*Model_Space
 70
0
 10
0.0
 20
0.0
 30
0.0
  3
*Model_Space
  1

  0
ENDBLK
  5
21
100
AcDbEntity
  8
0
100
AcDbBlockEnd
  0
BLOCK
  5
1C
100
AcDbEntity
  8
0
100
AcDbBlockBegin
  2
*Paper_Space
 70
0
 10
0.0
 20
0.0
 30
0.0
  3
*Paper_Space
  1

  0
ENDBLK
  5
1D
100
AcDbEntity
  8
0
100
AcDbBlockEnd
  0
BLOCK
  5
214
100
AcDbEntity
  8
0
100
AcDbBlockBegin
  2
_FILLED
 70
64
 10
0.0
 20
0.0
  3
_FILLED
  1

  0
SOLID
  5
215
100
AcDbEntity
  8
0
  6
BYBLOCK
 62
0
100
AcDbTrace
 10
0.0
 20
0.0
 11
-1.0
 21
0.25
 12
-1.0
 22
-0.25
 13
-1.0
 23
-0.25
  0
ENDBLK
  5
216
100
AcDbEntity
  8
0
  6
BYBLOCK
 62
0
100
AcDbBlockEnd
  0
ENDSEC
  0
SECTION
  2
ENTITIES
  0
LINE
  5
217
100
AcDbEntity
  8
0
100
AcDbLine
 62
7
  6
BYLAYER
 10
6.8046866202
 20
45.2017902882
 11
6.8046866202
 21
47.3598981323
  0
LINE
  5
218
100
AcDbEntity
  8
0
100
AcDbLine
 62
7
  6
BYLAYER
 10
8.0046866202
 20
34.511346412
 11
8.0046866202
 21
39.8880238872
  0
LINE
  5
219
100
AcDbEntity
  8
0
100
AcDbLine
 62
7
  6
BYLAYER
 10
8.0046866202
 20
42.8736645333
 11
8.0046866202
 21
49.1731481058
  0
LINE
  5
21A
100
AcDbEntity
  8
0
100
AcDbLine
 62
7
  6
BYLAYER
 10
8.2046866202
 20
44.0491770231
 11
8.2046866202
 21
47.1954809143
  0
LINE
  5
21B
100
AcDbEntity
  8
0
100
AcDbLine
 62
7
  6
BYLAYER
 10
8.3046866202
 20
49.5141092373
 11
8.3046866202
 21
50.5808374557
  0
LINE
  5
21C
100
AcDbEntity
  8
0
100
AcDbLine
 62
7
  6
BYLAYER
 10
8.3046866202
 20
50.5808442102
 11
9.2046866202
 21
51.4808442102
  0
LINE
  5
21D
100
AcDbEntity
  8
0
100
AcDbLine
 62
7
  6
BYLAYER
 10
8.0046866202
 20
34.511346412
 11
8.3046874199
 21
33.9925180835
  0
LINE
  5
21E
100
AcDbEntity
  8
0
100
AcDbLine
 62
7
  6
BYLAYER
 10
9.6046866202
 20
49.3288867527
 11
9.6046866202
 21
51.4808442102
  0
LINE
  5
21F
100
AcDbEntity
  8
0
100
AcDbLine
 62
7
  6
BYLAYER
 10
11.2056866202
 20
32.2809829494
 11
11.2056866202
 21
32.9808440961
  0
LINE
  5
220
100
AcDbEntity
  8
0
100
AcDbLine
 62
7
  6
BYLAYER
 10
11.3746866202
 20
40.5808442102
 11
11.3746866202
 21
42.1808442102
  0
LINE
  5
221
100
AcDbEntity
  8
0
100
AcDbLine
 62
7
  6
BYLAYER
 10
11.4046866202
 20
51.4808442102
 11
11.4046866202
 21
47.1954809143
  0
LINE
  5
222
100
AcDbEntity
  8
0
100
AcDbLine
 62
7
  6
BYLAYER
 10
11.4046866202
 20
38.1808442102
 11
11.4046866202
 21
34.6687594946
  0
LINE
  5
223
100
AcDbEntity
  8
0
100
AcDbLine
 62
7
  6
BYLAYER
 10
13.3046866202
 20
42.1808442102
 11
13.3046866202
 21
40.5808442102
  0
LINE
  5
224
100
AcDbEntity
  8
0
100
AcDbLine
 62
7
  6
BYLAYER
 10
14.0936866202
 20
31.2408442102
 11
14.0936866202
 21
34.5808442102
  0
LINE
  5
225
100
AcDbEntity
  8
0
100
AcDbLine
 62
7
  6
BYLAYER
 10
14.0936866202
 20
34.6687127725
 11
14.0936866202
 21
51.4808442102
  0
LINE
  5
226
100
AcDbEntity
  8
0
100
AcDbLine
 62
7
  6
BYLAYER
 10
17.104578836
 20
51.88084255
 11
17.104578836
 21
51.4808442102
  0
LINE
  5
227
100
AcDbEntity
  8
0
100
AcDbLine
 62
7
  6
BYLAYER
 10
17.2802190546
 20
51.4808442102
 11
17.2802190546
 21
51.8772838085
  0
LINE
  5
228
100
AcDbEntity
  8
0
100
AcDbLine
 62
7
  6
BYLAYER
 10
26.9036868251
 20
27.1308442065
 11
36.7897624434
 21
27.1308442065
  0
LINE
  5
229
100
AcDbEntity
  8
0
100
AcDbLine
 62
7
  6
BYLAYER
 10
25.6536866202
 20
27.8058444531
 11
26.9036868251
 21
27.8058444531
  0
LINE
  5
22A
100
AcDbEntity
  8
0
100
AcDbLine
 62
7
  6
BYLAYER
 10
37.2036865576
 20
28.9068442102
 11
37.433686912
 21
28.9068442102
  0
LINE
  5
22B
100
AcDbEntity
  8
0
100
AcDbLine
 62
7
  6
BYLAYER
 10
8.0046866202
 20
35.1808442102
 11
10.9213372003
 21
38.0974947903
  0
LINE
  5
22C
100
AcDbEntity
  8
0
100
AcDbLine
 62
7
  6
BYLAYER
 10
24.0416985298
 20
50.8522703496
 11
24.6699839301
 21
51.1241231532
  0
LINE
  5
22D
100
AcDbEntity
  8
0
100
AcDbLine
 62
7
  6
BYLAYER
 10
48.4066587684
 20
29.2590650523
 11
37.9376109001
 21
29.2590650523
  0
LINE
  5
22E
100
AcDbEntity
  8
0
100
AcDbLine
 62
7
  6
BYLAYER
 10
51.5061739136
 20
29.8138637136
 11
37.9376109001
 21
29.8138637136
  0
LINE
  5
22F
100
AcDbEntity
  8
0
100
AcDbLine
 62
7
  6
BYLAYER
 10
37.6156535809
 20
30.1273690418
 11
37.9376108955
 21
30.1273690418
  0
LINE
  5
230
100
AcDbEntity
  8
0
100
AcDbLine
 62
7
  6
BYLAYER
 10
25.6536866202
 20
30.5058442102
 11
22.9546866202
 21
30.5058442102
  0
LINE
  5
231
100
AcDbEntity
  8
0
100
AcDbLine
 62
7
  6
BYLAYER
 10
21.1036866202
 20
51.4808442102
 11
21.1036866202
 21
51.6886082743
  0
LINE
  5
232
100
AcDbEntity
  8
0
100
AcDbLine
 62
7
  6
BYLAYER
 10
9.2046866202
 20
40.5808442102
 11
8.0046866202
 21
39.8880238872
  0
LINE
  5
233
100
AcDbEntity
  8
0
100
AcDbLine
 62
7
  6
BYLAYER
 10
22.7046866202
 20
30.8808442102
 11
22.6936866202
 21
30.8808442102
  0
LINE
  5
234
100
AcDbEntity
  8
0
100
AcDbLine
 62
7
  6
BYLAYER
 10
14.0936866202
 20
31.2408442102
 11
22.6936866202
 21
31.2408442102
  0
LINE
  5
235
100
AcDbEntity
  8
0
100
AcDbLine
 62
7
  6
BYLAYER
 10
14.0936866202
 20
32.2808442102
 11
11.2056866202
 21
32.2808442102
  0
LINE
  5
236
100
AcDbEntity
  8
0
100
AcDbLine
 62
7
  6
BYLAYER
 10
8.0046866202
 20
42.8736645333
 11
9.2046866202
 21
42.1808442102
  0
LINE
  5
237
100
AcDbEntity
  8
0
100
AcDbLine
 62
7
  6
BYLAYER
 10
22.2936866202
 20
51.4808442102
 11
22.2936866202
 21
49.2070822024
  0
LINE
  5
238
100
AcDbEntity
  8
0
100
AcDbLine
 62
7
  6
BYLAYER
 10
22.2936866202
 20
38.1808444078
 11
22.2936866202
 21
34.5808442596
  0
LINE
  5
239
100
AcDbEntity
  8
0
100
AcDbLine
 62
7
  6
BYLAYER
 10
22.2936866202
 20
38.8808442102
 11
22.2936866202
 21
43.8808442102
  0
LINE
  5
23A
100
AcDbEntity
  8
0
100
AcDbLine
 62
7
  6
BYLAYER
 10
22.6936866202
 20
30.8808470639
 11
22.6936866202
 21
31.2408442102
  0
LINE
  5
23B
100
AcDbEntity
  8
0
100
AcDbLine
 62
7
  6
BYLAYER
 10
22.7046866202
 20
30.7558552558
 11
22.7046866202
 21
52.0058442102
  0
LINE
  5
23C
100
AcDbEntity
  8
0
100
AcDbLine
 62
7
  6
BYLAYER
 10
22.9546866202
 20
30.5058442102
 11
22.9546866202
 21
52.2558442102
  0
LINE
  5
23D
100
AcDbEntity
  8
0
100
AcDbLine
 62
7
  6
BYLAYER
 10
24.8690361442
 20
34.1672987134
 11
25.6536866202
 21
34.1672582432
  0
LINE
  5
23E
100
AcDbEntity
  8
0
100
AcDbLine
 62
7
  6
BYLAYER
 10
23.0446866207
 20
50.053081899
 11
23.0446866207
 21
49.8457856369
  0
LINE
  5
23F
100
AcDbEntity
  8
0
100
AcDbLine
 62
7
  6
BYLAYER
 10
23.0446866207
 20
36.0897926466
 11
23.0446866207
 21
35.7981976497
  0
LINE
  5
240
100
AcDbEntity
  8
0
100
AcDbLine
 62
7
  6
BYLAYER
 10
23.4036866202
 20
52.25574434
 11
23.4036866202
 21
52.0205399296
  0
LINE
  5
241
100
AcDbEntity
  8
0
100
AcDbLine
 62
7
  6
BYLAYER
 10
24.6699839301
 20
51.1241231532
 11
24.6699839301
 21
48.4832038011
  0
LINE
  5
242
100
AcDbEntity
  8
0
100
AcDbLine
 62
7
  6
BYLAYER
 10
24.6699839301
 20
37.8806872751
 11
24.6699839301
 21
34.2140451398
  0
LINE
  5
243
100
AcDbEntity
  8
0
100
AcDbLine
 62
7
  6
BYLAYER
 10
8.0046866202
 20
34.5808442102
 11
22.2936866202
 21
34.5808442102
  0
LINE
  5
244
100
AcDbEntity
  8
0
100
AcDbLine
 62
7
  6
BYLAYER
 10
14.0936866202
 20
34.6686714007
 11
11.4046866202
 21
34.6686714007
  0
LINE
  5
245
100
AcDbEntity
  8
0
100
AcDbLine
 62
7
  6
BYLAYER
 10
11.4046866202
 20
34.7388366759
 11
8.0046866202
 21
34.7388366759
  0
LINE
  5
246
100
AcDbEntity
  8
0
100
AcDbLine
 62
7
  6
BYLAYER
 10
22.2936866202
 20
34.7393347763
 11
14.0936866202
 21
34.7393347763
  0
LINE
  5
247
100
AcDbEntity
  8
0
100
AcDbLine
 62
7
  6
BYLAYER
 10
24.8690361443
 20
34.1673391838
 11
24.8690361443
 21
37.9396730802
  0
LINE
  5
248
100
AcDbEntity
  8
0
100
AcDbLine
 62
7
  6
BYLAYER
 10
24.8690361442
 20
48.4359587681
 11
24.8690361442
 21
51.1606494759
  0
LINE
  5
249
100
AcDbEntity
  8
0
100
AcDbLine
 62
7
  6
BYLAYER
 10
25.6536866202
 20
27.8058444531
 11
25.6536866202
 21
54.9558439674
  0
LINE
  5
24A
100
AcDbEntity
  8
0
100
AcDbLine
 62
7
  6
BYLAYER
 10
26.9036866202
 20
36.3290506272
 11
25.6536866202
 21
36.3290506272
  0
LINE
  5
24B
100
AcDbEntity
  8
0
100
AcDbLine
 62
7
  6
BYLAYER
 10
11.4046866202
 20
37.5046200535
 11
10.3284624635
 21
37.5046200535
  0
LINE
  5
24C
100
AcDbEntity
  8
0
100
AcDbLine
 62
7
  6
BYLAYER
 10
25.6536866202
 20
37.9397756832
 11
24.8690361442
 21
37.939724382
  0
LINE
  5
24D
100
AcDbEntity
  8
0
100
AcDbLine
 62
7
  6
BYLAYER
 10
26.9036868251
 20
27.1308442028
 11
26.9036868251
 21
55.6308442177
  0
LINE
  5
24E
100
AcDbEntity
  8
0
100
AcDbLine
 62
7
  6
BYLAYER
 10
28.1036866202
 20
40.3308442102
 11
28.1036866202
 21
42.4308442102
  0
LINE
  5
24F
100
AcDbEntity
  8
0
100
AcDbLine
 62
7
  6
BYLAYER
 10
22.2936866202
 20
38.1808444078
 11
14.0936866202
 21
38.1808444078
  0
LINE
  5
250
100
AcDbEntity
  8
0
100
AcDbLine
 62
7
  6
BYLAYER
 10
11.4046866202
 20
38.1808442102
 11
11.1064176814
 21
38.1808442102
  0
LINE
  5
251
100
AcDbEntity
  8
0
100
AcDbLine
 62
7
  6
BYLAYER
 10
22.2936866202
 20
38.8808442102
 11
14.0936866202
 21
38.8808442102
  0
LINE
  5
252
100
AcDbEntity
  8
0
100
AcDbLine
 62
7
  6
BYLAYER
 10
28.1036866202
 20
40.3308442102
 11
26.9036868251
 21
40.2258442282
  0
LINE
  5
253
100
AcDbEntity
  8
0
100
AcDbLine
 62
7
  6
BYLAYER
 10
13.3046866202
 20
40.5808442102
 11
9.2046866202
 21
40.5808442102
  0
LINE
  5
254
100
AcDbEntity
  8
0
100
AcDbLine
 62
7
  6
BYLAYER
 10
9.2046866202
 20
42.1808442102
 11
13.3046866202
 21
42.1808442102
  0
LINE
  5
255
100
AcDbEntity
  8
0
100
AcDbLine
 62
7
  6
BYLAYER
 10
26.9036866202
 20
42.5358442102
 11
28.1036866202
 21
42.4308442102
  0
LINE
  5
256
100
AcDbEntity
  8
0
100
AcDbLine
 62
7
  6
BYLAYER
 10
14.0936866202
 20
43.8808442102
 11
17.1576930408
 21
43.8808442102
  0
LINE
  5
257
100
AcDbEntity
  8
0
100
AcDbLine
 62
7
  6
BYLAYER
 10
19.6496801997
 20
43.8808442102
 11
22.2936866202
 21
43.8808442102
  0
LINE
  5
258
100
AcDbEntity
  8
0
100
AcDbLine
 62
7
  6
BYLAYER
 10
8.2046866202
 20
44.0491770231
 11
14.0936866202
 21
44.0491770231
  0
LINE
  5
259
100
AcDbEntity
  8
0
100
AcDbLine
 62
7
  6
BYLAYER
 10
6.8046866202
 20
45.2017902882
 11
8.0046866202
 21
45.1808442102
  0
LINE
  5
25A
100
AcDbEntity
  8
0
100
AcDbLine
 62
7
  6
BYLAYER
 10
37.9376108939
 20
46.7636038305
 11
37.433686912
 21
46.7634738657
  0
LINE
  5
25B
100
AcDbEntity
  8
0
100
AcDbLine
 62
7
  6
BYLAYER
 10
25.6536866202
 20
46.4326377933
 11
26.9036866202
 21
46.4326377933
  0
LINE
  5
25C
100
AcDbEntity
  8
0
100
AcDbLine
 62
7
  6
BYLAYER
 10
51.563543616
 20
46.8620775655
 11
37.9376108939
 21
46.8620775655
  0
LINE
  5
25D
100
AcDbEntity
  8
0
100
AcDbLine
 62
7
  6
BYLAYER
 10
36.7897624434
 20
55.630844214
 11
36.7897624434
 21
27.1308442065
  0
LINE
  5
25E
100
AcDbEntity
  8
0
100
AcDbLine
 62
7
  6
BYLAYER
 10
36.7943635844
 20
53.2021367488
 11
36.794351074
 21
49.3105206212
  0
LINE
  5
25F
100
AcDbEntity
  8
0
100
AcDbLine
 62
7
  6
BYLAYER
 10
37.2036865576
 20
54.2408443438
 11
37.2036865576
 21
52.9489220034
  0
LINE
  5
260
100
AcDbEntity
  8
0
100
AcDbLine
 62
7
  6
BYLAYER
 10
37.2036865576
 20
47.0081506937
 11
37.2036865576
 21
28.5208440767
  0
LINE
  5
261
100
AcDbEntity
  8
0
100
AcDbLine
 62
7
  6
BYLAYER
 10
37.2076108998
 20
46.7636038305
 11
37.2076108998
 21
52.9449671883
  0
LINE
  5
262
100
AcDbEntity
  8
0
100
AcDbLine
 62
7
  6
BYLAYER
 10
37.433686912
 20
53.8558439733
 11
37.433686912
 21
52.6348514751
  0
LINE
  5
263
100
AcDbEntity
  8
0
100
AcDbLine
 62
7
  6
BYLAYER
 10
37.433686912
 20
46.7636038305
 11
37.433686912
 21
28.9068442102
  0
LINE
  5
264
100
AcDbEntity
  8
0
100
AcDbLine
 62
7
  6
BYLAYER
 10
38.0883245602
 20
51.031429944
 11
38.0436866202
 21
51.0195935168
  0
LINE
  5
265
100
AcDbEntity
  8
0
100
AcDbLine
 62
7
  6
BYLAYER
 10
8.0046866202
 20
47.3808442102
 11
6.8046866202
 21
47.3598981323
  0
LINE
  5
266
100
AcDbEntity
  8
0
100
AcDbLine
 62
7
  6
BYLAYER
 10
11.4046866202
 20
47.1954809143
 11
8.2046866202
 21
47.1954809143
  0
LINE
  5
267
100
AcDbEntity
  8
0
100
AcDbLine
 62
7
  6
BYLAYER
 10
24.8690361442
 20
48.4359176123
 11
25.6536866202
 21
48.4358764569
  0
LINE
  5
268
100
AcDbEntity
  8
0
100
AcDbLine
 62
7
  6
BYLAYER
 10
37.934002169
 20
44.6516727029
 11
37.934002169
 21
32.2662411364
  0
LINE
  5
269
100
AcDbEntity
  8
0
100
AcDbLine
 62
7
  6
BYLAYER
 10
37.9376108998
 20
29.2591687085
 11
37.9376108997
 21
30.1273690418
  0
LINE
  5
26A
100
AcDbEntity
  8
0
100
AcDbLine
 62
7
  6
BYLAYER
 10
37.9376108981
 20
46.7636038305
 11
37.9376108975
 21
53.5042818981
  0
LINE
  5
26B
100
AcDbEntity
  8
0
100
AcDbLine
 62
7
  6
BYLAYER
 10
38.0436866202
 20
51.8818469427
 11
38.0436866202
 21
50.9890802446
  0
LINE
  5
26C
100
AcDbEntity
  8
0
100
AcDbLine
 62
7
  6
BYLAYER
 10
38.0936865935
 20
50.9742086493
 11
38.0936865935
 21
51.8597788357
  0
LINE
  5
26D
100
AcDbEntity
  8
0
100
AcDbLine
 62
7
  6
BYLAYER
 10
37.95888718
 20
49.3160729732
 11
37.9693054443
 21
53.1994878696
  0
LINE
  5
26E
100
AcDbEntity
  8
0
100
AcDbLine
 62
7
  6
BYLAYER
 10
37.4339913122
 20
28.9068442102
 11
37.934002169
 21
32.2662411364
  0
LINE
  5
26F
100
AcDbEntity
  8
0
100
AcDbLine
 62
7
  6
BYLAYER
 10
9.4704962299
 20
49.0261047594
 11
11.4046866202
 21
49.0261047594
  0
LINE
  5
270
100
AcDbEntity
  8
0
100
AcDbLine
 62
7
  6
BYLAYER
 10
22.2936866202
 20
49.2070822024
 11
14.0936866202
 21
49.2070822024
  0
LINE
  5
271
100
AcDbEntity
  8
0
100
AcDbLine
 62
7
  6
BYLAYER
 10
37.9588889176
 20
49.3160729732
 11
37.9376108999
 21
49.3160729732
  0
LINE
  5
272
100
AcDbEntity
  8
0
100
AcDbLine
 62
7
  6
BYLAYER
 10
11.4046866202
 20
49.3288867527
 11
9.6046866202
 21
49.3288867527
  0
LINE
  5
273
100
AcDbEntity
  8
0
100
AcDbLine
 62
7
  6
BYLAYER
 10
14.0936866202
 20
49.6754206353
 11
22.2936866202
 21
49.6754206353
  0
LINE
  5
274
100
AcDbEntity
  8
0
100
AcDbLine
 62
7
  6
BYLAYER
 10
22.2936866202
 20
49.9884236399
 11
14.0936866202
 21
49.9884236399
  0
LINE
  5
275
100
AcDbEntity
  8
0
100
AcDbLine
 62
7
  6
BYLAYER
 10
14.0936866202
 20
50.4808442102
 11
11.4046866202
 21
50.4808442102
  0
LINE
  5
276
100
AcDbEntity
  8
0
100
AcDbLine
 62
7
  6
BYLAYER
 10
39.6936857382
 20
50.4918795101
 11
39.6936857382
 21
50.5303003142
  0
LINE
  5
277
100
AcDbEntity
  8
0
100
AcDbLine
 62
7
  6
BYLAYER
 10
39.6936857382
 20
52.2274414739
 11
39.6936857382
 21
52.2597348823
  0
LINE
  5
278
100
AcDbEntity
  8
0
100
AcDbLine
 62
7
  6
BYLAYER
 10
36.7897624434
 20
27.1308442102
 11
37.2036865576
 21
28.5208440767
  0
LINE
  5
279
100
AcDbEntity
  8
0
100
AcDbLine
 62
7
  6
BYLAYER
 10
24.8585138478
 20
51.1607594579
 11
24.6699839301
 21
51.1241231532
  0
LINE
  5
27A
100
AcDbEntity
  8
0
100
AcDbLine
 62
7
  6
BYLAYER
 10
24.8690361442
 20
51.1606494759
 11
25.6536866202
 21
51.1607773916
  0
LINE
  5
27B
100
AcDbEntity
  8
0
100
AcDbLine
 62
7
  6
BYLAYER
 10
22.2936866202
 20
51.4808442102
 11
14.0936866202
 21
51.4808442102
  0
LINE
  5
27C
100
AcDbEntity
  8
0
100
AcDbLine
 62
7
  6
BYLAYER
 10
11.4046866202
 20
51.4808442102
 11
9.2046866202
 21
51.4808442102
  0
LINE
  5
27D
100
AcDbEntity
  8
0
100
AcDbLine
 62
7
  6
BYLAYER
 10
22.7046866202
 20
51.8808442102
 11
17.2802589163
 21
51.8808442102
  0
LINE
  5
27E
100
AcDbEntity
  8
0
100
AcDbLine
 62
7
  6
BYLAYER
 10
25.6536866202
 20
52.0205399296
 11
23.4036866202
 21
52.0205399296
  0
LINE
  5
27F
100
AcDbEntity
  8
0
100
AcDbLine
 62
7
  6
BYLAYER
 10
23.4036866202
 20
52.2558442102
 11
22.9546866202
 21
52.2558442102
  0
LINE
  5
280
100
AcDbEntity
  8
0
100
AcDbLine
 62
7
  6
BYLAYER
 10
24.8690361442
 20
51.1606494759
 11
24.8585138478
 21
51.1607594579
  0
LINE
  5
281
100
AcDbEntity
  8
0
100
AcDbLine
 62
7
  6
BYLAYER
 10
50.7936866202
 20
52.0211576018
 11
50.8600795559
 21
52.0199236512
  0
LINE
  5
282
100
AcDbEntity
  8
0
100
AcDbLine
 62
7
  6
BYLAYER
 10
50.7942855788
 20
52.0533752976
 11
50.8599661889
 21
52.0521542306
  0
LINE
  5
283
100
AcDbEntity
  8
0
100
AcDbLine
 62
7
  6
BYLAYER
 10
37.2036865576
 20
54.2408443438
 11
36.7897624434
 21
55.6308442103
  0
LINE
  5
284
100
AcDbEntity
  8
0
100
AcDbLine
 62
7
  6
BYLAYER
 10
37.2036865576
 20
52.6348514751
 11
37.9376109043
 21
52.6356655114
  0
LINE
  5
285
100
AcDbEntity
  8
0
100
AcDbLine
 62
7
  6
BYLAYER
 10
37.9693054443
 20
53.1994878696
 11
37.937610899
 21
53.1994878696
  0
LINE
  5
286
100
AcDbEntity
  8
0
100
AcDbLine
 62
7
  6
BYLAYER
 10
48.271528783
 20
53.5044023822
 11
37.9376108998
 21
53.5044023822
  0
LINE
  5
287
100
AcDbEntity
  8
0
100
AcDbLine
 62
7
  6
BYLAYER
 10
37.433686912
 20
53.8558439733
 11
37.2036865576
 21
53.8558439733
  0
LINE
  5
288
100
AcDbEntity
  8
0
100
AcDbLine
 62
7
  6
BYLAYER
 10
26.9036868251
 20
54.9558439674
 11
25.6536866202
 21
54.9558439674
  0
LINE
  5
289
100
AcDbEntity
  8
0
100
AcDbLine
 62
7
  6
BYLAYER
 10
36.7897624434
 20
55.630844214
 11
26.9036868251
 21
55.630844214
  0
LINE
  5
28A
100
AcDbEntity
  8
0
100
AcDbLine
 62
7
  6
BYLAYER
 10
50.8600597729
 20
53.4997941377
 11
50.8600597729
 21
52.0521524907
  0
LINE
  5
28B
100
AcDbEntity
  8
0
100
AcDbLine
 62
7
  6
BYLAYER
 10
50.8600597729
 20
52.0198755889
 11
50.8600597729
 21
50.3227810732
  0
LINE
  5
28C
100
AcDbEntity
  8
0
100
AcDbLine
 62
7
  6
BYLAYER
 10
50.8600597729
 20
50.2842952247
 11
50.8600597729
 21
48.183372865
  0
LINE
  5
28D
100
AcDbEntity
  8
0
100
AcDbLine
 62
7
  6
BYLAYER
 10
51.256333476
 20
47.8315000294
 11
51.256333476
 21
50.1262261346
  0
LINE
  5
28E
100
AcDbEntity
  8
0
100
AcDbLine
 62
7
  6
BYLAYER
 10
51.256333476
 20
50.1647640799
 11
51.256333476
 21
51.8619089882
  0
LINE
  5
28F
100
AcDbEntity
  8
0
100
AcDbLine
 62
7
  6
BYLAYER
 10
51.256333476
 20
51.894085611
 11
51.256333476
 21
53.4388835645
  0
LINE
  5
290
100
AcDbEntity
  8
0
100
AcDbLine
 62
7
  6
BYLAYER
 10
51.374502921
 20
47.4309279901
 11
51.374502921
 21
49.8905196489
  0
LINE
  5
291
100
AcDbEntity
  8
0
100
AcDbLine
 62
7
  6
BYLAYER
 10
51.374502921
 20
49.9291367645
 11
51.374502921
 21
51.6262864064
  0
LINE
  5
292
100
AcDbEntity
  8
0
100
AcDbLine
 62
7
  6
BYLAYER
 10
51.374502921
 20
51.6583838929
 11
51.374502921
 21
53.2736220147
  0
LINE
  5
293
100
AcDbEntity
  8
0
100
AcDbLine
 62
7
  6
BYLAYER
 10
53.1582200346
 20
43.0779005049
 11
53.1546694373
 21
43.1651678459
  0
LINE
  5
294
100
AcDbEntity
  8
0
100
AcDbLine
 62
7
  6
BYLAYER
 10
53.1582188525
 20
43.0779004847
 11
53.1556967354
 21
43.1486014772
  0
LINE
  5
295
100
AcDbEntity
  8
0
100
AcDbLine
 62
7
  6
BYLAYER
 10
53.1727364556
 20
40.5323160728
 11
53.1704632306
 21
40.117371064
  0
LINE
  5
296
100
AcDbEntity
  8
0
100
AcDbLine
 62
7
  6
BYLAYER
 10
53.1706341831
 20
40.1550737936
 11
53.1701430508
 21
40.0789723438
  0
LINE
  5
297
100
AcDbEntity
  8
0
100
AcDbLine
 62
7
  6
BYLAYER
 10
52.9645208575
 20
36.6774351406
 11
53.1701428978
 21
40.078961407
  0
LINE
  5
298
100
AcDbEntity
  8
0
100
AcDbLine
 62
7
  6
BYLAYER
 10
51.3743539994
 20
49.9291099692
 11
51.3875908973
 21
49.8950491998
  0
LINE
  5
299
100
AcDbEntity
  8
0
100
AcDbLine
 62
7
  6
BYLAYER
 10
51.3743448094
 20
51.6583522012
 11
51.3853701793
 21
51.6299812724
  0
LINE
  5
29A
100
AcDbEntity
  8
0
100
AcDbLine
 62
7
  6
BYLAYER
 10
51.3743539994
 20
49.9291099692
 11
51.3865708726
 21
49.8948513725
  0
LINE
  5
29B
100
AcDbEntity
  8
0
100
AcDbLine
 62
7
  6
BYLAYER
 10
51.3743448094
 20
51.6583522012
 11
51.3843960172
 21
51.6297922864
  0
ARC
  5
29C
100
AcDbEntity
  8
0
100
AcDbCircle
 62
7
  6
BYLAYER
 10
48.1647262919
 20
-726.5796161348
 40
780.0840258503
100
AcDbArc
 50
89.8020322793
 51
89.9921555502
  0
ARC
  5
29D
100
AcDbEntity
  8
0
100
AcDbCircle
 62
7
  6
BYLAYER
 10
48.3463029849
 20
792.8470410295
 40
763.5879783946
100
AcDbArc
 50
270.0045287888
 51
270.1886198238
  0
ARC
  5
29E
100
AcDbEntity
  8
0
100
AcDbCircle
 62
7
  6
BYLAYER
 10
72.1082137077
 20
499.9867286241
 40
452.3027193534
100
AcDbArc
 50
266.9772694367
 51
267.3074173165
  0
ARC
  5
29F
100
AcDbEntity
  8
0
100
AcDbCircle
 62
7
  6
BYLAYER
 10
3.0341068623
 20
41.4027034525
 40
50.1535083753
100
AcDbArc
 50
358.9045144102
 51
359.9761702298
  0
ARC
  5
2A0
100
AcDbEntity
  8
0
100
AcDbCircle
 62
7
  6
BYLAYER
 10
3.0341068623
 20
41.360984968
 40
50.1535083753
100
AcDbArc
 50
0.0238297702
 51
1.9618016788
  0
ARC
  5
2A1
100
AcDbEntity
  8
0
100
AcDbCircle
 62
7
  6
BYLAYER
 10
3.0341068623
 20
41.360984968
 40
50.1535083753
100
AcDbArc
 50
3.6233018508
 51
5.4038143025
  0
ARC
  5
2A2
100
AcDbEntity
  8
0
100
AcDbCircle
 62
7
  6
BYLAYER
 10
3.0341068623
 20
41.360984968
 40
50.1535083753
100
AcDbArc
 50
2.0426314933
 51
2.0615887075
  0
ARC
  5
2A3
100
AcDbEntity
  8
0
100
AcDbCircle
 62
7
  6
BYLAYER
 10
27.9086360508
 20
42.2407409248
 40
25.2634287651
100
AcDbArc
 50
2.0594328609
 51
8.71993178
  0
ARC
  5
2A4
100
AcDbEntity
  8
0
100
AcDbCircle
 62
7
  6
BYLAYER
 10
27.9827131924
 20
42.2122678214
 40
25.1903931103
100
AcDbArc
 50
2.167914546
 51
8.8079542787
  0
ARC
  5
2A5
100
AcDbEntity
  8
0
100
AcDbCircle
 62
7
  6
BYLAYER
 10
28.080335278
 20
40.5219290088
 40
25.0924787246
100
AcDbArc
 50
1.9638987092
 51
5.8184837635
  0
ARC
  5
2A6
100
AcDbEntity
  8
0
100
AcDbCircle
 62
7
  6
BYLAYER
 10
28.2468309568
 20
40.498352866
 40
24.9244311643
100
AcDbArc
 50
2.0313751406
 51
5.9105935254
  0
ARC
  5
2A7
100
AcDbEntity
  8
0
100
AcDbCircle
 62
7
  6
BYLAYER
 10
28.8699946682
 20
40.537784121
 40
24.3027424025
100
AcDbArc
 50
359.9871086118
 51
1.9903405814
  0
ARC
  5
2A8
100
AcDbEntity
  8
0
100
AcDbCircle
 62
7
  6
BYLAYER
 10
28.8801631841
 20
40.5024497861
 40
24.2913419108
100
AcDbArc
 50
359.861964384
 51
2.074669464
  0
ARC
  5
2A9
100
AcDbEntity
  8
0
100
AcDbCircle
 62
7
  6
BYLAYER
 10
16.0797010518
 20
51.7269770152
 40
19.3693963793
100
AcDbArc
 50
250.1705729974
 51
255.4257269093
  0
ARC
  5
2AA
100
AcDbEntity
  8
0
100
AcDbCircle
 62
7
  6
BYLAYER
 10
15.0101069153
 20
48.9217173613
 40
16.3655189244
100
AcDbArc
 50
245.8160635977
 51
246.3384222882
  0
ARC
  5
2AB
100
AcDbEntity
  8
0
100
AcDbCircle
 62
7
  6
BYLAYER
 10
26.398694078
 20
50.4954472841
 40
11.5353080911
100
AcDbArc
 50
10.7856597512
 51
16.9366393987
  0
ARC
  5
2AC
100
AcDbEntity
  8
0
100
AcDbCircle
 62
7
  6
BYLAYER
 10
18.3295452835
 20
41.0716014817
 40
10.5536116593
100
AcDbArc
 50
163.6121475337
 51
168.0488949659
  0
ARC
  5
2AD
100
AcDbEntity
  8
0
100
AcDbCircle
 62
7
  6
BYLAYER
 10
50.1596305687
 20
51.1854807905
 40
1.3056618682
100
AcDbArc
 50
31.6524814088
 51
32.873333925
  0
ARC
  5
2AE
100
AcDbEntity
  8
0
100
AcDbCircle
 62
7
  6
BYLAYER
 10
50.1644809718
 20
49.4590133383
 40
1.3000389087
100
AcDbArc
 50
31.4162673372
 51
32.8837320741
  0
CIRCLE
  5
2AF
100
AcDbEntity
  8
0
100
AcDbCircle
 62
7
  6
BYLAYER
 10
18.4036866202
 20
43.7808442102
 40
1.25
  0
ARC
  5
2B0
100
AcDbEntity
  8
0
100
AcDbCircle
 62
7
  6
BYLAYER
 10
50.2756982393
 20
49.5253479787
 40
1.1705495087
100
AcDbArc
 50
24.5145533667
 51
31.4829365078
  0
ARC
  5
2B1
100
AcDbEntity
  8
0
100
AcDbCircle
 62
7
  6
BYLAYER
 10
50.3015695707
 20
51.2662156451
 40
1.1421986655
100
AcDbArc
 50
20.0791109926
 51
24.5238591401
  0
ARC
  5
2B2
100
AcDbEntity
  8
0
100
AcDbCircle
 62
7
  6
BYLAYER
 10
50.3040948578
 20
49.5377221193
 40
1.1395784656
100
AcDbArc
 50
20.0871866654
 51
24.5408871966
  0
ARC
  5
2B3
100
AcDbEntity
  8
0
100
AcDbCircle
 62
7
  6
BYLAYER
 10
22.9546866202
 20
30.7558442102
 40
0.25
100
AcDbArc
 50
180.0
 51
270.0
  0
ARC
  5
2B4
100
AcDbEntity
  8
0
100
AcDbCircle
 62
7
  6
BYLAYER
 10
22.9546866202
 20
52.0058442102
 40
0.25
100
AcDbArc
 50
90.0
 51
180.0
  0
ARC
  5
2B5
100
AcDbEntity
  8
0
100
AcDbCircle
 62
7
  6
BYLAYER
 10
11.1073288391
 20
37.9316572011
 40
0.2491886749
100
AcDbArc
 50
90.2095023294
 51
138.2785263788
  0
SPLINE
  5
2B6
100
AcDbEntity
  8
0
100
AcDbSpline
 62
7
  6
BYLAYER
 70
0
 71
3
 72
16
 73
12
 74
0
 42
0.0000001
 43
0.0000001
 44
0.0000000001
 40
0.0
 40
0.0
 40
0.0
 40
0.0
 40
0.0481090068
 40
0.0788642947
 40
0.1150642016
 40
0.2050260519
 40
0.3191727293
 40
0.4569746227
 40
0.6173090484
 40
0.7988601526
 40
1.0
 40
1.0
 40
1.0
 40
1.0
 10
36.8823087579
 20
53.5043902031
 30
0.0
 10
36.8928268395
 20
53.5043925228
 30
0.0
 10
36.9098810705
 20
53.4978318456
 30
0.0
 10
36.9301296104
 20
53.4830502947
 30
0.0
 10
36.9551089046
 20
53.4593418268
 30
0.0
 10
36.9875565959
 20
53.4177902597
 30
0.0
 10
37.0274321473
 20
53.3544875799
 30
0.0
 10
37.0698460491
 20
53.2748740185
 30
0.0
 10
37.1137638485
 20
53.1795908088
 30
0.0
 10
37.1586700908
 20
53.0696634873
 30
0.0
 10
37.1883088785
 20
52.9914160831
 30
0.0
 10
37.2035930527
 20
52.9501824047
 30
0.0
  0
LINE
  5
2B7
100
AcDbEntity
  8
0
100
AcDbLine
 62
7
  6
BYLAYER
 10
37.2035930527
 20
52.9501824047
 11
37.2056506602
 21
52.9446258894
  0
SPLINE
  5
2B8
100
AcDbEntity
  8
0
100
AcDbSpline
 62
7
  6
BYLAYER
 70
0
 71
3
 72
9
 73
5
 74
0
 42
0.0000001
 43
0.0000001
 44
0.0000000001
 40
0.0
 40
0.0
 40
0.0
 40
0.0
 40
0.5008045084
 40
1.0
 40
1.0
 40
1.0
 40
1.0
 10
8.4420735176
 20
33.9320159983
 30
0.0
 10
8.6177507234
 20
33.8549649974
 30
0.0
 10
8.971451028
 20
33.7077183019
 30
0.0
 10
9.3293919664
 20
33.5711325734
 30
0.0
 10
9.5091929098
 20
33.5060566527
 30
0.0
  0
SPLINE
  5
2B9
100
AcDbEntity
  8
0
100
AcDbSpline
 62
7
  6
BYLAYER
 70
0
 71
3
 72
12
 73
8
 74
0
 42
0.0000001
 43
0.0000001
 44
0.0000000001
 40
0.0
 40
0.0
 40
0.0
 40
0.0
 40
0.247509344
 40
0.4964416272
 40
0.7471505886
 40
0.8732901141
 40
1.0
 40
1.0
 40
1.0
 40
1.0
 10
52.8760393509
 20
46.0694971143
 30
0.0
 10
52.8033226581
 20
46.5396988116
 30
0.0
 10
52.6310325127
 20
47.4789312389
 30
0.0
 10
52.2940459314
 20
48.8757864825
 30
0.0
 10
51.9483885866
 20
50.028683535
 30
0.0
 10
51.6332861067
 20
50.9440543484
 30
0.0
 10
51.4627215949
 20
51.399276867
 30
0.0
 10
51.3743437429
 20
51.6262545484
 30
0.0
  0
SPLINE
  5
2BA
100
AcDbEntity
  8
0
100
AcDbSpline
 62
7
  6
BYLAYER
 70
0
 71
3
 72
9
 73
5
 74
0
 42
0.0000001
 43
0.0000001
 44
0.0000000001
 40
0.0
 40
0.0
 40
0.0
 40
0.0
 40
0.4867041436
 40
1.0
 40
1.0
 40
1.0
 40
1.0
 10
52.964710042
 20
46.0841706738
 30
0.0
 10
52.8601784344
 20
47.1889994979
 30
0.0
 10
52.5071730996
 20
49.4472577647
 30
0.0
 10
51.9180465826
 20
51.6543088032
 30
0.0
 10
51.5636655512
 20
52.7697644578
 30
0.0
  0
SPLINE
  5
2BB
100
AcDbEntity
  8
0
100
AcDbSpline
 62
7
  6
BYLAYER
 70
0
 71
3
 72
10
 73
6
 74
0
 42
0.0000001
 43
0.0000001
 44
0.0000000001
 40
0.0
 40
0.0
 40
0.0
 40
0.0
 40
0.4863081049
 40
0.7398329659
 40
1.0
 40
1.0
 40
1.0
 40
1.0
 10
52.9644855035
 20
36.6774369418
 30
0.0
 10
52.857165528
 20
35.5431833762
 30
0.0
 10
52.5859244537
 20
33.8261742106
 30
0.0
 10
52.036053606
 20
31.548287123
 30
0.0
 10
51.6936390954
 20
30.3938365753
 30
0.0
 10
51.5061739136
 20
29.8138637136
 30
0.0
  0
LINE
  5
2BC
100
AcDbEntity
  8
0
100
AcDbLine
 62
7
  6
BYLAYER
 10
8.3046866202
 20
49.5141092373
 11
8.0046866202
 21
49.1731481058
  0
LINE
  5
2BD
100
AcDbEntity
  8
0
100
AcDbLine
 62
7
  6
BYLAYER
 10
50.8600876584
 20
50.2842947063
 11
39.6936857382
 21
50.4918795101
  0
SPLINE
  5
2BE
100
AcDbEntity
  8
0
100
AcDbSpline
 62
7
  6
BYLAYER
 70
0
 71
3
 72
10
 73
6
 74
0
 42
0.0000001
 43
0.0000001
 44
0.0000000001
 40
0.0
 40
0.0
 40
0.0
 40
0.0
 40
0.2687253853
 40
0.5291817277
 40
1.0
 40
1.0
 40
1.0
 40
1.0
 10
50.8600795559
 20
52.0199236512
 30
0.0
 10
50.8990563474
 20
52.0188107031
 30
0.0
 10
50.9758770113
 20
52.0101313906
 30
0.0
 10
51.1154318372
 20
51.9698084602
 30
0.0
 10
51.2095073077
 20
51.9117961199
 30
0.0
 10
51.2562392931
 20
51.8619632976
 30
0.0
  0
SPLINE
  5
2BF
100
AcDbEntity
  8
0
100
AcDbSpline
 62
7
  6
BYLAYER
 70
0
 71
3
 72
9
 73
5
 74
0
 42
0.0000001
 43
0.0000001
 44
0.0000000001
 40
0.0
 40
0.0
 40
0.0
 40
0.0
 40
0.5062497721
 40
1.0
 40
1.0
 40
1.0
 40
1.0
 10
51.2562392931
 20
51.8619632976
 30
0.0
 10
51.2804286751
 20
51.8245400686
 30
0.0
 10
51.324445781
 20
51.7480855645
 30
0.0
 10
51.35942362
 20
51.667073327
 30
0.0
 10
51.3743437429
 20
51.6262545484
 30
0.0
  0
SPLINE
  5
2C0
100
AcDbEntity
  8
0
100
AcDbSpline
 62
7
  6
BYLAYER
 70
0
 71
3
 72
9
 73
5
 74
0
 42
0.0000001
 43
0.0000001
 44
0.0000000001
 40
0.0
 40
0.0
 40
0.0
 40
0.0
 40
0.4569761588
 40
1.0
 40
1.0
 40
1.0
 40
1.0
 10
51.374502921
 20
29.4856452373
 30
0.0
 10
51.3975993796
 20
29.5343308705
 30
0.0
 10
51.4438931055
 20
29.642879016
 30
0.0
 10
51.4849172062
 20
29.7534618875
 30
0.0
 10
51.5061739136
 20
29.8138637136
 30
0.0
  0
SPLINE
  5
2C1
100
AcDbEntity
  8
0
100
AcDbSpline
 62
7
  6
BYLAYER
 70
0
 71
3
 72
9
 73
5
 74
0
 42
0.0000001
 43
0.0000001
 44
0.0000000001
 40
0.0
 40
0.0
 40
0.0
 40
0.0
 40
0.2252058784
 40
1.0
 40
1.0
 40
1.0
 40
1.0
 10
51.256333476
 20
29.322477188
 30
0.0
 10
51.268033841
 20
29.3321798262
 30
0.0
 10
51.3170480806
 20
29.3788133611
 30
0.0
 10
51.353228489
 20
29.4378745705
 30
0.0
 10
51.374502921
 20
29.4856452373
 30
0.0
  0
SPLINE
  5
2C2
100
AcDbEntity
  8
0
100
AcDbSpline
 62
7
  6
BYLAYER
 70
0
 71
3
 72
11
 73
7
 74
0
 42
0.0000001
 43
0.0000001
 44
0.0000000001
 40
0.0
 40
0.0
 40
0.0
 40
0.0
 40
0.3276255156
 40
0.5995841003
 40
0.8194310296
 40
1.0
 40
1.0
 40
1.0
 40
1.0
 10
50.8600582919
 20
29.2632003263
 30
0.0
 10
50.9042004569
 20
29.2634182341
 30
0.0
 10
50.98498742
 20
29.2649485587
 30
0.0
 10
51.0952001767
 20
29.2735313111
 30
0.0
 10
51.1843998709
 20
29.2906238821
 30
0.0
 10
51.2352113415
 20
29.310404249
 30
0.0
 10
51.256333476
 20
29.322477188
 30
0.0
  0
LINE
  5
2C3
100
AcDbEntity
  8
0
100
AcDbLine
 62
7
  6
BYLAYER
 10
50.7936866202
 20
52.0211575654
 11
39.6936854277
 21
52.2274414739
  0
SPLINE
  5
2C4
100
AcDbEntity
  8
0
100
AcDbSpline
 62
7
  6
BYLAYER
 70
0
 71
3
 72
9
 73
5
 74
0
 42
0.0000001
 43
0.0000001
 44
0.0000000001
 40
0.0
 40
0.0
 40
0.0
 40
0.0
 40
0.5062472309
 40
1.0
 40
1.0
 40
1.0
 40
1.0
 10
51.2562411216
 20
50.126278898
 30
0.0
 10
51.2804309775
 20
50.0888422264
 30
0.0
 10
51.3244481974
 20
50.012360886
 30
0.0
 10
51.3594234074
 20
49.9313222563
 30
0.0
 10
51.3743428517
 20
49.8904907683
 30
0.0
  0
SPLINE
  5
2C5
100
AcDbEntity
  8
0
100
AcDbSpline
 62
7
  6
BYLAYER
 70
0
 71
3
 72
10
 73
6
 74
0
 42
0.0000001
 43
0.0000001
 44
0.0000000001
 40
0.0
 40
0.0
 40
0.0
 40
0.0
 40
0.2687336884
 40
0.5291946167
 40
1.0
 40
1.0
 40
1.0
 40
1.0
 10
50.8600876584
 20
50.2842947063
 30
0.0
 10
50.8990673877
 20
50.2831813084
 30
0.0
 10
50.9758928546
 20
50.2744945593
 30
0.0
 10
51.1154506737
 20
50.2341562933
 30
0.0
 10
51.2095167684
 20
50.1761205025
 30
0.0
 10
51.2562411216
 20
50.126278898
 30
0.0
  0
SPLINE
  5
2C6
100
AcDbEntity
  8
0
100
AcDbSpline
 62
7
  6
BYLAYER
 70
0
 71
3
 72
12
 73
8
 74
0
 42
0.0000001
 43
0.0000001
 44
0.0000000001
 40
0.0
 40
0.0
 40
0.0
 40
0.0
 40
0.2472897981
 40
0.4960213885
 40
0.7467407638
 40
0.8730247606
 40
1.0
 40
1.0
 40
1.0
 40
1.0
 10
53.038758154
 20
43.0649821845
 30
0.0
 10
52.9791111912
 20
43.6426818825
 30
0.0
 10
52.8193993473
 20
44.7977073539
 30
0.0
 10
52.461048931
 20
46.5157330889
 30
0.0
 10
52.0644951164
 20
47.9320305627
 30
0.0
 10
51.6895713942
 20
49.0548679275
 30
0.0
 10
51.4825089311
 20
49.6125925527
 30
0.0
 10
51.3743428517
 20
49.8904907683
 30
0.0
  0
SPLINE
  5
2C7
100
AcDbEntity
  8
0
100
AcDbSpline
 62
7
  6
BYLAYER
 70
0
 71
3
 72
10
 73
6
 74
0
 42
0.0000001
 43
0.0000001
 44
0.0000000001
 40
0.0
 40
0.0
 40
0.0
 40
0.0
 40
0.2085091386
 40
0.4463614451
 40
1.0
 40
1.0
 40
1.0
 40
1.0
 10
51.374502921
 20
53.2736220147
 30
0.0
 10
51.3904106056
 20
53.2397433794
 30
0.0
 10
51.4224660393
 20
53.1662766125
 30
0.0
 10
51.4879185056
 20
52.9991080938
 30
0.0
 10
51.5335349907
 20
52.8644650818
 30
0.0
 10
51.5636655512
 20
52.7697644578
 30
0.0
  0
SPLINE
  5
2C8
100
AcDbEntity
  8
0
100
AcDbSpline
 62
7
  6
BYLAYER
 70
0
 71
3
 72
9
 73
5
 74
0
 42
0.0000001
 43
0.0000001
 44
0.0000000001
 40
0.0
 40
0.0
 40
0.0
 40
0.0
 40
0.2250663522
 40
1.0
 40
1.0
 40
1.0
 40
1.0
 10
51.256333476
 20
53.4388835645
 30
0.0
 10
51.2680392474
 20
53.4290049838
 30
0.0
 10
51.3170791558
 20
53.3815894306
 30
0.0
 10
51.3532310587
 20
53.3218803513
 30
0.0
 10
51.374502921
 20
53.2736220147
 30
0.0
  0
SPLINE
  5
2C9
100
AcDbEntity
  8
0
100
AcDbSpline
 62
7
  6
BYLAYER
 70
0
 71
3
 72
11
 73
7
 74
0
 42
0.0000001
 43
0.0000001
 44
0.0000000001
 40
0.0
 40
0.0
 40
0.0
 40
0.0
 40
0.3265111046
 40
0.5983153027
 40
0.8185955024
 40
1.0
 40
1.0
 40
1.0
 40
1.0
 10
50.8600583149
 20
53.4997532707
 30
0.0
 10
50.904088737
 20
53.4995223784
 30
0.0
 10
50.9847758358
 20
53.4978905844
 30
0.0
 10
51.0949506845
 20
53.4889691504
 30
0.0
 10
51.1843001259
 20
53.4713975774
 30
0.0
 10
51.235187632
 20
53.4511835418
 30
0.0
 10
51.256333476
 20
53.4388835645
 30
0.0
  0
LINE
  5
2CA
100
AcDbEntity
  8
0
100
AcDbLine
 62
7
  6
BYLAYER
 10
24.8585138478
 20
48.4358171683
 11
24.8690361442
 21
48.4359176123
  0
SPLINE
  5
2CB
100
AcDbEntity
  8
0
100
AcDbSpline
 62
7
  6
BYLAYER
 70
0
 71
3
 72
14
 73
10
 74
0
 42
0.0000001
 43
0.0000001
 44
0.0000000001
 40
0.0
 40
0.0
 40
0.0
 40
0.0
 40
0.257751249
 40
0.3856619266
 40
0.5126244107
 40
0.6382396912
 40
0.7618964459
 40
0.8827535858
 40
1.0
 40
1.0
 40
1.0
 40
1.0
 10
24.6698465369
 20
37.880594588
 30
0.0
 10
24.4962731879
 20
37.7584127492
 30
0.0
 10
24.2400988443
 20
37.5702984074
 30
0.0
 10
23.9134241223
 20
37.3027397966
 30
0.0
 10
23.680533849
 20
37.0928674663
 30
0.0
 10
23.4643845249
 20
36.8704593018
 30
0.0
 10
23.2733737738
 20
36.6320159376
 30
0.0
 10
23.1214258887
 20
36.3742359466
 30
0.0
 10
23.0600715092
 20
36.1851142622
 30
0.0
 10
23.0446866207
 20
36.0897926466
 30
0.0
  0
SPLINE
  5
2CC
100
AcDbEntity
  8
0
100
AcDbSpline
 62
7
  6
BYLAYER
 70
0
 71
3
 72
14
 73
10
 74
0
 42
0.0000001
 43
0.0000001
 44
0.0000000001
 40
0.0
 40
0.0
 40
0.0
 40
0.0
 40
0.1202517063
 40
0.2419966943
 40
0.3655938289
 40
0.49074865
 40
0.617054932
 40
0.7441785387
 40
1.0
 40
1.0
 40
1.0
 40
1.0
 10
23.0446866207
 20
35.7981976497
 30
0.0
 10
23.0598563003
 20
35.7058755787
 30
0.0
 10
23.120222389
 20
35.5243826715
 30
0.0
 10
23.2726987522
 20
35.2823260736
 30
0.0
 10
23.4640625011
 20
35.0656105587
 30
0.0
 10
23.6803646492
 20
34.8691606566
 30
0.0
 10
23.9133053312
 20
34.6885325522
 30
0.0
 10
24.2398372451
 20
34.4638644723
 30
0.0
 10
24.4961255652
 20
34.3112528048
 30
0.0
 10
24.6698467529
 20
34.2141080117
 30
0.0
  0
SPLINE
  5
2CD
100
AcDbEntity
  8
0
100
AcDbSpline
 62
7
  6
BYLAYER
 70
0
 71
3
 72
9
 73
5
 74
0
 42
0.0000001
 43
0.0000001
 44
0.0000000001
 40
0.0
 40
0.0
 40
0.0
 40
0.0
 40
0.4999957127
 40
1.0
 40
1.0
 40
1.0
 40
1.0
 10
8.2046866202
 20
47.1954809143
 30
0.0
 10
8.4044405235
 20
47.508098987
 30
0.0
 10
8.8173950684
 20
48.1247983702
 30
0.0
 10
9.2502868118
 20
48.7275344762
 30
0.0
 10
9.4704962299
 20
49.0261047594
 30
0.0
  0
SPLINE
  5
2CE
100
AcDbEntity
  8
0
100
AcDbSpline
 62
7
  6
BYLAYER
 70
0
 71
3
 72
13
 73
9
 74
0
 42
0.0000001
 43
0.0000001
 44
0.0000000001
 40
0.0
 40
0.0
 40
0.0
 40
0.0
 40
0.066917209
 40
0.1485235465
 40
0.2465084389
 40
0.3618198367
 40
0.6458966345
 40
1.0
 40
1.0
 40
1.0
 40
1.0
 10
36.8435771785
 20
53.4894217424
 30
0.0
 10
36.8390709086
 20
53.4845299376
 30
0.0
 10
36.8306829281
 20
53.4721938558
 30
0.0
 10
36.8207907618
 20
53.4497000305
 30
0.0
 10
36.8124798727
 20
53.4215256984
 30
0.0
 10
36.803088971
 20
53.3729345124
 30
0.0
 10
36.7972313203
 20
53.29810115
 30
0.0
 10
36.7963139603
 20
53.2346828922
 30
0.0
 10
36.7963062465
 20
53.1994878696
 30
0.0
  0
SPLINE
  5
2CF
100
AcDbEntity
  8
0
100
AcDbSpline
 62
7
  6
BYLAYER
 70
0
 71
3
 72
9
 73
5
 74
0
 42
0.0000001
 43
0.0000001
 44
0.0000000001
 40
0.0
 40
0.0
 40
0.0
 40
0.0
 40
0.50206746
 40
1.0
 40
1.0
 40
1.0
 40
1.0
 10
24.8585138478
 20
37.9398495878
 30
0.0
 10
24.8250607347
 20
37.9398495878
 30
0.0
 10
24.758035404
 20
37.9288526055
 30
0.0
 10
24.6975738105
 20
37.8988141233
 30
0.0
 10
24.6698465369
 20
37.880594588
 30
0.0
  0
SPLINE
  5
2D0
100
AcDbEntity
  8
0
100
AcDbSpline
 62
7
  6
BYLAYER
 70
0
 71
3
 72
9
 73
5
 74
0
 42
0.0000001
 43
0.0000001
 44
0.0000000001
 40
0.0
 40
0.0
 40
0.0
 40
0.0
 40
0.4899365109
 40
1.0
 40
1.0
 40
1.0
 40
1.0
 10
24.6698467529
 20
34.2141080117
 30
0.0
 10
24.6981982192
 20
34.1993084527
 30
0.0
 10
24.7596743029
 20
34.1755140171
 30
0.0
 10
24.825218258
 20
34.1671999424
 30
0.0
 10
24.8585138478
 20
34.1671999424
 30
0.0
  0
LINE
  5
2D1
100
AcDbEntity
  8
0
100
AcDbLine
 62
7
  6
BYLAYER
 10
24.8585138478
 20
34.1671999424
 11
24.8690361442
 21
34.1672987134
  0
LINE
  5
2D2
100
AcDbEntity
  8
0
100
AcDbLine
 62
7
  6
BYLAYER
 10
24.8690361442
 20
37.939724382
 11
24.8585138478
 21
37.9398495878
  0
SPLINE
  5
2D3
100
AcDbEntity
  8
0
100
AcDbSpline
 62
7
  6
BYLAYER
 70
0
 71
3
 72
15
 73
11
 74
0
 42
0.0000001
 43
0.0000001
 44
0.0000000001
 40
0.0
 40
0.0
 40
0.0
 40
0.0
 40
0.2090465822
 40
0.3932585648
 40
0.5519005191
 40
0.6844038285
 40
0.7914252643
 40
0.8752691624
 40
0.9412993855
 40
1.0
 40
1.0
 40
1.0
 40
1.0
 10
36.7963062465
 20
53.1994878696
 30
0.0
 10
36.7963178096
 20
53.2228367544
 30
0.0
 10
36.7973737575
 20
53.2667707875
 30
0.0
 10
36.8021848914
 20
53.3282592446
 30
0.0
 10
36.8095915581
 20
53.3808714643
 30
0.0
 10
36.8189778515
 20
53.4243959239
 30
0.0
 10
36.830425799
 20
53.4587672192
 30
0.0
 10
36.8442251872
 20
53.4841792858
 30
0.0
 10
36.8615632051
 20
53.5007151948
 30
0.0
 10
36.8757523531
 20
53.504388757
 30
0.0
 10
36.8823087579
 20
53.5043902031
 30
0.0
  0
SPLINE
  5
2D4
100
AcDbEntity
  8
0
100
AcDbSpline
 62
7
  6
BYLAYER
 70
0
 71
3
 72
13
 73
9
 74
0
 42
0.0000001
 43
0.0000001
 44
0.0000000001
 40
0.0
 40
0.0
 40
0.0
 40
0.0
 40
0.2640677023
 40
0.394408987
 40
0.5225615636
 40
0.6478893658
 40
0.7697455037
 40
1.0
 40
1.0
 40
1.0
 40
1.0
 10
36.8822631446
 20
48.3134250362
 30
0.0
 10
36.8688839748
 20
48.4010563482
 30
0.0
 10
36.8508738061
 20
48.5322604273
 30
0.0
 10
36.8317339273
 20
48.7066439524
 30
0.0
 10
36.8200752209
 20
48.834969796
 30
0.0
 10
36.8106825137
 20
48.9606251502
 30
0.0
 10
36.8007742531
 20
49.1205854991
 30
0.0
 10
36.7962862052
 20
49.2387772068
 30
0.0
 10
36.7962633992
 20
49.3160729732
 30
0.0
  0
SPLINE
  5
2D5
100
AcDbEntity
  8
0
100
AcDbSpline
 62
7
  6
BYLAYER
 70
0
 71
3
 72
13
 73
9
 74
0
 42
0.0000001
 43
0.0000001
 44
0.0000000001
 40
0.0
 40
0.0
 40
0.0
 40
0.0
 40
0.2302679633
 40
0.3520836522
 40
0.4774032726
 40
0.605581145
 40
0.7359410762
 40
1.0
 40
1.0
 40
1.0
 40
1.0
 10
36.7962633992
 20
49.3160729732
 30
0.0
 10
36.7962747446
 20
49.2388080775
 30
0.0
 10
36.7977088753
 20
49.1206452289
 30
0.0
 10
36.8050967633
 20
48.9606101274
 30
0.0
 10
36.8140464052
 20
48.8349835633
 30
0.0
 10
36.8257227111
 20
48.7067063447
 30
0.0
 10
36.8443821984
 20
48.5323443236
 30
0.0
 10
36.8614652785
 20
48.4010758021
 30
0.0
 10
36.8744219634
 20
48.3134250362
 30
0.0
  0
SPLINE
  5
2D6
100
AcDbEntity
  8
0
100
AcDbSpline
 62
7
  6
BYLAYER
 70
0
 71
3
 72
12
 73
8
 74
0
 42
0.0000001
 43
0.0000001
 44
0.0000000001
 40
0.0
 40
0.0
 40
0.0
 40
0.0
 40
0.1033773932
 40
0.215027145
 40
0.4592828376
 40
0.7242043751
 40
1.0
 40
1.0
 40
1.0
 40
1.0
 10
37.2056506625
 20
47.0082995866
 30
0.0
 10
37.1888256892
 20
47.0515503758
 30
0.0
 10
37.1564453196
 20
47.142533376
 30
0.0
 10
37.0943482715
 20
47.3391530834
 30
0.0
 10
37.0193504418
 20
47.6077084163
 30
0.0
 10
36.9430277566
 20
47.9518799441
 30
0.0
 10
36.9009493763
 20
48.1910333615
 30
0.0
 10
36.8822631446
 20
48.3134250362
 30
0.0
  0
SPLINE
  5
2D7
100
AcDbEntity
  8
0
100
AcDbSpline
 62
7
  6
BYLAYER
 70
0
 71
3
 72
11
 73
7
 74
0
 42
0.0000001
 43
0.0000001
 44
0.0000000001
 40
0.0
 40
0.0
 40
0.0
 40
0.0
 40
0.2756296593
 40
0.5403143818
 40
0.784386044
 40
1.0
 40
1.0
 40
1.0
 40
1.0
 10
36.8744219937
 20
48.3134250362
 30
0.0
 10
36.8925532488
 20
48.1907687856
 30
0.0
 10
36.9334909189
 20
47.9510682636
 30
0.0
 10
37.0100065917
 20
47.6065051886
 30
0.0
 10
37.0968746046
 20
47.2921692771
 30
0.0
 10
37.1687103225
 20
47.0979812218
 30
0.0
 10
37.2056506625
 20
47.0082995866
 30
0.0
  0
SPLINE
  5
2D8
100
AcDbEntity
  8
0
100
AcDbSpline
 62
7
  6
BYLAYER
 70
0
 71
3
 72
11
 73
7
 74
0
 42
0.0000001
 43
0.0000001
 44
0.0000000001
 40
0.0
 40
0.0
 40
0.0
 40
0.0
 40
0.2499891669
 40
0.4984626703
 40
0.7476819356
 40
1.0
 40
1.0
 40
1.0
 40
1.0
 10
37.9340011879
 20
44.6516724239
 30
0.0
 10
37.9339953436
 20
44.8341086652
 30
0.0
 10
37.9140093105
 20
45.1982426826
 30
0.0
 10
37.820692592
 20
45.7371058933
 30
0.0
 10
37.6632449914
 20
46.2626345247
 30
0.0
 10
37.5167869801
 20
46.5991559498
 30
0.0
 10
37.433686912
 20
46.7634738657
 30
0.0
  0
SPLINE
  5
2D9
100
AcDbEntity
  8
0
100
AcDbSpline
 62
7
  6
BYLAYER
 70
0
 71
3
 72
15
 73
11
 74
0
 42
0.0000001
 43
0.0000001
 44
0.0000000001
 40
0.0
 40
0.0
 40
0.0
 40
0.0
 40
0.1387535785
 40
0.275137717
 40
0.4084592429
 40
0.5379661123
 40
0.6625832099
 40
0.7813122402
 40
0.8935135785
 40
1.0
 40
1.0
 40
1.0
 40
1.0
 10
24.0416682537
 20
50.8522901905
 30
0.0
 10
23.9858001497
 20
50.8281106784
 30
0.0
 10
23.8757732997
 20
50.7783897086
 30
0.0
 10
23.715343005
 20
50.6984129796
 30
0.0
 10
23.5625727944
 20
50.6125724808
 30
0.0
 10
23.4197654388
 20
50.5200878544
 30
0.0
 10
23.2903990422
 20
50.4195592087
 30
0.0
 10
23.1788389354
 20
50.3097648195
 30
0.0
 10
23.0919787558
 20
50.1887950992
 30
0.0
 10
23.0553182306
 20
50.0985754577
 30
0.0
 10
23.0446866207
 20
50.053081899
 30
0.0
  0
SPLINE
  5
2DA
100
AcDbEntity
  8
0
100
AcDbSpline
 62
7
  6
BYLAYER
 70
0
 71
3
 72
36
 73
32
 74
0
 42
0.0000001
 43
0.0000001
 44
0.0000000001
 40
0.0
 40
0.0
 40
0.0
 40
0.0
 40
0.0033579063
 40
0.0069774722
 40
0.0107233191
 40
0.0145271848
 40
0.0222022324
 40
0.0299299993
 40
0.0376853755
 40
0.0454572174
 40
0.0610309904
 40
0.0766284365
 40
0.0922402394
 40
0.1078616449
 40
0.1234894016
 40
0.1547581224
 40
0.1860387346
 40
0.2173268085
 40
0.2486201033
 40
0.2799170939
 40
0.3112168374
 40
0.3425187059
 40
0.3738222219
 40
0.4364327856
 40
0.4990467088
 40
0.5616629061
 40
0.6242806486
 40
0.6868994379
 40
0.7495189337
 40
0.8747590981
 40
1.0
 40
1.0
 40
1.0
 40
1.0
 10
37.9588889176
 20
49.3160729732
 30
0.0
 10
37.9593057742
 20
49.3044567863
 30
0.0
 10
37.9724731463
 20
49.2816546124
 30
0.0
 10
38.0014031724
 20
49.2585863698
 30
0.0
 10
38.0353240021
 20
49.2396159887
 30
0.0
 10
38.0835439745
 20
49.218358573
 30
0.0
 10
38.1460697241
 20
49.1955248143
 30
0.0
 10
38.2228798276
 20
49.1725125455
 30
0.0
 10
38.3007583974
 20
49.1520950685
 30
0.0
 10
38.4055360586
 20
49.1273218846
 30
0.0
 10
38.5376003814
 20
49.1001606381
 30
0.0
 10
38.6969056937
 20
49.0710141601
 30
0.0
 10
38.856845484
 20
49.0445454009
 30
0.0
 10
39.0172264962
 20
49.0202151821
 30
0.0
 10
39.2314703664
 20
48.9896510955
 30
0.0
 10
39.4998395587
 20
48.9547678207
 30
0.0
 10
39.8224273253
 20
48.9166668268
 30
0.0
 10
40.1454019505
 20
48.8812188942
 30
0.0
 10
40.4686789739
 20
48.8480939201
 30
0.0
 10
40.7921714062
 20
48.8167309111
 30
0.0
 10
41.115837205
 20
48.786888116
 30
0.0
 10
41.439647766
 20
48.7584030514
 30
0.0
 10
41.8715626302
 20
48.7220041849
 30
0.0
 10
42.4116893718
 20
48.6789845552
 30
0.0
 10
43.0600998477
 20
48.6304062872
 30
0.0
 10
43.7087343992
 20
48.584566958
 30
0.0
 10
44.3575462276
 20
48.5410648989
 30
0.0
 10
45.0064997231
 20
48.4995556688
 30
0.0
 10
45.8719198265
 20
48.4463831689
 30
0.0
 10
46.9539138175
 20
48.3833921384
 30
0.0
 10
47.8196946422
 20
48.3362658334
 30
0.0
 10
48.2526240361
 20
48.3134250362
 30
0.0
  0
SPLINE
  5
2DB
100
AcDbEntity
  8
0
100
AcDbSpline
 62
7
  6
BYLAYER
 70
0
 71
3
 72
39
 73
35
 74
0
 42
0.0000001
 43
0.0000001
 44
0.0000000001
 40
0.0
 40
0.0
 40
0.0
 40
0.0
 40
0.1258393513
 40
0.2516520779
 40
0.3145458701
 40
0.3774293144
 40
0.4403003819
 40
0.5031563457
 40
0.5659934174
 40
0.6288060841
 40
0.6602008084
 40
0.6915859138
 40
0.7229594513
 40
0.7543187891
 40
0.7856602512
 40
0.8169784554
 40
0.8482650717
 40
0.8638925537
 40
0.8795062043
 40
0.8951023357
 40
0.9106755247
 40
0.9262173148
 40
0.9417133929
 40
0.9494367557
 40
0.9571367274
 40
0.9648044467
 40
0.9724248343
 40
0.9799690623
 40
0.9873709388
 40
0.9909682819
 40
0.9944226311
 40
0.9960539057
 40
0.9975726746
 40
1.0
 40
1.0
 40
1.0
 40
1.0
 10
48.2715287479
 20
53.5044024042
 30
0.0
 10
47.8382744339
 20
53.5044023688
 30
0.0
 10
46.971857167
 20
53.5035363793
 30
0.0
 10
45.8889070165
 20
53.4998417413
 30
0.0
 10
45.0227175004
 20
53.4949291037
 30
0.0
 10
44.3732345879
 20
53.4901317368
 30
0.0
 10
43.72389249
 20
53.4840586873
 30
0.0
 10
43.0747254501
 20
53.476499707
 30
0.0
 10
42.4257822155
 20
53.4671778006
 30
0.0
 10
41.8851742988
 20
53.4576260582
 30
0.0
 10
41.4528629534
 20
53.4486396101
 30
0.0
 10
41.1287873937
 20
53.4411330147
 30
0.0
 10
40.8048552447
 20
53.4327436133
 30
0.0
 10
40.4811016323
 20
53.4233217539
 30
0.0
 10
40.1575763996
 20
53.4126708002
 30
0.0
 10
39.8343542624
 20
53.4005192502
 30
0.0
 10
39.5652588911
 20
53.3888195193
 30
0.0
 10
39.350241962
 20
53.3782129782
 30
0.0
 10
39.189218616
 20
53.3695269136
 30
0.0
 10
39.0284318893
 20
53.3599650606
 30
0.0
 10
38.8679597771
 20
53.3493315741
 30
0.0
 10
38.7079279838
 20
53.3373437023
 30
0.0
 10
38.5749663618
 20
53.3258619154
 30
0.0
 10
38.4690266514
 20
53.3154076241
 30
0.0
 10
38.3899920516
 20
53.3067962861
 30
0.0
 10
38.3114273417
 20
53.2971996814
 30
0.0
 10
38.2335684934
 20
53.2863151069
 30
0.0
 10
38.1569102636
 20
53.2736110448
 30
0.0
 10
38.0943439759
 20
53.2607463248
 30
0.0
 10
38.0462579946
 20
53.2477789697
 30
0.0
 10
38.0179598023
 20
53.2382096019
 30
0.0
 10
37.9971300384
 20
53.2286524278
 30
0.0
 10
37.9809379502
 20
53.2192396779
 30
0.0
 10
37.9698103101
 20
53.2078298132
 30
0.0
 10
37.9693075989
 20
53.1994878696
 30
0.0
  0
LINE
  5
2DC
100
AcDbEntity
  8
0
100
AcDbLine
 62
7
  6
BYLAYER
 10
39.6936857382
 20
52.2597349003
 11
50.7942855801
 21
52.0533753321
  0
SPLINE
  5
2DD
100
AcDbEntity
  8
0
100
AcDbSpline
 62
7
  6
BYLAYER
 70
0
 71
3
 72
14
 73
10
 74
0
 42
0.0000001
 43
0.0000001
 44
0.0000000001
 40
0.0
 40
0.0
 40
0.0
 40
0.0
 40
0.4092326515
 40
0.5821884878
 40
0.7284484267
 40
0.8453951962
 40
0.9305969598
 40
0.9824779154
 40
1.0
 40
1.0
 40
1.0
 40
1.0
 10
17.2802190546
 20
51.8772839467
 30
0.0
 10
17.2562563413
 20
51.8775693081
 30
0.0
 10
17.2220842647
 20
51.8780993593
 30
0.0
 10
17.1796273648
 20
51.8789439173
 30
0.0
 10
17.1536681606
 20
51.8795540618
 30
0.0
 10
17.1344080461
 20
51.8799950234
 30
0.0
 10
17.1168965808
 20
51.88056025
 30
0.0
 10
17.1125654703
 20
51.8805110094
 30
0.0
 10
17.1035576507
 20
51.8809426787
 30
0.0
 10
17.1045788361
 20
51.88084255
 30
0.0
  0
SPLINE
  5
2DE
100
AcDbEntity
  8
0
100
AcDbSpline
 62
7
  6
BYLAYER
 70
0
 71
3
 72
12
 73
8
 74
0
 42
0.0000001
 43
0.0000001
 44
0.0000000001
 40
0.0
 40
0.0
 40
0.0
 40
0.0
 40
0.0973801812
 40
0.2068701543
 40
0.4531629789
 40
0.7223830857
 40
1.0
 40
1.0
 40
1.0
 40
1.0
 10
9.6046866202
 20
49.3288867527
 30
0.0
 10
9.6046866202
 20
49.317992768
 30
0.0
 10
9.6025282868
 20
49.2948441091
 30
0.0
 10
9.59151536
 20
49.245269047
 30
0.0
 10
9.5658457585
 20
49.1798253064
 30
0.0
 10
9.5232637983
 20
49.1018451233
 30
0.0
 10
9.4889219319
 20
49.0510991316
 30
0.0
 10
9.4704874487
 20
49.0261047594
 30
0.0
  0
SPLINE
  5
2DF
100
AcDbEntity
  8
0
100
AcDbSpline
 62
7
  6
BYLAYER
 70
0
 71
3
 72
12
 73
8
 74
0
 42
0.0000001
 43
0.0000001
 44
0.0000000001
 40
0.0
 40
0.0
 40
0.0
 40
0.0
 40
0.1269675902
 40
0.2532458715
 40
0.5039601195
 40
0.7526958231
 40
1.0
 40
1.0
 40
1.0
 40
1.0
 10
51.3875908973
 20
49.8950491998
 30
0.0
 10
51.4954528657
 20
49.6169736507
 30
0.0
 10
51.7018535627
 20
49.0588812436
 30
0.0
 10
52.0754730835
 20
47.9353494461
 30
0.0
 10
52.47030966
 20
46.5182120465
 30
0.0
 10
52.8264861385
 20
44.7992613604
 30
0.0
 10
52.9846700619
 20
43.6436919183
 30
0.0
 10
53.0435389585
 20
43.0657353207
 30
0.0
  0
SPLINE
  5
2E0
100
AcDbEntity
  8
0
100
AcDbSpline
 62
7
  6
BYLAYER
 70
0
 71
3
 72
9
 73
5
 74
0
 42
0.0000001
 43
0.0000001
 44
0.0000000001
 40
0.0
 40
0.0
 40
0.0
 40
0.0
 40
0.2396805744
 40
1.0
 40
1.0
 40
1.0
 40
1.0
 10
51.256219916
 20
50.1648513097
 30
0.0
 10
51.2488467309
 20
50.1727138043
 30
0.0
 10
51.2166409393
 20
50.2041552172
 30
0.0
 10
51.1793342385
 20
50.2301893686
 30
0.0
 10
51.1495013226
 20
50.2468968764
 30
0.0
  0
SPLINE
  5
2E1
100
AcDbEntity
  8
0
100
AcDbSpline
 62
7
  6
BYLAYER
 70
0
 71
3
 72
9
 73
5
 74
0
 42
0.0000001
 43
0.0000001
 44
0.0000000001
 40
0.0
 40
0.0
 40
0.0
 40
0.0
 40
0.2394540787
 40
1.0
 40
1.0
 40
1.0
 40
1.0
 10
51.1495013226
 20
50.2468968764
 30
0.0
 10
51.1285421878
 20
50.2586347471
 30
0.0
 10
51.0376172552
 20
50.3015017416
 30
0.0
 10
50.9362334006
 20
50.3206050499
 30
0.0
 10
50.8599661983
 20
50.3227828123
 30
0.0
  0
SPLINE
  5
2E2
100
AcDbEntity
  8
0
100
AcDbSpline
 62
7
  6
BYLAYER
 70
0
 71
3
 72
9
 73
5
 74
0
 42
0.0000001
 43
0.0000001
 44
0.0000000001
 40
0.0
 40
0.0
 40
0.0
 40
0.0
 40
0.489295403
 40
1.0
 40
1.0
 40
1.0
 40
1.0
 10
52.9645257007
 20
41.3818442643
 30
0.0
 10
53.0433318583
 20
40.6176833372
 30
0.0
 10
53.1192063272
 20
39.0462830604
 30
0.0
 10
53.0400148562
 20
37.4756987487
 30
0.0
 10
52.9644855035
 20
36.6774369418
 30
0.0
  0
SPLINE
  5
2E3
100
AcDbEntity
  8
0
100
AcDbSpline
 62
7
  6
BYLAYER
 70
0
 71
3
 72
11
 73
7
 74
0
 42
0.0000001
 43
0.0000001
 44
0.0000000001
 40
0.0
 40
0.0
 40
0.0
 40
0.0
 40
0.2528222103
 40
0.5035328025
 40
0.7524739472
 40
1.0
 40
1.0
 40
1.0
 40
1.0
 10
51.3853701793
 20
51.6299812724
 30
0.0
 10
51.5611818215
 20
51.1768549469
 30
0.0
 10
51.8878880071
 20
50.2650629224
 30
0.0
 10
52.3016741314
 20
48.8781906383
 30
0.0
 10
52.6369074421
 20
47.4807316008
 30
0.0
 10
52.8079575613
 20
46.541158991
 30
0.0
 10
52.880050075
 20
46.070795049
 30
0.0
  0
LINE
  5
2E4
100
AcDbEntity
  8
0
100
AcDbLine
 62
7
  6
BYLAYER
 10
39.6936857382
 20
50.530300358
 11
50.8599661983
 21
50.3227828123
  0
SPLINE
  5
2E5
100
AcDbEntity
  8
0
100
AcDbSpline
 62
7
  6
BYLAYER
 70
0
 71
3
 72
11
 73
7
 74
0
 42
0.0000001
 43
0.0000001
 44
0.0000000001
 40
0.0
 40
0.0
 40
0.0
 40
0.0
 40
0.242454404
 40
0.489277873
 40
0.741501754
 40
1.0
 40
1.0
 40
1.0
 40
1.0
 10
51.563543616
 20
46.8620775655
 30
0.0
 10
51.7465286788
 20
46.4412973277
 30
0.0
 10
52.0807779971
 20
45.5764779986
 30
0.0
 10
52.4806471917
 20
44.2299104338
 30
0.0
 10
52.7817545076
 20
42.826868524
 30
0.0
 10
52.9143408681
 20
41.868472297
 30
0.0
 10
52.9645257007
 20
41.3818442643
 30
0.0
  0
SPLINE
  5
2E6
100
AcDbEntity
  8
0
100
AcDbSpline
 62
7
  6
BYLAYER
 70
0
 71
3
 72
12
 73
8
 74
0
 42
0.0000001
 43
0.0000001
 44
0.0000000001
 40
0.0
 40
0.0
 40
0.0
 40
0.0
 40
0.2467664833
 40
0.4966183391
 40
0.6224728893
 40
0.7485637099
 40
1.0
 40
1.0
 40
1.0
 40
1.0
 10
51.256333476
 20
47.8315000294
 30
0.0
 10
51.2368050413
 20
47.8724413569
 30
0.0
 10
51.1915860753
 20
47.9521487479
 30
0.0
 10
51.1197355867
 20
48.042064335
 30
0.0
 10
51.0511824955
 20
48.1041898141
 30
0.0
 10
50.9748190446
 20
48.1565730045
 30
0.0
 10
50.9064233275
 20
48.180011203
 30
0.0
 10
50.8603266987
 20
48.1833673793
 30
0.0
  0
SPLINE
  5
2E7
100
AcDbEntity
  8
0
100
AcDbSpline
 62
7
  6
BYLAYER
 70
0
 71
3
 72
9
 73
5
 74
0
 42
0.0000001
 43
0.0000001
 44
0.0000000001
 40
0.0
 40
0.0
 40
0.0
 40
0.0
 40
0.48801475
 40
1.0
 40
1.0
 40
1.0
 40
1.0
 10
51.374502921
 20
47.4309279901
 30
0.0
 10
51.3581667458
 20
47.4968845265
 30
0.0
 10
51.3207751209
 20
47.6310701793
 30
0.0
 10
51.2785980204
 20
47.7637790039
 30
0.0
 10
51.256333476
 20
47.8315000294
 30
0.0
  0
SPLINE
  5
2E8
100
AcDbEntity
  8
0
100
AcDbSpline
 62
7
  6
BYLAYER
 70
0
 71
3
 72
9
 73
5
 74
0
 42
0.0000001
 43
0.0000001
 44
0.0000000001
 40
0.0
 40
0.0
 40
0.0
 40
0.0
 40
0.4580934596
 40
1.0
 40
1.0
 40
1.0
 40
1.0
 10
51.563543616
 20
46.8620775655
 30
0.0
 10
51.5271446934
 20
46.9461282645
 30
0.0
 10
51.4581078745
 20
47.1340998475
 30
0.0
 10
51.4021445229
 20
47.3261614106
 30
0.0
 10
51.374502921
 20
47.4309279901
 30
0.0
  0
SPLINE
  5
2E9
100
AcDbEntity
  8
0
100
AcDbSpline
 62
7
  6
BYLAYER
 70
0
 71
3
 72
15
 73
11
 74
0
 42
0.0000001
 43
0.0000001
 44
0.0000000001
 40
0.0
 40
0.0
 40
0.0
 40
0.0
 40
0.1008912228
 40
0.1556560576
 40
0.2129778467
 40
0.3337191719
 40
0.4605832633
 40
0.5916693489
 40
0.7257393953
 40
1.0
 40
1.0
 40
1.0
 40
1.0
 10
23.0446866207
 20
49.8457856369
 30
0.0
 10
23.0606264813
 20
49.774820223
 30
0.0
 10
23.1086719325
 20
49.670508283
 30
0.0
 10
23.1970656298
 20
49.5450453303
 30
0.0
 10
23.3067583545
 20
49.4176154384
 30
0.0
 10
23.4678431778
 20
49.2672910912
 30
0.0
 10
23.6829904458
 20
49.0989433394
 30
0.0
 10
23.915208864
 20
48.9376820167
 30
0.0
 10
24.2429962921
 20
48.7283454088
 30
0.0
 10
24.4975594762
 20
48.5802837228
 30
0.0
 10
24.6698467529
 20
48.4832824235
 30
0.0
  0
SPLINE
  5
2EA
100
AcDbEntity
  8
0
100
AcDbSpline
 62
7
  6
BYLAYER
 70
0
 71
3
 72
9
 73
5
 74
0
 42
0.0000001
 43
0.0000001
 44
0.0000000001
 40
0.0
 40
0.0
 40
0.0
 40
0.0
 40
0.2396800336
 40
1.0
 40
1.0
 40
1.0
 40
1.0
 10
51.2562201612
 20
51.8941726697
 30
0.0
 10
51.2488469127
 20
51.9020377551
 30
0.0
 10
51.2166403288
 20
51.9334900437
 30
0.0
 10
51.1793305186
 20
51.9595344877
 30
0.0
 10
51.1494941329
 20
51.9762485589
 30
0.0
  0
SPLINE
  5
2EB
100
AcDbEntity
  8
0
100
AcDbSpline
 62
7
  6
BYLAYER
 70
0
 71
3
 72
9
 73
5
 74
0
 42
0.0000001
 43
0.0000001
 44
0.0000000001
 40
0.0
 40
0.0
 40
0.0
 40
0.0
 40
0.2394502407
 40
1.0
 40
1.0
 40
1.0
 40
1.0
 10
51.1494941329
 20
51.9762485589
 30
0.0
 10
51.1285368049
 20
51.9879886629
 30
0.0
 10
51.0376171588
 20
52.0308658746
 30
0.0
 10
50.9362334393
 20
52.0499757903
 30
0.0
 10
50.8599661889
 20
52.0521542306
 30
0.0
  0
SPLINE
  5
2EC
100
AcDbEntity
  8
0
100
AcDbSpline
 62
7
  6
BYLAYER
 70
0
 71
3
 72
9
 73
5
 74
0
 42
0.0000001
 43
0.0000001
 44
0.0000000001
 40
0.0
 40
0.0
 40
0.0
 40
0.0
 40
0.247364767
 40
1.0
 40
1.0
 40
1.0
 40
1.0
 10
51.3407287872
 20
51.7403104818
 30
0.0
 10
51.3356731857
 20
51.7514026872
 30
0.0
 10
51.314540951
 20
51.7959255483
 30
0.0
 10
51.2905316564
 20
51.8390737655
 30
0.0
 10
51.2710708205
 20
51.8706475443
 30
0.0
  0
SPLINE
  5
2ED
100
AcDbEntity
  8
0
100
AcDbSpline
 62
7
  6
BYLAYER
 70
0
 71
3
 72
9
 73
5
 74
0
 42
0.0000001
 43
0.0000001
 44
0.0000000001
 40
0.0
 40
0.0
 40
0.0
 40
0.0
 40
0.4902142876
 40
1.0
 40
1.0
 40
1.0
 40
1.0
 10
24.6698467529
 20
48.4832824235
 30
0.0
 10
24.6981951558
 20
48.4683833433
 30
0.0
 10
24.7596092942
 20
48.4443017702
 30
0.0
 10
24.8252100486
 20
48.4358171683
 30
0.0
 10
24.8585138478
 20
48.4358171683
 30
0.0
  0
ELLIPSE
  5
2EE
100
AcDbEntity
  8
0
100
AcDbEllipse
 62
7
  6
BYLAYER
 10
33.6869461791
 20
42.0902389026
 30
0.0
 11
38.165221805
 21
-10.8244984526
 31
0.0
 40
0.2460158605
 41
1.4828005802
 42
1.5263335151
  0
ELLIPSE
  5
2EF
100
AcDbEntity
  8
0
100
AcDbEllipse
 62
7
  6
BYLAYER
 10
33.8247229706
 20
40.6736277178
 30
0.0
 11
38.1556211395
 21
10.8217764989
 31
0.0
 40
0.2460158779
 41
1.3470817139
 42
1.3892890774
  0
ELLIPSE
  5
2F0
100
AcDbEntity
  8
0
100
AcDbEllipse
 62
7
  6
BYLAYER
 10
33.6907358925
 20
40.6734544179
 30
0.0
 11
38.1649578147
 21
10.8244235791
 31
0.0
 40
0.2460158605
 41
7.6267598574
 42
7.670292504
  0
ELLIPSE
  5
2F1
100
AcDbEntity
  8
0
100
AcDbEllipse
 62
7
  6
BYLAYER
 10
16.6747502428
 20
41.3808442102
 30
0.0
 11
23.2519159813
 21
0.0
 31
0.0
 40
0.4515756899
 41
1.3791491318
 42
1.5447538597
  0
ELLIPSE
  5
2F2
100
AcDbEntity
  8
0
100
AcDbEllipse
 62
7
  6
BYLAYER
 10
33.8209332576
 20
42.0900656027
 30
0.0
 11
38.1558851298
 21
-10.8218513724
 31
0.0
 40
0.2460158779
 41
1.4863077645
 42
1.5285154036
  0
ENDSEC
  0
SECTION
  2
OBJECTS
  0
DICTIONARY
  5
C
100
AcDbDictionary
280
0
281
1
  3
ACAD_GROUP
350
D
  3
ACAD_MLINESTYLE
350
17
  3
ACAD_LAYOUT
350
1A
  3
ACAD_PLOTSETTINGS
350
19
  3
ACAD_PLOTSTYLENAME
350
E
  0
DICTIONARY
  5
D
102
{ACAD_REACTORS
330
C
102
}
100
AcDbDictionary
280
0
281
1
  0
ACDBDICTIONARYWDFLT
  5
E
102
{ACAD_REACTORS
330
C
102
}
100
AcDbDictionary
281
1
  3
Normal
350
F
100
AcDbDictionaryWithDefault
340
F
  0
DICTIONARY
  5
17
102
{ACAD_REACTORS
330
C
102
}
100
AcDbDictionary
280
0
281
1
  3
Standard
350
18
  0
DICTIONARY
  5
19
102
{ACAD_REACTORS
330
C
102
}
100
AcDbDictionary
281
1
  0
DICTIONARY
  5
1A
102
{ACAD_REACTORS
330
C
102
}
100
AcDbDictionary
281
1
  3
Model
350
2F3
  3
Layout1
350
2F4
  0
ACDBPLACEHOLDER
  5
F
102
{ACAD_REACTORS
330
E
102
}
  0
MLINESTYLE
  5
18
102
{ACAD_REACTORS
330
17
102
}
100
AcDbMlineStyle
  2
STANDARD
 70
0
  3

 62
256
 51
90.0
 52
90.0
 71
2
 49
0.5
 62
256
  6
BYLAYER
 49
-0.5
 62
256
  6
BYLAYER
  0
LAYOUT
  5
2F3
102
{ACAD_REACTORS
330
1A
102
}
100
AcDbPlotSettings
  1

  2
none_device
  4

  6

 40
0.0
 41
0.0
 42
0.0
 43
0.0
 44
210.0
 45
297.0
 46
0.0
 47
0.0
 48
0.0
 49
0.0
140
0.0
141
0.0
142
1.0
143
1.0
 70
1024
 72
1
 73
0
 74
0
  7

 75
0
147
1.0
148
0.0
149
0.0
100
AcDbLayout
  1
Model
 70
0
 71
0
 10
0.0
 20
0.0
 11
210.0
 21
297.0
 12
0.0
 22
0.0
 32
0.0
 14
0.0
 24
0.0
 34
0.0
 15
0.0
 25
0.0
 35
0.0
146
0.0
 13
0.0
 23
0.0
 33
0.0
 16
1.0
 26
0.0
 36
0.0
 17
0.0
 27
1.0
 37
0.0
 76
0
330
210
345
0
346
0
  0
LAYOUT
  5
2F4
102
{ACAD_REACTORS
330
1A
102
}
100
AcDbPlotSettings
  1

  2
none_device
  4

  6

 40
0.0
 41
0.0
 42
0.0
 43
0.0
 44
210.0
 45
297.0
 46
0.0
 47
0.0
 48
0.0
 49
0.0
140
0.0
141
0.0
142
1.0
143
1.0
 70
0
 72
1
 73
0
 74
0
  7

 75
0
147
1.0
148
0.0
149
0.0
100
AcDbLayout
  1
Layout1
 70
0
 71
1
 10
0.0
 20
0.0
 11
210.0
 21
297.0
 12
0.0
 22
0.0
 32
0.0
 14
0.0
 24
0.0
 34
0.0
 15
0.0
 25
0.0
 35
0.0
146
0.0
 13
0.0
 23
0.0
 33
0.0
 16
1.0
 26
0.0
 36
0.0
 17
0.0
 27
1.0
 37
0.0
 76
0
330
211
345
0
346
0
  0
ENDSEC
  0
EOF
