999
DXF file: C:\Users\sesa63760\Dev\_Creo\CAD\MCADID0004243_3D-CAD\drw0001_5.dxf
999
Pro/ENGINEER 2019471 by Parametric Technology Corporation
  0
SECTION
  2
HEADER
  9
$ACADVER
  1
AC1024
  9
$DWGCODEPAGE
  3
ANSI_1252
  9
$EXTMAX
 10
837.1260576742
 20
1183.935424425
 30
0.0
  9
$EXTMIN
 10
0.0
 20
0.0
 30
0.0
  9
$LIMMIN
 10
0.0
 20
0.0
  9
$LIMMAX
 10
837.1260576742
 20
1183.935424425
  9
$VIEWCTR
 10
418.5630288371
 20
591.9677122125
  9
$VIEWSIZE
 40
1183.935424425
  9
$CLAYER
  8
0
  9
$LTSCALE
 40
77.1750498884
  9
$CELTYPE
  6
BYLAYER
  9
$DIMSCALE
 40
1.0
  9
$DIMASZ
 40
9.9657864009
  9
$DIMEXO
 40
1.0
  9
$DIMDLI
 40
53.3209435593
  9
$DIMEXE
 40
1.0
  9
$DIMCEN
 40
12.6286445272
  9
$DIMLFAC
 40
1.0
  9
$DIMBLK
  1
_FILLED
  9
$DIMALT
 70
0
  9
$DIMALTF
 40
0.0393700787
  9
$DIMTXT
 40
13.9521009612
  9
$DIMTOL
 70
1
  9
$DIMLIM
 70
0
  9
$DIMTFAC
 40
1.0
  9
$DIMTP
 40
0.01
  9
$DIMTM
 40
0.01
  9
$DIMGAP
 40
0.625
  9
$DIMDSEP
 70
46
  9
$AUNITS
 70
0
  9
$PDMODE
 70
3
  9
$PDSIZE
 40
0.3125
  9
$HANDSEED
  5
367
  9
$TILEMODE
 70
1
  9
$MEASUREMENT
 70
1
  9
$INSUNITS
 70
4
  0
ENDSEC
  0
SECTION
  2
CLASSES
  0
CLASS
  1
ACDBDICTIONARYWDFLT
  2
AcDbDictionaryWithDefault
  3
AutoCAD 2000
 90
0
 91
1
280
0
281
0
  0
CLASS
  1
ACDBPLACEHOLDER
  2
AcDbPlaceHolder
  3
AutoCAD 2000
 90
0
 91
1
280
0
281
0
  0
CLASS
  1
LAYOUT
  2
AcDbLayout
  3
AutoCAD 2000
 90
0
 91
0
280
0
281
0
  0
ENDSEC
  0
SECTION
  2
TABLES
  0
TABLE
  2
VPORT
  5
8
100
AcDbSymbolTable
 70
2
  0
VPORT
  5
1F4
100
AcDbSymbolTableRecord
100
AcDbViewportTableRecord
  2
*ACTIVE
 70
0
 10
0.0
 20
0.0
 11
1.0
 21
1.0
 12
418.5630288371
 22
591.9677122125
 13
0.0
 23
0.0
 14
1.0
 24
1.0
 15
0.0
 25
0.0
 16
0.0
 26
0.0
 36
1.0
 17
0.0
 27
0.0
 37
0.0
 40
1183.935424425
 41
0.7070707071
 42
50.0
 43
0.0
 44
0.0
 50
0.0
 51
0.0
 71
0
 72
100
 73
1
 74
1
 75
0
 76
0
 77
0
 78
0
  0
ENDTAB
  0
TABLE
  2
LTYPE
  5
5
100
AcDbSymbolTable
 70
6
  0
LTYPE
  5
14
100
AcDbSymbolTableRecord
100
AcDbLinetypeTableRecord
  2
BYBLOCK
 70
0
  3

 72
65
 73
0
 40
0.0
  0
LTYPE
  5
15
100
AcDbSymbolTableRecord
100
AcDbLinetypeTableRecord
  2
BYLAYER
 70
0
  3

 72
65
 73
0
 40
0.0
  0
LTYPE
  5
16
100
AcDbSymbolTableRecord
100
AcDbLinetypeTableRecord
  2
CONTINUOUS
 70
64
  3
Solid line
 72
65
 73
0
 40
0.0
  0
LTYPE
  5
1F5
100
AcDbSymbolTableRecord
100
AcDbLinetypeTableRecord
  2
CENTER
 70
64
  3
____ _ ____ _ ____ _ ____ _ ____ _ ____ _ ____
 72
65
 73
4
 40
0.6
 49
0.375
 74
0
 49
-0.075
 74
0
 49
0.075
 74
0
 49
-0.075
 74
0
  0
LTYPE
  5
1F6
100
AcDbSymbolTableRecord
100
AcDbLinetypeTableRecord
  2
HIDDEN
 70
64
  3
- - - - - - - - - - - - - - - - - - - -
 72
65
 73
2
 40
0.2
 49
0.1
 74
0
 49
-0.1
 74
0
  0
LTYPE
  5
1F7
100
AcDbSymbolTableRecord
100
AcDbLinetypeTableRecord
  2
PHANTOM
 70
64
  3
_____ _ _ _____ _ _ _____ _ _ _____
 72
65
 73
6
 40
0.8
 49
0.45
 74
0
 49
-0.05
 74
0
 49
0.1
 74
0
 49
-0.05
 74
0
 49
0.1
 74
0
 49
-0.05
 74
0
  0
LTYPE
  5
1F8
100
AcDbSymbolTableRecord
100
AcDbLinetypeTableRecord
  2
DOT
 70
64
  3
. . . . . . . . . . . . . . . . . . . .
 72
65
 73
2
 40
0.2
 49
0.1
 74
0
 49
-0.1
 74
0
  0
LTYPE
  5
1F9
100
AcDbSymbolTableRecord
100
AcDbLinetypeTableRecord
  2
DASHED
 70
64
  3
- - - - - - - - - - - - - - - - - - - -
 72
65
 73
2
 40
0.2
 49
0.1
 74
0
 49
-0.1
 74
0
  0
ENDTAB
  0
TABLE
  2
LAYER
  5
2
100
AcDbSymbolTable
 70
36
  0
LAYER
  5
10
100
AcDbSymbolTableRecord
100
AcDbLayerTableRecord
  2
0
 70
0
 62
7
  6
CONTINUOUS
370
-3
390
F
  0
LAYER
  5
1FA
100
AcDbSymbolTableRecord
100
AcDbLayerTableRecord
  2
DEFAULT_1
 70
0
 62
7
  6
CENTER
370
-3
390
F
  0
LAYER
  5
1FB
100
AcDbSymbolTableRecord
100
AcDbLayerTableRecord
  2
DEFAULT_2
 70
0
 62
7
  6
HIDDEN
370
-3
390
F
  0
LAYER
  5
1FC
100
AcDbSymbolTableRecord
100
AcDbLayerTableRecord
  2
DEFAULT_3
 70
0
 62
7
  6
PHANTOM
370
-3
390
F
  0
LAYER
  5
1FD
100
AcDbSymbolTableRecord
100
AcDbLayerTableRecord
  2
00_COMPONENTS
 70
0
 62
7
  6
CONTINUOUS
370
-3
390
F
  0
LAYER
  5
1FE
100
AcDbSymbolTableRecord
100
AcDbLayerTableRecord
  2
01_1_DEFAULT_DATUMS
 70
0
 62
7
  6
CONTINUOUS
370
-3
390
F
  0
LAYER
  5
1FF
100
AcDbSymbolTableRecord
100
AcDbLayerTableRecord
  2
01_PLANES
 70
0
 62
7
  6
CONTINUOUS
370
-3
390
F
  0
LAYER
  5
200
100
AcDbSymbolTableRecord
100
AcDbLayerTableRecord
  2
02_COORD_SYS
 70
0
 62
7
  6
CONTINUOUS
370
-3
390
F
  0
LAYER
  5
201
100
AcDbSymbolTableRecord
100
AcDbLayerTableRecord
  2
03_AXES
 70
0
 62
7
  6
CONTINUOUS
370
-3
390
F
  0
LAYER
  5
202
100
AcDbSymbolTableRecord
100
AcDbLayerTableRecord
  2
04_POINTS
 70
0
 62
7
  6
CONTINUOUS
370
-3
390
F
  0
LAYER
  5
203
100
AcDbSymbolTableRecord
100
AcDbLayerTableRecord
  2
05_CURVES
 70
0
 62
7
  6
CONTINUOUS
370
-3
390
F
  0
LAYER
  5
204
100
AcDbSymbolTableRecord
100
AcDbLayerTableRecord
  2
06_SURFS
 70
0
 62
7
  6
CONTINUOUS
370
-3
390
F
  0
LAYER
  5
205
100
AcDbSymbolTableRecord
100
AcDbLayerTableRecord
  2
07_COSMETICS
 70
0
 62
7
  6
CONTINUOUS
370
-3
390
F
  0
LAYER
  5
206
100
AcDbSymbolTableRecord
100
AcDbLayerTableRecord
  2
10_NOTES
 70
0
 62
7
  6
CONTINUOUS
370
-3
390
F
  0
LAYER
  5
207
100
AcDbSymbolTableRecord
100
AcDbLayerTableRecord
  2
11_NOTES_PUB
 70
0
 62
7
  6
CONTINUOUS
370
-3
390
F
  0
LAYER
  5
208
100
AcDbSymbolTableRecord
100
AcDbLayerTableRecord
  2
13_REF_GTOL
 70
0
 62
7
  6
CONTINUOUS
370
-3
390
F
  0
LAYER
  5
209
100
AcDbSymbolTableRecord
100
AcDbLayerTableRecord
  2
16_MISC
 70
0
 62
7
  6
CONTINUOUS
370
-3
390
F
  0
LAYER
  5
20A
100
AcDbSymbolTableRecord
100
AcDbLayerTableRecord
  2
17_NO_PRINT
 70
0
 62
7
  6
CONTINUOUS
370
-3
390
F
  0
LAYER
  5
20B
100
AcDbSymbolTableRecord
100
AcDbLayerTableRecord
  2
18_DATUM_CAMS_JOINTS
 70
0
 62
7
  6
CONTINUOUS
370
-3
390
F
  0
LAYER
  5
20C
100
AcDbSymbolTableRecord
100
AcDbLayerTableRecord
  2
19_DATUM_FUNCTIONAL
 70
0
 62
7
  6
CONTINUOUS
370
-3
390
F
  0
LAYER
  5
20D
100
AcDbSymbolTableRecord
100
AcDbLayerTableRecord
  2
20_DATUM_KINEMATIC_SCHEME
 70
0
 62
7
  6
CONTINUOUS
370
-3
390
F
  0
LAYER
  5
20E
100
AcDbSymbolTableRecord
100
AcDbLayerTableRecord
  2
3
 70
0
 62
7
  6
CONTINUOUS
370
-3
390
F
  0
LAYER
  5
20F
100
AcDbSymbolTableRecord
100
AcDbLayerTableRecord
  2
4
 70
0
 62
7
  6
CONTINUOUS
370
-3
390
F
  0
ENDTAB
  0
TABLE
  2
STYLE
  5
3
100
AcDbSymbolTable
 70
1
  0
STYLE
  5
11
100
AcDbSymbolTableRecord
100
AcDbTextStyleTableRecord
  2
STANDARD
 70
0
 40
0.0
 41
1.0
 50
0.0
 71
0
 42
0.2
  3
ARIAL.TTF
  4

  0
STYLE
  5
210
100
AcDbSymbolTableRecord
100
AcDbTextStyleTableRecord
  2
TEXTSTYLE_1
 70
0
 40
0.0
 41
0.8
 50
0.0
 71
0
 42
0.2
  3
gdt
  4

  0
ENDTAB
  0
TABLE
  2
VIEW
  5
6
100
AcDbSymbolTable
 70
0
  0
ENDTAB
  0
TABLE
  2
UCS
  5
7
100
AcDbSymbolTable
 70
0
  0
ENDTAB
  0
TABLE
  2
APPID
  5
9
100
AcDbSymbolTable
 70
1
  0
APPID
  5
211
100
AcDbSymbolTableRecord
100
AcDbRegAppTableRecord
  2
ACAD
 70
0
  0
ENDTAB
  0
TABLE
  2
BLOCK_RECORD
  5
1
100
AcDbSymbolTable
 70
0
  0
BLOCK_RECORD
  5
212
100
AcDbSymbolTableRecord
100
AcDbBlockTableRecord
  2
*Model_Space
  0
BLOCK_RECORD
  5
213
100
AcDbSymbolTableRecord
100
AcDbBlockTableRecord
  2
*Paper_Space
  0
BLOCK_RECORD
  5
214
100
AcDbSymbolTableRecord
100
AcDbBlockTableRecord
  2
_FILLED
  0
ENDTAB
  0
TABLE
  2
DIMSTYLE
  5
A
100
AcDbSymbolTable
 70
1
100
AcDbDimStyleTable
 71
0
  0
DIMSTYLE
105
215
100
AcDbSymbolTableRecord
100
AcDbDimStyleTableRecord
  2
STANDARD
 70
0
  3

  4

 40
1.0
 41
9.9657864009
 42
1.0
 43
0.38
 44
1.0
 45
0.0
 46
0.0
 47
0.01
 48
0.01
140
13.9521009612
141
0.09
142
0.0
143
25.4
144
1.0
145
0.0
146
1.0
147
0.625
 71
1
 72
0
 73
0
 74
0
 75
0
 76
0
 77
1
 78
8
 79
2
170
0
171
1
172
0
173
0
174
0
175
0
176
0
177
0
178
0
270
2
179
2
271
2
272
2
273
2
274
2
275
0
280
0
281
0
282
0
283
1
284
8
285
0
286
0
287
3
288
0
340
11
278
46
341
214
342
214
343
214
344
214
  0
ENDTAB
  0
ENDSEC
  0
SECTION
  2
BLOCKS
  0
BLOCK
  5
20
100
AcDbEntity
  8
0
100
AcDbBlockBegin
  2
*Model_Space
 70
0
 10
0.0
 20
0.0
 30
0.0
  3
*Model_Space
  1

  0
ENDBLK
  5
21
100
AcDbEntity
  8
0
100
AcDbBlockEnd
  0
BLOCK
  5
1C
100
AcDbEntity
  8
0
100
AcDbBlockBegin
  2
*Paper_Space
 70
0
 10
0.0
 20
0.0
 30
0.0
  3
*Paper_Space
  1

  0
ENDBLK
  5
1D
100
AcDbEntity
  8
0
100
AcDbBlockEnd
  0
BLOCK
  5
216
100
AcDbEntity
  8
0
100
AcDbBlockBegin
  2
_FILLED
 70
64
 10
0.0
 20
0.0
  3
_FILLED
  1

  0
SOLID
  5
217
100
AcDbEntity
  8
0
  6
BYBLOCK
 62
0
100
AcDbTrace
 10
0.0
 20
0.0
 11
-1.0
 21
0.25
 12
-1.0
 22
-0.25
 13
-1.0
 23
-0.25
  0
ENDBLK
  5
218
100
AcDbEntity
  8
0
  6
BYBLOCK
 62
0
100
AcDbBlockEnd
  0
ENDSEC
  0
SECTION
  2
ENTITIES
  0
LINE
  5
219
100
AcDbEntity
  8
0
100
AcDbLine
 62
7
  6
BYLAYER
 10
474.576907104
 20
96.3668368718
 11
469.9770838017
 21
96.3668368718
  0
LINE
  5
21A
100
AcDbEntity
  8
0
100
AcDbLine
 62
7
  6
BYLAYER
 10
434.5768952308
 20
96.3668368718
 11
429.9770719285
 21
96.3668368718
  0
LINE
  5
21B
100
AcDbEntity
  8
0
100
AcDbLine
 62
7
  6
BYLAYER
 10
481.7764924134
 20
96.4667267333
 11
474.9497853636
 21
96.4667267333
  0
LINE
  5
21C
100
AcDbEntity
  8
0
100
AcDbLine
 62
7
  6
BYLAYER
 10
428.7764924134
 20
96.4667267333
 11
429.6041851684
 21
96.4667267333
  0
LINE
  5
21D
100
AcDbEntity
  8
0
100
AcDbLine
 62
7
  6
BYLAYER
 10
434.9497734904
 20
96.4667267333
 11
469.6041970416
 21
96.4667267333
  0
LINE
  5
21E
100
AcDbEntity
  8
0
100
AcDbLine
 62
7
  6
BYLAYER
 10
459.4179405934
 20
96.9667267333
 11
451.1360087592
 21
96.9667267333
  0
LINE
  5
21F
100
AcDbEntity
  8
0
100
AcDbLine
 62
7
  6
BYLAYER
 10
475.5769912026
 20
97.3668368718
 11
468.9769912026
 21
97.3668368718
  0
LINE
  5
220
100
AcDbEntity
  8
0
100
AcDbLine
 62
7
  6
BYLAYER
 10
435.5769793294
 20
97.3668368718
 11
428.9769793294
 21
97.3668368718
  0
LINE
  5
221
100
AcDbEntity
  8
0
100
AcDbLine
 62
7
  6
BYLAYER
 10
482.7764924134
 20
97.4667267333
 11
475.5769912026
 21
97.4667267333
  0
LINE
  5
222
100
AcDbEntity
  8
0
100
AcDbLine
 62
7
  6
BYLAYER
 10
468.9769912026
 20
97.4667267333
 11
459.2764924134
 21
97.46672674
  0
LINE
  5
223
100
AcDbEntity
  8
0
100
AcDbLine
 62
7
  6
BYLAYER
 10
451.2764924134
 20
97.4667267334
 11
435.5769793294
 21
97.4667267333
  0
LINE
  5
224
100
AcDbEntity
  8
0
100
AcDbLine
 62
7
  6
BYLAYER
 10
428.9769793294
 20
97.4667267333
 11
427.7764924134
 21
97.4667267333
  0
LINE
  5
225
100
AcDbEntity
  8
0
100
AcDbLine
 62
7
  6
BYLAYER
 10
427.7764924134
 20
98.4667266644
 11
428.9769793294
 21
98.4667267333
  0
LINE
  5
226
100
AcDbEntity
  8
0
100
AcDbLine
 62
7
  6
BYLAYER
 10
435.5769793294
 20
98.4667267333
 11
436.7764924134
 21
98.4667266643
  0
LINE
  5
227
100
AcDbEntity
  8
0
100
AcDbLine
 62
7
  6
BYLAYER
 10
467.7764924134
 20
98.4667266644
 11
468.9769912026
 21
98.4667267333
  0
LINE
  5
228
100
AcDbEntity
  8
0
100
AcDbLine
 62
7
  6
BYLAYER
 10
475.5769912026
 20
98.4667267333
 11
476.1888076222
 21
98.4667267333
  0
LINE
  5
229
100
AcDbEntity
  8
0
100
AcDbLine
 62
7
  6
BYLAYER
 10
428.2764924134
 20
98.9667267333
 11
435.2764924134
 21
98.9667267333
  0
LINE
  5
22A
100
AcDbEntity
  8
0
100
AcDbLine
 62
7
  6
BYLAYER
 10
469.2764924134
 20
98.9667267333
 11
475.8262459058
 21
98.9667267333
  0
LINE
  5
22B
100
AcDbEntity
  8
0
100
AcDbLine
 62
7
  6
BYLAYER
 10
477.6885741052
 20
99.4667267333
 11
469.2764924134
 21
99.4667267333
  0
LINE
  5
22C
100
AcDbEntity
  8
0
100
AcDbLine
 62
7
  6
BYLAYER
 10
435.2764924134
 20
99.4667267333
 11
427.7764924134
 21
99.4667267333
  0
LINE
  5
22D
100
AcDbEntity
  8
0
100
AcDbLine
 62
7
  6
BYLAYER
 10
427.7764924134
 20
113.9667267333
 11
451.2764924134
 21
113.9667267333
  0
LINE
  5
22E
100
AcDbEntity
  8
0
100
AcDbLine
 62
7
  6
BYLAYER
 10
451.2769912026
 20
113.9667267333
 11
482.7764924134
 21
113.9667267333
  0
LINE
  5
22F
100
AcDbEntity
  8
3
100
AcDbLine
 62
7
  6
BYLAYER
 10
427.7769738877
 20
113.9668496803
 11
482.7769912026
 21
113.9668496803
  0
LINE
  5
230
100
AcDbEntity
  8
3
100
AcDbLine
 62
7
  6
BYLAYER
 10
382.5350723355
 20
141.315011995
 11
427.5350723355
 21
141.315011995
  0
LINE
  5
231
100
AcDbEntity
  8
3
100
AcDbLine
 62
7
  6
BYLAYER
 10
423.1983576516
 20
144.962511995
 11
424.4429569135
 21
144.962511995
  0
LINE
  5
232
100
AcDbEntity
  8
3
100
AcDbLine
 62
7
  6
BYLAYER
 10
427.5350723355
 20
146.315011995
 11
424.5350723355
 21
146.315011995
  0
LINE
  5
233
100
AcDbEntity
  8
3
100
AcDbLine
 62
7
  6
BYLAYER
 10
423.0948727177
 20
146.6384748146
 11
420.0948727177
 21
146.6384748146
  0
LINE
  5
234
100
AcDbEntity
  8
3
100
AcDbLine
 62
7
  6
BYLAYER
 10
385.7350723355
 20
148.065011995
 11
399.2350723355
 21
148.065011995
  0
LINE
  5
235
100
AcDbEntity
  8
3
100
AcDbLine
 62
7
  6
BYLAYER
 10
415.8244173103
 20
148.315011995
 11
420.0948727177
 21
148.315011995
  0
LINE
  5
236
100
AcDbEntity
  8
3
100
AcDbLine
 62
7
  6
BYLAYER
 10
423.0948727177
 20
148.315011995
 11
423.1983576516
 21
148.315011995
  0
LINE
  5
237
100
AcDbEntity
  8
3
100
AcDbLine
 62
7
  6
BYLAYER
 10
424.4429569135
 20
148.315011995
 11
424.5350723355
 21
148.315011995
  0
LINE
  5
238
100
AcDbEntity
  8
3
100
AcDbLine
 62
7
  6
BYLAYER
 10
427.5350723355
 20
148.315011995
 11
427.7769738877
 21
148.315011995
  0
LINE
  5
239
100
AcDbEntity
  8
3
100
AcDbLine
 62
7
  6
BYLAYER
 10
423.0948727177
 20
151.315011995
 11
420.0948727177
 21
151.315011995
  0
LINE
  5
23A
100
AcDbEntity
  8
3
100
AcDbLine
 62
7
  6
BYLAYER
 10
415.8244173103
 20
154.315011995
 11
420.0948727177
 21
154.315011995
  0
LINE
  5
23B
100
AcDbEntity
  8
3
100
AcDbLine
 62
7
  6
BYLAYER
 10
423.0948727177
 20
154.315011995
 11
423.1983576516
 21
154.315011995
  0
LINE
  5
23C
100
AcDbEntity
  8
3
100
AcDbLine
 62
7
  6
BYLAYER
 10
424.4429569135
 20
154.315011995
 11
424.5350723355
 21
154.315011995
  0
LINE
  5
23D
100
AcDbEntity
  8
3
100
AcDbLine
 62
7
  6
BYLAYER
 10
427.5350723355
 20
154.315011995
 11
427.7769738877
 21
154.315011995
  0
LINE
  5
23E
100
AcDbEntity
  8
3
100
AcDbLine
 62
7
  6
BYLAYER
 10
399.2350723355
 20
154.565011995
 11
385.7350723355
 21
154.565011995
  0
LINE
  5
23F
100
AcDbEntity
  8
3
100
AcDbLine
 62
7
  6
BYLAYER
 10
423.0948727177
 20
155.9915491755
 11
420.0948727177
 21
155.9915491755
  0
LINE
  5
240
100
AcDbEntity
  8
3
100
AcDbLine
 62
7
  6
BYLAYER
 10
424.4429569135
 20
157.667511995
 11
423.1983576516
 21
157.667511995
  0
LINE
  5
241
100
AcDbEntity
  8
3
100
AcDbLine
 62
7
  6
BYLAYER
 10
423.1983576516
 20
174.962511995
 11
424.4429569135
 21
174.962511995
  0
LINE
  5
242
100
AcDbEntity
  8
3
100
AcDbLine
 62
7
  6
BYLAYER
 10
423.0948727177
 20
176.6384748146
 11
420.0948727177
 21
176.6384748146
  0
LINE
  5
243
100
AcDbEntity
  8
3
100
AcDbLine
 62
7
  6
BYLAYER
 10
385.7350723355
 20
178.065011995
 11
399.2350723355
 21
178.065011995
  0
LINE
  5
244
100
AcDbEntity
  8
3
100
AcDbLine
 62
7
  6
BYLAYER
 10
415.8244173103
 20
178.315011995
 11
420.0948727177
 21
178.315011995
  0
LINE
  5
245
100
AcDbEntity
  8
3
100
AcDbLine
 62
7
  6
BYLAYER
 10
423.0948727177
 20
178.315011995
 11
423.1983576516
 21
178.315011995
  0
LINE
  5
246
100
AcDbEntity
  8
3
100
AcDbLine
 62
7
  6
BYLAYER
 10
424.4429569135
 20
178.315011995
 11
424.5350723355
 21
178.315011995
  0
LINE
  5
247
100
AcDbEntity
  8
3
100
AcDbLine
 62
7
  6
BYLAYER
 10
427.5350723355
 20
178.315011995
 11
427.7769738877
 21
178.315011995
  0
LINE
  5
248
100
AcDbEntity
  8
3
100
AcDbLine
 62
7
  6
BYLAYER
 10
423.0948727177
 20
181.315011995
 11
420.0948727177
 21
181.315011995
  0
LINE
  5
249
100
AcDbEntity
  8
3
100
AcDbLine
 62
7
  6
BYLAYER
 10
415.8244173103
 20
184.315011995
 11
420.0948727177
 21
184.315011995
  0
LINE
  5
24A
100
AcDbEntity
  8
3
100
AcDbLine
 62
7
  6
BYLAYER
 10
423.0948727177
 20
184.315011995
 11
423.1983576516
 21
184.315011995
  0
LINE
  5
24B
100
AcDbEntity
  8
3
100
AcDbLine
 62
7
  6
BYLAYER
 10
424.4429569135
 20
184.315011995
 11
424.5350723355
 21
184.315011995
  0
LINE
  5
24C
100
AcDbEntity
  8
3
100
AcDbLine
 62
7
  6
BYLAYER
 10
427.5350723355
 20
184.315011995
 11
427.7769738877
 21
184.315011995
  0
LINE
  5
24D
100
AcDbEntity
  8
3
100
AcDbLine
 62
7
  6
BYLAYER
 10
399.2350723355
 20
184.565011995
 11
385.7350723355
 21
184.565011995
  0
LINE
  5
24E
100
AcDbEntity
  8
3
100
AcDbLine
 62
7
  6
BYLAYER
 10
423.0948727177
 20
185.9915491755
 11
420.0948727177
 21
185.9915491755
  0
LINE
  5
24F
100
AcDbEntity
  8
3
100
AcDbLine
 62
7
  6
BYLAYER
 10
424.5350723355
 20
186.315011995
 11
427.5350723355
 21
186.315011995
  0
LINE
  5
250
100
AcDbEntity
  8
3
100
AcDbLine
 62
7
  6
BYLAYER
 10
424.4429569135
 20
187.667511995
 11
423.1983576516
 21
187.667511995
  0
LINE
  5
251
100
AcDbEntity
  8
3
100
AcDbLine
 62
7
  6
BYLAYER
 10
382.5350723355
 20
191.315011995
 11
427.5350723355
 21
191.315011995
  0
LINE
  5
252
100
AcDbEntity
  8
0
100
AcDbLine
 62
7
  6
BYLAYER
 10
435.5267331505
 20
1085.9668368718
 11
436.0267331505
 21
1086.4668368718
  0
LINE
  5
253
100
AcDbEntity
  8
0
100
AcDbLine
 62
7
  6
BYLAYER
 10
459.7767316026
 20
1089.9668374823
 11
460.2767325863
 21
1090.4668382862
  0
LINE
  5
254
100
AcDbEntity
  8
0
100
AcDbLine
 62
7
  6
BYLAYER
 10
458.0267331505
 20
1085.9668368718
 11
458.5267331505
 21
1086.4668368718
  0
LINE
  5
255
100
AcDbEntity
  8
3
100
AcDbLine
 62
7
  6
BYLAYER
 10
377.5350723355
 20
1032.6499144559
 11
377.5350723355
 21
992.6499144559
  0
LINE
  5
256
100
AcDbEntity
  8
3
100
AcDbLine
 62
7
  6
BYLAYER
 10
377.5350723355
 20
186.315011995
 11
377.5350723355
 21
146.315011995
  0
LINE
  5
257
100
AcDbEntity
  8
3
100
AcDbLine
 62
7
  6
BYLAYER
 10
415.8244173103
 20
148.315134971
 11
415.8244173103
 21
154.3148890191
  0
LINE
  5
258
100
AcDbEntity
  8
3
100
AcDbLine
 62
7
  6
BYLAYER
 10
415.8244173103
 20
178.315134971
 11
415.8244173103
 21
184.3148890191
  0
LINE
  5
259
100
AcDbEntity
  8
3
100
AcDbLine
 62
7
  6
BYLAYER
 10
415.8244173103
 20
994.6500374318
 11
415.8244173103
 21
1000.6497914799
  0
LINE
  5
25A
100
AcDbEntity
  8
3
100
AcDbLine
 62
7
  6
BYLAYER
 10
415.8244173103
 20
1024.6500374318
 11
415.8244173103
 21
1030.6497914799
  0
LINE
  5
25B
100
AcDbEntity
  8
3
100
AcDbLine
 62
7
  6
BYLAYER
 10
420.0948727177
 20
146.6384748146
 11
420.0948727177
 21
155.9915491755
  0
LINE
  5
25C
100
AcDbEntity
  8
3
100
AcDbLine
 62
7
  6
BYLAYER
 10
420.0948727177
 20
176.6384748146
 11
420.0948727177
 21
185.9915491755
  0
LINE
  5
25D
100
AcDbEntity
  8
3
100
AcDbLine
 62
7
  6
BYLAYER
 10
420.0948727177
 20
992.9733772754
 11
420.0948727177
 21
1002.3264516363
  0
LINE
  5
25E
100
AcDbEntity
  8
3
100
AcDbLine
 62
7
  6
BYLAYER
 10
420.0948727177
 20
1022.9733772754
 11
420.0948727177
 21
1032.3264516363
  0
LINE
  5
25F
100
AcDbEntity
  8
3
100
AcDbLine
 62
7
  6
BYLAYER
 10
420.5350723355
 20
1037.6499144559
 11
420.5350723355
 21
1032.3264516363
  0
LINE
  5
260
100
AcDbEntity
  8
3
100
AcDbLine
 62
7
  6
BYLAYER
 10
420.5350723355
 20
1022.9733772754
 11
420.5350723355
 21
1002.3264516363
  0
LINE
  5
261
100
AcDbEntity
  8
3
100
AcDbLine
 62
7
  6
BYLAYER
 10
420.5350723355
 20
992.9733772754
 11
420.5350723355
 21
987.6499144559
  0
LINE
  5
262
100
AcDbEntity
  8
3
100
AcDbLine
 62
7
  6
BYLAYER
 10
420.5350723355
 20
191.315011995
 11
420.5350723355
 21
185.9915491755
  0
LINE
  5
263
100
AcDbEntity
  8
3
100
AcDbLine
 62
7
  6
BYLAYER
 10
420.5350723355
 20
176.6384748146
 11
420.5350723355
 21
155.9915491755
  0
LINE
  5
264
100
AcDbEntity
  8
3
100
AcDbLine
 62
7
  6
BYLAYER
 10
420.5350723355
 20
146.6384748146
 11
420.5350723355
 21
141.315011995
  0
LINE
  5
265
100
AcDbEntity
  8
3
100
AcDbLine
 62
7
  6
BYLAYER
 10
423.0948727177
 20
1032.3264516363
 11
423.0948727177
 21
1022.9733772754
  0
LINE
  5
266
100
AcDbEntity
  8
3
100
AcDbLine
 62
7
  6
BYLAYER
 10
423.0948727177
 20
1002.3264516363
 11
423.0948727177
 21
992.9733772754
  0
LINE
  5
267
100
AcDbEntity
  8
3
100
AcDbLine
 62
7
  6
BYLAYER
 10
423.0948727177
 20
185.9915491755
 11
423.0948727177
 21
176.6384748146
  0
LINE
  5
268
100
AcDbEntity
  8
3
100
AcDbLine
 62
7
  6
BYLAYER
 10
423.0948727177
 20
155.9915491755
 11
423.0948727177
 21
146.6384748146
  0
LINE
  5
269
100
AcDbEntity
  8
3
100
AcDbLine
 62
7
  6
BYLAYER
 10
423.1983576516
 20
144.962511995
 11
423.1983576516
 21
157.667511995
  0
LINE
  5
26A
100
AcDbEntity
  8
3
100
AcDbLine
 62
7
  6
BYLAYER
 10
423.1983576516
 20
174.962511995
 11
423.1983576516
 21
187.667511995
  0
LINE
  5
26B
100
AcDbEntity
  8
3
100
AcDbLine
 62
7
  6
BYLAYER
 10
423.1983576516
 20
991.2974144559
 11
423.1983576516
 21
1004.0024144559
  0
LINE
  5
26C
100
AcDbEntity
  8
3
100
AcDbLine
 62
7
  6
BYLAYER
 10
423.1983576516
 20
1021.2974144559
 11
423.1983576516
 21
1034.0024144559
  0
LINE
  5
26D
100
AcDbEntity
  8
3
100
AcDbLine
 62
7
  6
BYLAYER
 10
424.4429569135
 20
1034.0024144559
 11
424.4429569135
 21
1021.2974144559
  0
LINE
  5
26E
100
AcDbEntity
  8
3
100
AcDbLine
 62
7
  6
BYLAYER
 10
424.4429569135
 20
1004.0024144559
 11
424.4429569135
 21
991.2974144559
  0
LINE
  5
26F
100
AcDbEntity
  8
3
100
AcDbLine
 62
7
  6
BYLAYER
 10
424.4429569135
 20
187.667511995
 11
424.4429569135
 21
174.962511995
  0
LINE
  5
270
100
AcDbEntity
  8
3
100
AcDbLine
 62
7
  6
BYLAYER
 10
424.4429569135
 20
157.667511995
 11
424.4429569135
 21
144.962511995
  0
LINE
  5
271
100
AcDbEntity
  8
3
100
AcDbLine
 62
7
  6
BYLAYER
 10
424.5350723355
 20
141.315011995
 11
424.5350723355
 21
191.315011995
  0
LINE
  5
272
100
AcDbEntity
  8
3
100
AcDbLine
 62
7
  6
BYLAYER
 10
424.5350723355
 20
987.6499144559
 11
424.5350723355
 21
1037.6499144559
  0
LINE
  5
273
100
AcDbEntity
  8
3
100
AcDbLine
 62
7
  6
BYLAYER
 10
427.5350723355
 20
1037.6499144559
 11
427.5350723355
 21
987.6499144559
  0
LINE
  5
274
100
AcDbEntity
  8
3
100
AcDbLine
 62
7
  6
BYLAYER
 10
427.5350723355
 20
191.315011995
 11
427.5350723355
 21
141.315011995
  0
LINE
  5
275
100
AcDbEntity
  8
0
100
AcDbLine
 62
7
  6
BYLAYER
 10
427.7764924134
 20
97.4667267333
 11
427.7764924134
 21
113.9667267333
  0
LINE
  5
276
100
AcDbEntity
  8
0
100
AcDbLine
 62
7
  6
BYLAYER
 10
427.7767331505
 20
1076.9668368718
 11
427.7767331505
 21
1062.4668368718
  0
LINE
  5
277
100
AcDbEntity
  8
0
100
AcDbLine
 62
7
  6
BYLAYER
 10
427.7767331505
 20
1078.9668368718
 11
427.7767331505
 21
1076.9788269179
  0
LINE
  5
278
100
AcDbEntity
  8
3
100
AcDbLine
 62
7
  6
BYLAYER
 10
427.7769738877
 20
1062.4668496803
 11
427.7769738877
 21
113.9668496803
  0
LINE
  5
279
100
AcDbEntity
  8
0
100
AcDbLine
 62
7
  6
BYLAYER
 10
428.7764924134
 20
96.4667267333
 11
428.7764924117
 21
98.4667267333
  0
LINE
  5
27A
100
AcDbEntity
  8
0
100
AcDbLine
 62
7
  6
BYLAYER
 10
428.7767331488
 20
1077.9668368718
 11
428.7767331505
 21
1079.9668368718
  0
LINE
  5
27B
100
AcDbEntity
  8
0
100
AcDbLine
 62
7
  6
BYLAYER
 10
428.9767331505
 20
1077.4668368718
 11
428.9767331505
 21
1079.0668368718
  0
LINE
  5
27C
100
AcDbEntity
  8
0
100
AcDbLine
 62
7
  6
BYLAYER
 10
428.9769793294
 20
98.9668368718
 11
428.9769793294
 21
97.3668368718
  0
LINE
  5
27D
100
AcDbEntity
  8
0
100
AcDbLine
 62
7
  6
BYLAYER
 10
431.7764924134
 20
98.9667267333
 11
431.7764924134
 21
113.9667267333
  0
LINE
  5
27E
100
AcDbEntity
  8
0
100
AcDbLine
 62
7
  6
BYLAYER
 10
431.7767331505
 20
1062.4668368718
 11
431.7767331505
 21
1077.4668368718
  0
LINE
  5
27F
100
AcDbEntity
  8
3
100
AcDbLine
 62
7
  6
BYLAYER
 10
431.7769738877
 20
113.9668496803
 11
431.7769738877
 21
1062.4668496803
  0
LINE
  5
280
100
AcDbEntity
  8
0
100
AcDbLine
 62
7
  6
BYLAYER
 10
435.2764923408
 20
99.4667267333
 11
435.2764923408
 21
98.9667267333
  0
LINE
  5
281
100
AcDbEntity
  8
0
100
AcDbLine
 62
7
  6
BYLAYER
 10
435.2767330777
 20
1077.4668368718
 11
435.2767330777
 21
1076.9668368718
  0
LINE
  5
282
100
AcDbEntity
  8
0
100
AcDbLine
 62
7
  6
BYLAYER
 10
435.5267331505
 20
1079.9668368718
 11
435.5267331505
 21
1085.9668368718
  0
LINE
  5
283
100
AcDbEntity
  8
0
100
AcDbLine
 62
7
  6
BYLAYER
 10
435.5767331505
 20
1077.5710193066
 11
435.5767331505
 21
1079.0668368718
  0
LINE
  5
284
100
AcDbEntity
  8
0
100
AcDbLine
 62
7
  6
BYLAYER
 10
435.5769793294
 20
98.8646409406
 11
435.5769793294
 21
97.3668368718
  0
LINE
  5
285
100
AcDbEntity
  8
0
100
AcDbLine
 62
7
  6
BYLAYER
 10
435.7764924134
 20
98.4667267333
 11
435.7764924134
 21
97.4667267333
  0
LINE
  5
286
100
AcDbEntity
  8
0
100
AcDbLine
 62
7
  6
BYLAYER
 10
435.7767331505
 20
1078.9668368718
 11
435.7767331505
 21
1077.9668368718
  0
LINE
  5
287
100
AcDbEntity
  8
0
100
AcDbLine
 62
7
  6
BYLAYER
 10
436.7764924134
 20
96.4667267333
 11
436.7764924134
 21
98.4667267333
  0
LINE
  5
288
100
AcDbEntity
  8
0
100
AcDbLine
 62
7
  6
BYLAYER
 10
436.7767331505
 20
1077.9668368718
 11
436.7767331505
 21
1079.9668368718
  0
LINE
  5
289
100
AcDbEntity
  8
0
100
AcDbLine
 62
7
  6
BYLAYER
 10
439.1529931505
 20
1087.6668368718
 11
439.1529931505
 21
1086.4668368718
  0
LINE
  5
28A
100
AcDbEntity
  8
0
100
AcDbLine
 62
7
  6
BYLAYER
 10
447.4029931505
 20
1087.6668368718
 11
447.4029931505
 21
1086.4668368718
  0
LINE
  5
28B
100
AcDbEntity
  8
0
100
AcDbLine
 62
7
  6
BYLAYER
 10
450.7764924134
 20
113.9667267333
 11
450.7764924134
 21
97.4667267333
  0
LINE
  5
28C
100
AcDbEntity
  8
0
100
AcDbLine
 62
7
  6
BYLAYER
 10
450.7767331505
 20
1078.9668368718
 11
450.7767331505
 21
1062.4668368718
  0
LINE
  5
28D
100
AcDbEntity
  8
3
100
AcDbLine
 62
7
  6
BYLAYER
 10
450.7769912026
 20
1062.4668496803
 11
450.7769912026
 21
113.9668496803
  0
LINE
  5
28E
100
AcDbEntity
  8
0
100
AcDbLine
 62
7
  6
BYLAYER
 10
451.0267331505
 20
1079.9668368718
 11
451.0267331505
 21
1085.9668368718
  0
LINE
  5
28F
100
AcDbEntity
  8
0
100
AcDbLine
 62
7
  6
BYLAYER
 10
451.2764924134
 20
97.4667267334
 11
451.2764924134
 21
113.9667267333
  0
LINE
  5
290
100
AcDbEntity
  8
0
100
AcDbLine
 62
7
  6
BYLAYER
 10
451.2767331505
 20
1062.4668368718
 11
451.2767331505
 21
1078.9668368717
  0
LINE
  5
291
100
AcDbEntity
  8
3
100
AcDbLine
 62
7
  6
BYLAYER
 10
451.2769912026
 20
113.9668496803
 11
451.2769912026
 21
1062.4668496803
  0
LINE
  5
292
100
AcDbEntity
  8
0
100
AcDbLine
 62
7
  6
BYLAYER
 10
458.0267331505
 20
1079.9668368718
 11
458.0267331505
 21
1085.9668368718
  0
LINE
  5
293
100
AcDbEntity
  8
0
100
AcDbLine
 62
7
  6
BYLAYER
 10
459.2764924134
 20
113.9667267333
 11
459.2764924134
 21
97.4667267334
  0
LINE
  5
294
100
AcDbEntity
  8
0
100
AcDbLine
 62
7
  6
BYLAYER
 10
459.2767331505
 20
1078.9668368718
 11
459.2767331505
 21
1062.4668368718
  0
LINE
  5
295
100
AcDbEntity
  8
3
100
AcDbLine
 62
7
  6
BYLAYER
 10
459.2769912026
 20
1062.4668496803
 11
459.2769912026
 21
113.9668496803
  0
LINE
  5
296
100
AcDbEntity
  8
0
100
AcDbLine
 62
7
  6
BYLAYER
 10
459.7764924134
 20
97.4667267333
 11
459.7764924134
 21
113.9667267333
  0
LINE
  5
297
100
AcDbEntity
  8
0
100
AcDbLine
 62
7
  6
BYLAYER
 10
459.7767331505
 20
1062.4668368718
 11
459.7767331505
 21
1078.9668368718
  0
LINE
  5
298
100
AcDbEntity
  8
0
100
AcDbLine
 62
7
  6
BYLAYER
 10
459.7767331505
 20
1086.4668368718
 11
459.7767331505
 21
1089.9668359344
  0
LINE
  5
299
100
AcDbEntity
  8
3
100
AcDbLine
 62
7
  6
BYLAYER
 10
459.7769912026
 20
113.9668496803
 11
459.7769912026
 21
1062.4668496803
  0
LINE
  5
29A
100
AcDbEntity
  8
0
100
AcDbLine
 62
7
  6
BYLAYER
 10
461.6523131505
 20
1087.6668368718
 11
461.6523131505
 21
1086.4668368718
  0
LINE
  5
29B
100
AcDbEntity
  8
0
100
AcDbLine
 62
7
  6
BYLAYER
 10
467.7764924134
 20
98.4667267333
 11
467.7764924134
 21
96.4667267333
  0
LINE
  5
29C
100
AcDbEntity
  8
0
100
AcDbLine
 62
7
  6
BYLAYER
 10
467.7767331505
 20
1079.9668368718
 11
467.7767331505
 21
1077.9668368718
  0
LINE
  5
29D
100
AcDbEntity
  8
0
100
AcDbLine
 62
7
  6
BYLAYER
 10
468.7764924134
 20
97.4667267333
 11
468.7764924134
 21
98.4667267333
  0
LINE
  5
29E
100
AcDbEntity
  8
0
100
AcDbLine
 62
7
  6
BYLAYER
 10
468.7767331505
 20
1077.9668368718
 11
468.7767331505
 21
1078.9668368718
  0
LINE
  5
29F
100
AcDbEntity
  8
0
100
AcDbLine
 62
7
  6
BYLAYER
 10
468.9767331505
 20
1077.5684357485
 11
468.9767331505
 21
1079.0668368718
  0
LINE
  5
2A0
100
AcDbEntity
  8
0
100
AcDbLine
 62
7
  6
BYLAYER
 10
468.9769912026
 20
98.8656266459
 11
468.9769912026
 21
97.3668368718
  0
LINE
  5
2A1
100
AcDbEntity
  8
0
100
AcDbLine
 62
7
  6
BYLAYER
 10
469.2764924862
 20
98.9667267333
 11
469.2764924862
 21
99.4667267333
  0
LINE
  5
2A2
100
AcDbEntity
  8
0
100
AcDbLine
 62
7
  6
BYLAYER
 10
469.2767332181
 20
1076.9668368718
 11
469.2767332181
 21
1077.4668368718
  0
LINE
  5
2A3
100
AcDbEntity
  8
0
100
AcDbLine
 62
7
  6
BYLAYER
 10
469.8424853486
 20
1086.4668368718
 11
469.8424853486
 21
1087.6668368718
  0
LINE
  5
2A4
100
AcDbEntity
  8
0
100
AcDbLine
 62
7
  6
BYLAYER
 10
471.7767331505
 20
1086.4668368718
 11
471.7767331505
 21
1089.9668359344
  0
LINE
  5
2A5
100
AcDbEntity
  8
0
100
AcDbLine
 62
7
  6
BYLAYER
 10
473.5267331505
 20
1080.0668368718
 11
473.5267331505
 21
1085.9668368718
  0
LINE
  5
2A6
100
AcDbEntity
  8
0
100
AcDbLine
 62
7
  6
BYLAYER
 10
474.375942967
 20
113.9667267333
 11
474.375942967
 21
98.9667267333
  0
LINE
  5
2A7
100
AcDbEntity
  8
0
100
AcDbLine
 62
7
  6
BYLAYER
 10
474.3761837041
 20
1077.4668368718
 11
474.3761837041
 21
1062.4668368718
  0
LINE
  5
2A8
100
AcDbEntity
  8
3
100
AcDbLine
 62
7
  6
BYLAYER
 10
474.3764417562
 20
1062.4668496803
 11
474.3764417562
 21
113.9668496803
  0
LINE
  5
2A9
100
AcDbEntity
  8
0
100
AcDbLine
 62
7
  6
BYLAYER
 10
475.5767331505
 20
1077.5684357485
 11
475.5767331505
 21
1079.0668368718
  0
LINE
  5
2AA
100
AcDbEntity
  8
0
100
AcDbLine
 62
7
  6
BYLAYER
 10
475.5769912026
 20
98.8646290674
 11
475.5769912026
 21
97.3668368718
  0
LINE
  5
2AB
100
AcDbEntity
  8
0
100
AcDbLine
 62
7
  6
BYLAYER
 10
475.7764924134
 20
98.4667267333
 11
475.7764924134
 21
97.4667267333
  0
LINE
  5
2AC
100
AcDbEntity
  8
0
100
AcDbLine
 62
7
  6
BYLAYER
 10
475.7767331505
 20
1078.9668368718
 11
475.7767331505
 21
1077.9668368718
  0
LINE
  5
2AD
100
AcDbEntity
  8
0
100
AcDbLine
 62
7
  6
BYLAYER
 10
477.1231542459
 20
99.4667267333
 11
477.1231542459
 21
113.9667267333
  0
LINE
  5
2AE
100
AcDbEntity
  8
0
100
AcDbLine
 62
7
  6
BYLAYER
 10
477.1233949831
 20
1062.4668368718
 11
477.1233949831
 21
1076.9668368718
  0
LINE
  5
2AF
100
AcDbEntity
  8
3
100
AcDbLine
 62
7
  6
BYLAYER
 10
477.1236530352
 20
113.9668496803
 11
477.1236530352
 21
1062.4668496803
  0
LINE
  5
2B0
100
AcDbEntity
  8
0
100
AcDbLine
 62
7
  6
BYLAYER
 10
477.6885741052
 20
97.4667267333
 11
477.6885741052
 21
99.4667267333
  0
LINE
  5
2B1
100
AcDbEntity
  8
0
100
AcDbLine
 62
7
  6
BYLAYER
 10
477.6888148424
 20
1076.9668368718
 11
477.6888148424
 21
1078.9668368718
  0
LINE
  5
2B2
100
AcDbEntity
  8
0
100
AcDbLine
 62
7
  6
BYLAYER
 10
481.3259346692
 20
113.9667267333
 11
481.3259346692
 21
97.4667267333
  0
LINE
  5
2B3
100
AcDbEntity
  8
0
100
AcDbLine
 62
7
  6
BYLAYER
 10
481.3261754063
 20
1078.9668368718
 11
481.3261754063
 21
1062.4668368718
  0
LINE
  5
2B4
100
AcDbEntity
  8
3
100
AcDbLine
 62
7
  6
BYLAYER
 10
481.3264334583
 20
1062.4668496803
 11
481.3264334583
 21
113.9668496803
  0
LINE
  5
2B5
100
AcDbEntity
  8
0
100
AcDbLine
 62
7
  6
BYLAYER
 10
482.7764924134
 20
97.4667267333
 11
482.7764924134
 21
113.9667267333
  0
LINE
  5
2B6
100
AcDbEntity
  8
0
100
AcDbLine
 62
7
  6
BYLAYER
 10
482.7767331505
 20
1062.4668368718
 11
482.7767331505
 21
1078.9668368718
  0
LINE
  5
2B7
100
AcDbEntity
  8
3
100
AcDbLine
 62
7
  6
BYLAYER
 10
482.7769912026
 20
1062.4668496803
 11
482.7769912026
 21
113.9668496803
  0
LINE
  5
2B8
100
AcDbEntity
  8
0
100
AcDbLine
 62
7
  6
BYLAYER
 10
450.5267331505
 20
1086.4668368718
 11
451.0267331505
 21
1085.9668368718
  0
LINE
  5
2B9
100
AcDbEntity
  8
3
100
AcDbLine
 62
7
  6
BYLAYER
 10
382.5350723355
 20
987.6499144559
 11
427.5350723355
 21
987.6499144559
  0
LINE
  5
2BA
100
AcDbEntity
  8
3
100
AcDbLine
 62
7
  6
BYLAYER
 10
423.1983576516
 20
991.2974144559
 11
424.4429569135
 21
991.2974144559
  0
LINE
  5
2BB
100
AcDbEntity
  8
3
100
AcDbLine
 62
7
  6
BYLAYER
 10
427.5350723355
 20
992.6499144559
 11
424.5350723355
 21
992.6499144559
  0
LINE
  5
2BC
100
AcDbEntity
  8
3
100
AcDbLine
 62
7
  6
BYLAYER
 10
423.0948727177
 20
992.9733772754
 11
420.0948727177
 21
992.9733772754
  0
LINE
  5
2BD
100
AcDbEntity
  8
3
100
AcDbLine
 62
7
  6
BYLAYER
 10
385.7350723355
 20
994.3999144559
 11
399.2350723355
 21
994.3999144559
  0
LINE
  5
2BE
100
AcDbEntity
  8
3
100
AcDbLine
 62
7
  6
BYLAYER
 10
415.8244173103
 20
994.6499144559
 11
420.0948727177
 21
994.6499144559
  0
LINE
  5
2BF
100
AcDbEntity
  8
3
100
AcDbLine
 62
7
  6
BYLAYER
 10
423.0948727177
 20
994.6499144559
 11
423.1983576516
 21
994.6499144559
  0
LINE
  5
2C0
100
AcDbEntity
  8
3
100
AcDbLine
 62
7
  6
BYLAYER
 10
424.4429569135
 20
994.6499144559
 11
424.5350723355
 21
994.6499144559
  0
LINE
  5
2C1
100
AcDbEntity
  8
3
100
AcDbLine
 62
7
  6
BYLAYER
 10
427.5350723355
 20
994.6499144559
 11
427.7769738877
 21
994.6499144559
  0
LINE
  5
2C2
100
AcDbEntity
  8
3
100
AcDbLine
 62
7
  6
BYLAYER
 10
423.0948727177
 20
997.6499144559
 11
420.0948727177
 21
997.6499144559
  0
LINE
  5
2C3
100
AcDbEntity
  8
0
100
AcDbLine
 62
7
  6
BYLAYER
 10
473.0267331505
 20
1086.4668368718
 11
473.5267331505
 21
1085.9668368718
  0
LINE
  5
2C4
100
AcDbEntity
  8
0
100
AcDbLine
 62
7
  6
BYLAYER
 10
471.2767337148
 20
1090.4668382862
 11
471.7767346985
 21
1089.9668374823
  0
LINE
  5
2C5
100
AcDbEntity
  8
3
100
AcDbLine
 62
7
  6
BYLAYER
 10
415.8244173103
 20
1000.6499144559
 11
420.0948727177
 21
1000.6499144559
  0
LINE
  5
2C6
100
AcDbEntity
  8
3
100
AcDbLine
 62
7
  6
BYLAYER
 10
423.0948727177
 20
1000.6499144559
 11
423.1983576516
 21
1000.6499144559
  0
LINE
  5
2C7
100
AcDbEntity
  8
3
100
AcDbLine
 62
7
  6
BYLAYER
 10
424.4429569135
 20
1000.6499144559
 11
424.5350723355
 21
1000.6499144559
  0
LINE
  5
2C8
100
AcDbEntity
  8
3
100
AcDbLine
 62
7
  6
BYLAYER
 10
427.5350723355
 20
1000.6499144559
 11
427.7769738877
 21
1000.6499144559
  0
LINE
  5
2C9
100
AcDbEntity
  8
3
100
AcDbLine
 62
7
  6
BYLAYER
 10
399.2350723355
 20
1000.8999144559
 11
385.7350723355
 21
1000.8999144559
  0
LINE
  5
2CA
100
AcDbEntity
  8
3
100
AcDbLine
 62
7
  6
BYLAYER
 10
423.0948727177
 20
1002.3264516363
 11
420.0948727177
 21
1002.3264516363
  0
LINE
  5
2CB
100
AcDbEntity
  8
3
100
AcDbLine
 62
7
  6
BYLAYER
 10
424.4429569135
 20
1004.0024144559
 11
423.1983576516
 21
1004.0024144559
  0
LINE
  5
2CC
100
AcDbEntity
  8
3
100
AcDbLine
 62
7
  6
BYLAYER
 10
423.1983576516
 20
1021.2974144559
 11
424.4429569135
 21
1021.2974144559
  0
LINE
  5
2CD
100
AcDbEntity
  8
3
100
AcDbLine
 62
7
  6
BYLAYER
 10
423.0948727177
 20
1022.9733772754
 11
420.0948727177
 21
1022.9733772754
  0
LINE
  5
2CE
100
AcDbEntity
  8
3
100
AcDbLine
 62
7
  6
BYLAYER
 10
385.7350723355
 20
1024.3999144559
 11
399.2350723355
 21
1024.3999144559
  0
LINE
  5
2CF
100
AcDbEntity
  8
3
100
AcDbLine
 62
7
  6
BYLAYER
 10
415.8244173103
 20
1024.6499144559
 11
420.0948727177
 21
1024.6499144559
  0
LINE
  5
2D0
100
AcDbEntity
  8
3
100
AcDbLine
 62
7
  6
BYLAYER
 10
423.0948727177
 20
1024.6499144559
 11
423.1983576516
 21
1024.6499144559
  0
LINE
  5
2D1
100
AcDbEntity
  8
3
100
AcDbLine
 62
7
  6
BYLAYER
 10
424.4429569135
 20
1024.6499144559
 11
424.5350723355
 21
1024.6499144559
  0
LINE
  5
2D2
100
AcDbEntity
  8
3
100
AcDbLine
 62
7
  6
BYLAYER
 10
427.5350723355
 20
1024.6499144559
 11
427.7769738877
 21
1024.6499144559
  0
LINE
  5
2D3
100
AcDbEntity
  8
3
100
AcDbLine
 62
7
  6
BYLAYER
 10
423.0948727177
 20
1027.6499144559
 11
420.0948727177
 21
1027.6499144559
  0
LINE
  5
2D4
100
AcDbEntity
  8
3
100
AcDbLine
 62
7
  6
BYLAYER
 10
415.8244173103
 20
1030.6499144559
 11
420.0948727177
 21
1030.6499144559
  0
LINE
  5
2D5
100
AcDbEntity
  8
3
100
AcDbLine
 62
7
  6
BYLAYER
 10
423.0948727177
 20
1030.6499144559
 11
423.1983576516
 21
1030.6499144559
  0
LINE
  5
2D6
100
AcDbEntity
  8
3
100
AcDbLine
 62
7
  6
BYLAYER
 10
424.4429569135
 20
1030.6499144559
 11
424.5350723355
 21
1030.6499144559
  0
LINE
  5
2D7
100
AcDbEntity
  8
3
100
AcDbLine
 62
7
  6
BYLAYER
 10
427.5350723355
 20
1030.6499144559
 11
427.7769738877
 21
1030.6499144559
  0
LINE
  5
2D8
100
AcDbEntity
  8
3
100
AcDbLine
 62
7
  6
BYLAYER
 10
399.2350723355
 20
1030.8999144559
 11
385.7350723355
 21
1030.8999144559
  0
LINE
  5
2D9
100
AcDbEntity
  8
3
100
AcDbLine
 62
7
  6
BYLAYER
 10
423.0948727177
 20
1032.3264516363
 11
420.0948727177
 21
1032.3264516363
  0
LINE
  5
2DA
100
AcDbEntity
  8
3
100
AcDbLine
 62
7
  6
BYLAYER
 10
424.5350723355
 20
1032.6499144559
 11
427.5350723355
 21
1032.6499144559
  0
LINE
  5
2DB
100
AcDbEntity
  8
3
100
AcDbLine
 62
7
  6
BYLAYER
 10
424.4429569135
 20
1034.0024144559
 11
423.1983576516
 21
1034.0024144559
  0
LINE
  5
2DC
100
AcDbEntity
  8
3
100
AcDbLine
 62
7
  6
BYLAYER
 10
382.5350723355
 20
1037.6499144559
 11
427.5350723355
 21
1037.6499144559
  0
LINE
  5
2DD
100
AcDbEntity
  8
0
100
AcDbLine
 62
7
  6
BYLAYER
 10
427.7767331505
 20
1062.4668368718
 11
482.7767331505
 21
1062.4668368718
  0
LINE
  5
2DE
100
AcDbEntity
  8
3
100
AcDbLine
 62
7
  6
BYLAYER
 10
427.7769738877
 20
1062.4668496803
 11
482.7769912026
 21
1062.4668496803
  0
LINE
  5
2DF
100
AcDbEntity
  8
0
100
AcDbLine
 62
7
  6
BYLAYER
 10
465.7931350591
 20
1075.9668368718
 11
457.7767331505
 21
1075.9668368718
  0
LINE
  5
2E0
100
AcDbEntity
  8
0
100
AcDbLine
 62
7
  6
BYLAYER
 10
443.260331242
 20
1075.9668368718
 11
451.2767331505
 21
1075.9668368718
  0
LINE
  5
2E1
100
AcDbEntity
  8
0
100
AcDbLine
 62
7
  6
BYLAYER
 10
465.7929193554
 20
1075.9780311228
 11
457.8819421794
 21
1075.9780311228
  0
LINE
  5
2E2
100
AcDbEntity
  8
0
100
AcDbLine
 62
7
  6
BYLAYER
 10
443.260547125
 20
1075.9780499547
 11
451.1714366659
 21
1075.9780499547
  0
LINE
  5
2E3
100
AcDbEntity
  8
0
100
AcDbLine
 62
7
  6
BYLAYER
 10
443.2601149528
 20
1076.9555810551
 11
451.3822278108
 21
1076.9555810551
  0
LINE
  5
2E4
100
AcDbEntity
  8
0
100
AcDbLine
 62
7
  6
BYLAYER
 10
465.7933507627
 20
1076.9556426208
 11
457.6715241217
 21
1076.9556426208
  0
LINE
  5
2E5
100
AcDbEntity
  8
0
100
AcDbLine
 62
7
  6
BYLAYER
 10
427.7767331505
 20
1076.9668368718
 11
435.2767331505
 21
1076.9668368718
  0
LINE
  5
2E6
100
AcDbEntity
  8
0
100
AcDbLine
 62
7
  6
BYLAYER
 10
469.2767331505
 20
1076.9668368718
 11
477.6888148424
 21
1076.9668368718
  0
LINE
  5
2E7
100
AcDbEntity
  8
0
100
AcDbLine
 62
7
  6
BYLAYER
 10
428.2767331505
 20
1077.4668368718
 11
435.2767331505
 21
1077.4668368718
  0
LINE
  5
2E8
100
AcDbEntity
  8
0
100
AcDbLine
 62
7
  6
BYLAYER
 10
469.2767331505
 20
1077.4668368718
 11
475.8264866441
 21
1077.4668368718
  0
LINE
  5
2E9
100
AcDbEntity
  8
0
100
AcDbLine
 62
7
  6
BYLAYER
 10
476.18904838
 20
1077.9668368718
 11
475.5767331505
 21
1077.9668368718
  0
LINE
  5
2EA
100
AcDbEntity
  8
0
100
AcDbLine
 62
7
  6
BYLAYER
 10
468.9767331505
 20
1077.9668368718
 11
467.7767331505
 21
1077.9668369289
  0
LINE
  5
2EB
100
AcDbEntity
  8
0
100
AcDbLine
 62
7
  6
BYLAYER
 10
436.7767331505
 20
1077.9668369407
 11
435.5767331505
 21
1077.9668368718
  0
LINE
  5
2EC
100
AcDbEntity
  8
0
100
AcDbLine
 62
7
  6
BYLAYER
 10
428.9767331505
 20
1077.9668368718
 11
427.7767331505
 21
1077.9668369408
  0
LINE
  5
2ED
100
AcDbEntity
  8
0
100
AcDbLine
 62
7
  6
BYLAYER
 10
427.7767331505
 20
1078.9668368718
 11
428.9767331505
 21
1078.9668368718
  0
LINE
  5
2EE
100
AcDbEntity
  8
0
100
AcDbLine
 62
7
  6
BYLAYER
 10
435.5767331505
 20
1078.9668368718
 11
451.2767331505
 21
1078.9668368652
  0
LINE
  5
2EF
100
AcDbEntity
  8
0
100
AcDbLine
 62
7
  6
BYLAYER
 10
459.2767331505
 20
1078.9668368717
 11
468.9767331505
 21
1078.9668368718
  0
LINE
  5
2F0
100
AcDbEntity
  8
0
100
AcDbLine
 62
7
  6
BYLAYER
 10
475.5767331505
 20
1078.9668368718
 11
482.7767331505
 21
1078.9668368718
  0
LINE
  5
2F1
100
AcDbEntity
  8
0
100
AcDbLine
 62
7
  6
BYLAYER
 10
428.9767331505
 20
1079.0668368718
 11
435.5767331505
 21
1079.0668368718
  0
LINE
  5
2F2
100
AcDbEntity
  8
0
100
AcDbLine
 62
7
  6
BYLAYER
 10
468.9767331505
 20
1079.0668368718
 11
475.5767331505
 21
1079.0668368718
  0
LINE
  5
2F3
100
AcDbEntity
  8
0
100
AcDbLine
 62
7
  6
BYLAYER
 10
451.1352849704
 20
1079.4668368718
 11
459.4172168048
 21
1079.4668368718
  0
LINE
  5
2F4
100
AcDbEntity
  8
0
100
AcDbLine
 62
7
  6
BYLAYER
 10
429.6035279471
 20
1079.9668368718
 11
428.7767331505
 21
1079.9668368718
  0
LINE
  5
2F5
100
AcDbEntity
  8
0
100
AcDbLine
 62
7
  6
BYLAYER
 10
434.949938354
 20
1079.9668368718
 11
469.6035279471
 21
1079.9668368718
  0
LINE
  5
2F6
100
AcDbEntity
  8
0
100
AcDbLine
 62
7
  6
BYLAYER
 10
474.949938354
 20
1079.9668368718
 11
481.7767331505
 21
1079.9668368718
  0
LINE
  5
2F7
100
AcDbEntity
  8
0
100
AcDbLine
 62
7
  6
BYLAYER
 10
429.9768257497
 20
1080.0668368718
 11
434.5766490519
 21
1080.0668368718
  0
LINE
  5
2F8
100
AcDbEntity
  8
0
100
AcDbLine
 62
7
  6
BYLAYER
 10
469.9768257497
 20
1080.0668368718
 11
474.5766490519
 21
1080.0668368718
  0
LINE
  5
2F9
100
AcDbEntity
  8
0
100
AcDbLine
 62
7
  6
BYLAYER
 10
473.5266688537
 20
1081.4668368718
 11
458.0267974474
 21
1081.4668368718
  0
LINE
  5
2FA
100
AcDbEntity
  8
0
100
AcDbLine
 62
7
  6
BYLAYER
 10
451.0266688537
 20
1081.4668368718
 11
435.5267974474
 21
1081.4668368718
  0
LINE
  5
2FB
100
AcDbEntity
  8
0
100
AcDbLine
 62
7
  6
BYLAYER
 10
473.5267331505
 20
1084.4668368718
 11
458.0267331505
 21
1084.4668368718
  0
LINE
  5
2FC
100
AcDbEntity
  8
0
100
AcDbLine
 62
7
  6
BYLAYER
 10
451.0267331505
 20
1084.4668368718
 11
435.5267331505
 21
1084.4668368718
  0
LINE
  5
2FD
100
AcDbEntity
  8
0
100
AcDbLine
 62
7
  6
BYLAYER
 10
435.5267331505
 20
1085.9668368718
 11
451.0267331505
 21
1085.9668368718
  0
LINE
  5
2FE
100
AcDbEntity
  8
0
100
AcDbLine
 62
7
  6
BYLAYER
 10
458.0267331505
 20
1085.9668368718
 11
473.5267331505
 21
1085.9668368718
  0
LINE
  5
2FF
100
AcDbEntity
  8
0
100
AcDbLine
 62
7
  6
BYLAYER
 10
436.0267331505
 20
1086.4668368718
 11
450.5267331505
 21
1086.4668368718
  0
LINE
  5
300
100
AcDbEntity
  8
0
100
AcDbLine
 62
7
  6
BYLAYER
 10
458.5267331505
 20
1086.4668368718
 11
473.0267331505
 21
1086.4668368718
  0
LINE
  5
301
100
AcDbEntity
  8
0
100
AcDbLine
 62
7
  6
BYLAYER
 10
439.1529931505
 20
1087.6668368718
 11
447.4029931505
 21
1087.6668368718
  0
LINE
  5
302
100
AcDbEntity
  8
0
100
AcDbLine
 62
7
  6
BYLAYER
 10
461.6523131505
 20
1087.6668368718
 11
469.8424853486
 21
1087.6668368718
  0
LINE
  5
303
100
AcDbEntity
  8
0
100
AcDbLine
 62
7
  6
BYLAYER
 10
439.4530806266
 20
1087.9668368718
 11
447.1030117677
 21
1087.9668368718
  0
LINE
  5
304
100
AcDbEntity
  8
0
100
AcDbLine
 62
7
  6
BYLAYER
 10
461.9523218148
 20
1087.9668368718
 11
469.5377077845
 21
1087.9668368718
  0
LINE
  5
305
100
AcDbEntity
  8
0
100
AcDbLine
 62
7
  6
BYLAYER
 10
459.7767331505
 20
1089.9668359344
 11
471.7767331505
 21
1089.9668359344
  0
LINE
  5
306
100
AcDbEntity
  8
0
100
AcDbLine
 62
7
  6
BYLAYER
 10
460.2767325863
 20
1090.4668368718
 11
471.2767337148
 21
1090.4668368718
  0
ARC
  5
307
100
AcDbEntity
  8
3
100
AcDbCircle
 62
7
  6
BYLAYER
 10
382.5350723355
 20
186.315011995
 40
5.0
100
AcDbArc
 50
90.0
 51
180.0
  0
ARC
  5
308
100
AcDbEntity
  8
3
100
AcDbCircle
 62
7
  6
BYLAYER
 10
382.5350723355
 20
146.315011995
 40
5.0
100
AcDbArc
 50
180.0
 51
270.0
  0
ARC
  5
309
100
AcDbEntity
  8
3
100
AcDbCircle
 62
7
  6
BYLAYER
 10
385.7350723355
 20
151.315011995
 40
3.25
100
AcDbArc
 50
90.0
 51
270.0
  0
ARC
  5
30A
100
AcDbEntity
  8
3
100
AcDbCircle
 62
7
  6
BYLAYER
 10
399.2350723355
 20
151.315011995
 40
3.25
100
AcDbArc
 50
270.0
 51
90.0
  0
ARC
  5
30B
100
AcDbEntity
  8
3
100
AcDbCircle
 62
7
  6
BYLAYER
 10
385.7350723355
 20
181.315011995
 40
3.25
100
AcDbArc
 50
90.0
 51
270.0
  0
ARC
  5
30C
100
AcDbEntity
  8
3
100
AcDbCircle
 62
7
  6
BYLAYER
 10
399.2350723355
 20
181.315011995
 40
3.25
100
AcDbArc
 50
270.0
 51
90.0
  0
ARC
  5
30D
100
AcDbEntity
  8
0
100
AcDbCircle
 62
7
  6
BYLAYER
 10
429.9769793294
 20
97.3668368718
 40
1.0
100
AcDbArc
 50
180.0
 51
270.0
  0
ARC
  5
30E
100
AcDbEntity
  8
0
100
AcDbCircle
 62
7
  6
BYLAYER
 10
428.7764924134
 20
97.4667267333
 40
1.0
100
AcDbArc
 50
180.0
 51
270.0
  0
ARC
  5
30F
100
AcDbEntity
  8
0
100
AcDbCircle
 62
7
  6
BYLAYER
 10
428.2764924134
 20
99.4667267333
 40
0.5
100
AcDbArc
 50
180.0
 51
270.0
  0
ARC
  5
310
100
AcDbEntity
  8
3
100
AcDbCircle
 62
7
  6
BYLAYER
 10
382.5350723355
 20
1032.6499144559
 40
5.0
100
AcDbArc
 50
90.0
 51
180.0
  0
ARC
  5
311
100
AcDbEntity
  8
3
100
AcDbCircle
 62
7
  6
BYLAYER
 10
382.5350723355
 20
992.6499144559
 40
5.0
100
AcDbArc
 50
180.0
 51
270.0
  0
ARC
  5
312
100
AcDbEntity
  8
3
100
AcDbCircle
 62
7
  6
BYLAYER
 10
385.7350723355
 20
997.6499144559
 40
3.25
100
AcDbArc
 50
90.0
 51
270.0
  0
ARC
  5
313
100
AcDbEntity
  8
3
100
AcDbCircle
 62
7
  6
BYLAYER
 10
399.2350723355
 20
997.6499144559
 40
3.25
100
AcDbArc
 50
270.0
 51
90.0
  0
ARC
  5
314
100
AcDbEntity
  8
3
100
AcDbCircle
 62
7
  6
BYLAYER
 10
385.7350723355
 20
1027.6499144559
 40
3.25
100
AcDbArc
 50
90.0
 51
270.0
  0
ARC
  5
315
100
AcDbEntity
  8
3
100
AcDbCircle
 62
7
  6
BYLAYER
 10
399.2350723355
 20
1027.6499144559
 40
3.25
100
AcDbArc
 50
270.0
 51
90.0
  0
ARC
  5
316
100
AcDbEntity
  8
0
100
AcDbCircle
 62
7
  6
BYLAYER
 10
429.9767331505
 20
1079.0668368718
 40
1.0
100
AcDbArc
 50
90.0
 51
180.0
  0
ARC
  5
317
100
AcDbEntity
  8
0
100
AcDbCircle
 62
7
  6
BYLAYER
 10
428.7767331505
 20
1078.9668368718
 40
1.0
100
AcDbArc
 50
90.0
 51
180.0000000001
  0
ARC
  5
318
100
AcDbEntity
  8
0
100
AcDbCircle
 62
7
  6
BYLAYER
 10
428.2767331505
 20
1076.9668368718
 40
0.5
100
AcDbArc
 50
90.0
 51
180.0
  0
ARC
  5
319
100
AcDbEntity
  8
0
100
AcDbCircle
 62
7
  6
BYLAYER
 10
455.5032950073
 20
84.8921980512
 40
25.9492033475
100
AcDbArc
 50
33.0803197527
 51
33.623639097
  0
ARC
  5
31A
100
AcDbEntity
  8
0
100
AcDbCircle
 62
7
  6
BYLAYER
 10
434.5769793294
 20
97.3668368718
 40
1.0
100
AcDbArc
 50
270.0
 51
360.0
  0
ARC
  5
31B
100
AcDbEntity
  8
0
100
AcDbCircle
 62
7
  6
BYLAYER
 10
450.2764924134
 20
97.4667267333
 40
1.0
100
AcDbArc
 50
270.0
 51
360.0
  0
ARC
  5
31C
100
AcDbEntity
  8
0
100
AcDbCircle
 62
7
  6
BYLAYER
 10
436.7764924134
 20
97.4667267333
 40
1.0
100
AcDbArc
 50
180.0
 51
270.0
  0
ARC
  5
31D
100
AcDbEntity
  8
0
100
AcDbCircle
 62
7
  6
BYLAYER
 10
435.2764924134
 20
98.4667267333
 40
0.5
100
AcDbArc
 50
0.0
 51
90.0
  0
ARC
  5
31E
100
AcDbEntity
  8
0
100
AcDbCircle
 62
7
  6
BYLAYER
 10
469.9769912026
 20
97.3668368718
 40
1.0
100
AcDbArc
 50
180.0
 51
270.0
  0
ARC
  5
31F
100
AcDbEntity
  8
0
100
AcDbCircle
 62
7
  6
BYLAYER
 10
474.5769912026
 20
97.3668368718
 40
1.0
100
AcDbArc
 50
270.0
 51
360.0
  0
ARC
  5
320
100
AcDbEntity
  8
0
100
AcDbCircle
 62
7
  6
BYLAYER
 10
460.2764924134
 20
97.4667267333
 40
1.0
100
AcDbArc
 50
179.9999999984
 51
270.0
  0
ARC
  5
321
100
AcDbEntity
  8
0
100
AcDbCircle
 62
7
  6
BYLAYER
 10
467.7764924134
 20
97.4667267333
 40
1.0
100
AcDbArc
 50
270.0
 51
360.0
  0
ARC
  5
322
100
AcDbEntity
  8
0
100
AcDbCircle
 62
7
  6
BYLAYER
 10
476.7764924134
 20
97.4667267333
 40
1.0
100
AcDbArc
 50
180.0
 51
270.0
  0
ARC
  5
323
100
AcDbEntity
  8
0
100
AcDbCircle
 62
7
  6
BYLAYER
 10
481.7764924133
 20
97.4667267333
 40
1.0
100
AcDbArc
 50
270.0000000017
 51
360.0
  0
ARC
  5
324
100
AcDbEntity
  8
0
100
AcDbCircle
 62
7
  6
BYLAYER
 10
469.2764924134
 20
98.4667267333
 40
0.5
100
AcDbArc
 50
90.0
 51
180.0
  0
ARC
  5
325
100
AcDbEntity
  8
0
100
AcDbCircle
 62
7
  6
BYLAYER
 10
475.2764924134
 20
98.4667267333
 40
0.5
100
AcDbArc
 50
0.0
 51
90.0
  0
ARC
  5
326
100
AcDbEntity
  8
0
100
AcDbCircle
 62
7
  6
BYLAYER
 10
434.5767331505
 20
1079.0668368718
 40
1.0
100
AcDbArc
 50
0.0
 51
90.0
  0
ARC
  5
327
100
AcDbEntity
  8
0
100
AcDbCircle
 62
7
  6
BYLAYER
 10
436.7767331505
 20
1078.9668368718
 40
1.0
100
AcDbArc
 50
90.0
 51
180.0
  0
ARC
  5
328
100
AcDbEntity
  8
0
100
AcDbCircle
 62
7
  6
BYLAYER
 10
450.2767331505
 20
1078.9668368718
 40
1.0
100
AcDbArc
 50
0.0
 51
90.0
  0
ARC
  5
329
100
AcDbEntity
  8
0
100
AcDbCircle
 62
7
  6
BYLAYER
 10
435.2767331505
 20
1077.9668368718
 40
0.5
100
AcDbArc
 50
270.0
 51
360.0
  0
ARC
  5
32A
100
AcDbEntity
  8
0
100
AcDbCircle
 62
7
  6
BYLAYER
 10
457.7767331505
 20
1076.4668368718
 40
0.5
100
AcDbArc
 50
102.1468526144
 51
282.1468526144
  0
ARC
  5
32B
100
AcDbEntity
  8
0
100
AcDbCircle
 62
7
  6
BYLAYER
 10
451.2767331505
 20
1076.4668368718
 40
0.5
100
AcDbArc
 50
257.8196647598
 51
77.8196647598
  0
ARC
  5
32C
100
AcDbEntity
  8
0
100
AcDbCircle
 62
7
  6
BYLAYER
 10
454.0497450861
 20
1092.4982166343
 40
27.6896077412
100
AcDbArc
 50
326.393435933
 51
326.9026052159
  0
ARC
  5
32D
100
AcDbEntity
  8
0
100
AcDbCircle
 62
7
  6
BYLAYER
 10
439.4529931505
 20
1087.6668368718
 40
0.3
100
AcDbArc
 50
90.0
 51
180.0
  0
ARC
  5
32E
100
AcDbEntity
  8
0
100
AcDbCircle
 62
7
  6
BYLAYER
 10
447.1029931505
 20
1087.6668368718
 40
0.3
100
AcDbArc
 50
0.0
 51
90.0
  0
ARC
  5
32F
100
AcDbEntity
  8
0
100
AcDbCircle
 62
7
  6
BYLAYER
 10
469.9767331505
 20
1079.0668368718
 40
1.0
100
AcDbArc
 50
90.0
 51
180.0
  0
ARC
  5
330
100
AcDbEntity
  8
0
100
AcDbCircle
 62
7
  6
BYLAYER
 10
474.5767331505
 20
1079.0668368718
 40
1.0
100
AcDbArc
 50
0.0
 51
90.0
  0
ARC
  5
331
100
AcDbEntity
  8
0
100
AcDbCircle
 62
7
  6
BYLAYER
 10
467.7767331505
 20
1078.9668368718
 40
1.0
100
AcDbArc
 50
0.0
 51
90.0
  0
ARC
  5
332
100
AcDbEntity
  8
0
100
AcDbCircle
 62
7
  6
BYLAYER
 10
460.2767331505
 20
1078.9668368718
 40
1.0
100
AcDbArc
 50
90.0
 51
180.0000000008
  0
ARC
  5
333
100
AcDbEntity
  8
0
100
AcDbCircle
 62
7
  6
BYLAYER
 10
481.7767331506
 20
1078.9668368718
 40
1.0
100
AcDbArc
 50
0.0000000002
 51
90.0000000009
  0
ARC
  5
334
100
AcDbEntity
  8
0
100
AcDbCircle
 62
7
  6
BYLAYER
 10
476.7767331506
 20
1078.9668368718
 40
1.0
100
AcDbArc
 50
90.0000000003
 51
179.9999999999
  0
ARC
  5
335
100
AcDbEntity
  8
0
100
AcDbCircle
 62
7
  6
BYLAYER
 10
475.2767331505
 20
1077.9668368718
 40
0.5
100
AcDbArc
 50
270.0
 51
360.0
  0
ARC
  5
336
100
AcDbEntity
  8
0
100
AcDbCircle
 62
7
  6
BYLAYER
 10
469.2767331505
 20
1077.9668368718
 40
0.5
100
AcDbArc
 50
180.0
 51
270.0
  0
ARC
  5
337
100
AcDbEntity
  8
0
100
AcDbCircle
 62
7
  6
BYLAYER
 10
469.5395777653
 20
1087.6620667878
 40
0.3044707676
100
AcDbArc
 50
36.4827958936
 51
54.5150619304
  0
ARC
  5
338
100
AcDbEntity
  8
0
100
AcDbCircle
 62
7
  6
BYLAYER
 10
461.9523131505
 20
1087.6668368718
 40
0.3
100
AcDbArc
 50
90.0
 51
180.0
  0
SPLINE
  5
339
100
AcDbEntity
  8
0
100
AcDbSpline
 62
7
  6
BYLAYER
 70
0
 71
3
 72
8
 73
4
 74
0
 42
0.0000001
 43
0.0000001
 44
0.0000000001
 40
0.0
 40
0.0
 40
0.0
 40
0.0
 40
1.0
 40
1.0
 40
1.0
 40
1.0
 10
469.8424853486
 20
1087.6668368718
 30
0.0
 10
469.8424853486
 20
1087.7287008532
 30
0.0
 10
469.8210996108
 20
1087.7933094163
 30
0.0
 10
469.7843830501
 20
1087.8430994391
 30
0.0
  0
SPLINE
  5
33A
100
AcDbEntity
  8
0
100
AcDbSpline
 62
7
  6
BYLAYER
 70
0
 71
3
 72
8
 73
4
 74
0
 42
0.0000001
 43
0.0000001
 44
0.0000000001
 40
0.0
 40
0.0
 40
0.0
 40
0.0
 40
1.0
 40
1.0
 40
1.0
 40
1.0
 10
469.7163196726
 20
1087.9099876351
 30
0.0
 10
469.6654210241
 20
1087.9462244269
 30
0.0
 10
469.6001881268
 20
1087.9668383777
 30
0.0
 10
469.53770791
 20
1087.9668368718
 30
0.0
  0
SPLINE
  5
33B
100
AcDbEntity
  8
0
100
AcDbSpline
 62
7
  6
BYLAYER
 70
0
 71
3
 72
16
 73
12
 74
0
 42
0.0000001
 43
0.0000001
 44
0.0000000001
 40
0.0
 40
0.0
 40
0.0
 40
0.0
 40
0.2636273647
 40
0.4178764038
 40
0.5741876959
 40
0.7240052304
 40
0.8563237188
 40
0.9120390276
 40
0.957262702
 40
0.9883504454
 40
1.0
 40
1.0
 40
1.0
 40
1.0
 10
428.7767331622
 20
1077.9668368718
 30
0.0
 10
428.7767330073
 20
1077.9035428571
 30
0.0
 10
428.7071868303
 20
1077.8136172733
 30
0.0
 10
428.6108193829
 20
1077.7193633746
 30
0.0
 10
428.5260342442
 20
1077.6472982775
 30
0.0
 10
428.4441041569
 20
1077.5814820126
 30
0.0
 10
428.378974523
 20
1077.5329952389
 30
0.0
 10
428.3332424727
 20
1077.5007424908
 30
0.0
 10
428.3059440753
 20
1077.4843304523
 30
0.0
 10
428.2891878387
 20
1077.4718619785
 30
0.0
 10
428.2784711586
 20
1077.46902826
 30
0.0
 10
428.2767331588
 20
1077.4668368747
 30
0.0
  0
SPLINE
  5
33C
100
AcDbEntity
  8
0
100
AcDbSpline
 62
7
  6
BYLAYER
 70
0
 71
3
 72
12
 73
8
 74
0
 42
0.0000001
 43
0.0000001
 44
0.0000000001
 40
0.0
 40
0.0
 40
0.0
 40
0.0
 40
0.3400478061
 40
0.6258992925
 40
0.7417192142
 40
0.8403209917
 40
1.0
 40
1.0
 40
1.0
 40
1.0
 10
450.7767317274
 20
1078.9668368718
 30
0.0
 10
450.776731727
 20
1079.1034378899
 30
0.0
 10
450.7514924664
 20
1079.3554533279
 30
0.0
 10
450.6574562034
 20
1079.6423011512
 30
0.0
 10
450.5486217177
 20
1079.8128653685
 30
0.0
 10
450.444752683
 20
1079.9217130713
 30
0.0
 10
450.3408750569
 20
1079.9668223785
 30
0.0
 10
450.2767302097
 20
1079.9668368722
 30
0.0
  0
SPLINE
  5
33D
100
AcDbEntity
  8
0
100
AcDbSpline
 62
7
  6
BYLAYER
 70
0
 71
3
 72
12
 73
8
 74
0
 42
0.0000001
 43
0.0000001
 44
0.0000000001
 40
0.0
 40
0.0
 40
0.0
 40
0.0
 40
0.1249607169
 40
0.2501491118
 40
0.4995020359
 40
0.7494105011
 40
1.0
 40
1.0
 40
1.0
 40
1.0
 10
467.7767331505
 20
1077.9668368718
 30
0.0
 10
467.7767332862
 20
1077.8838287895
 30
0.0
 10
467.8088797128
 20
1077.7165665892
 30
0.0
 10
467.9717686072
 20
1077.423330454
 30
0.0
 10
468.2965496086
 20
1077.1447347542
 30
0.0
 10
468.7749361663
 20
1076.9737566491
 30
0.0
 10
469.1102732082
 20
1076.9668368641
 30
0.0
 10
469.2767331505
 20
1076.9668368718
 30
0.0
  0
SPLINE
  5
33E
100
AcDbEntity
  8
0
100
AcDbSpline
 62
7
  6
BYLAYER
 70
0
 71
3
 72
12
 73
8
 74
0
 42
0.0000001
 43
0.0000001
 44
0.0000000001
 40
0.0
 40
0.0
 40
0.0
 40
0.0
 40
0.1204115357
 40
0.2167519688
 40
0.3384069038
 40
0.6443218671
 40
1.0
 40
1.0
 40
1.0
 40
1.0
 10
481.0514542784
 20
1079.9668368718
 30
0.0
 10
481.0947198318
 20
1079.9668368718
 30
0.0
 10
481.1596062667
 20
1079.8982209591
 30
0.0
 10
481.2091987502
 20
1079.7917023837
 30
0.0
 10
481.2684262471
 20
1079.6106372207
 30
0.0
 10
481.3135807267
 20
1079.3327217853
 30
0.0
 10
481.3261754063
 20
1079.0946370128
 30
0.0
 10
481.3261754063
 20
1078.9668368718
 30
0.0
  0
SPLINE
  5
33F
100
AcDbEntity
  8
0
100
AcDbSpline
 62
7
  6
BYLAYER
 70
0
 71
3
 72
9
 73
5
 74
0
 42
0.0000001
 43
0.0000001
 44
0.0000000001
 40
0.0
 40
0.0
 40
0.0
 40
0.0
 40
0.2472785885
 40
1.0
 40
1.0
 40
1.0
 40
1.0
 10
477.6888148424
 20
1076.9668368718
 30
0.0
 10
477.6413859154
 20
1076.9842711576
 30
0.0
 10
477.4494716096
 20
1077.0544694086
 30
0.0
 10
477.256895327
 20
1077.12289729
 30
0.0
 10
477.1112518743
 20
1077.1723795758
 30
0.0
  0
SPLINE
  5
340
100
AcDbEntity
  8
0
100
AcDbSpline
 62
7
  6
BYLAYER
 70
0
 71
3
 72
9
 73
5
 74
0
 42
0.0000001
 43
0.0000001
 44
0.0000000001
 40
0.0
 40
0.0
 40
0.0
 40
0.0
 40
0.7518345395
 40
1.0
 40
1.0
 40
1.0
 40
1.0
 10
477.2465353786
 20
1077.3779223878
 30
0.0
 10
477.3607370452
 20
1077.2786215513
 30
0.0
 10
477.5087064305
 20
1077.1419964709
 30
0.0
 10
477.6531474606
 20
1077.0018103995
 30
0.0
 10
477.6888149367
 20
1076.9668369759
 30
0.0
  0
SPLINE
  5
341
100
AcDbEntity
  8
0
100
AcDbSpline
 62
7
  6
BYLAYER
 70
0
 71
3
 72
10
 73
6
 74
0
 42
0.0000001
 43
0.0000001
 44
0.0000000001
 40
0.0
 40
0.0
 40
0.0
 40
0.0
 40
0.2114258548
 40
0.4596612947
 40
1.0
 40
1.0
 40
1.0
 40
1.0
 10
476.18904838
 20
1077.9668368718
 30
0.0
 10
476.2754493831
 20
1077.9668362853
 30
0.0
 10
476.4607434906
 20
1077.9110819105
 30
0.0
 10
476.8196837463
 20
1077.7177002061
 30
0.0
 10
477.0798895403
 20
1077.5227948269
 30
0.0
 10
477.2465352848
 20
1077.3779222798
 30
0.0
  0
SPLINE
  5
342
100
AcDbEntity
  8
0
100
AcDbSpline
 62
7
  6
BYLAYER
 70
0
 71
3
 72
10
 73
6
 74
0
 42
0.0000001
 43
0.0000001
 44
0.0000000001
 40
0.0
 40
0.0
 40
0.0
 40
0.0
 40
0.5192781373
 40
0.7706703291
 40
1.0
 40
1.0
 40
1.0
 40
1.0
 10
477.1112519337
 20
1077.1723797815
 30
0.0
 10
476.895537654
 20
1077.2488829698
 30
0.0
 10
476.5697340185
 20
1077.3479259575
 30
0.0
 10
476.1391421381
 20
1077.441821863
 30
0.0
 10
475.9275667473
 20
1077.4668366343
 30
0.0
 10
475.8264867333
 20
1077.4668368718
 30
0.0
  0
SPLINE
  5
343
100
AcDbEntity
  8
0
100
AcDbSpline
 62
7
  6
BYLAYER
 70
0
 71
3
 72
9
 73
5
 74
0
 42
0.0000001
 43
0.0000001
 44
0.0000000001
 40
0.0
 40
0.0
 40
0.0
 40
0.0
 40
0.2566268573
 40
1.0
 40
1.0
 40
1.0
 40
1.0
 10
477.1233949831
 20
1076.9668368718
 30
0.0
 10
477.1233949831
 20
1076.9844561275
 30
0.0
 10
477.1223902227
 20
1077.053105678
 30
0.0
 10
477.1175267662
 20
1077.1217289367
 30
0.0
 10
477.1112518743
 20
1077.1723795758
 30
0.0
  0
SPLINE
  5
344
100
AcDbEntity
  8
0
100
AcDbSpline
 62
7
  6
BYLAYER
 70
0
 71
3
 72
12
 73
8
 74
0
 42
0.0000001
 43
0.0000001
 44
0.0000000001
 40
0.0
 40
0.0
 40
0.0
 40
0.0
 40
0.3555601317
 40
0.6614267398
 40
0.7831217149
 40
0.8795320322
 40
1.0
 40
1.0
 40
1.0
 40
1.0
 10
477.6888148424
 20
1078.9668368718
 30
0.0
 10
477.6888148424
 20
1079.0945941531
 30
0.0
 10
477.6762283127
 20
1079.3326186516
 30
0.0
 10
477.6310953966
 20
1079.610488275
 30
0.0
 10
477.5718862787
 20
1079.7915834498
 30
0.0
 10
477.5222898
 20
1079.8981587537
 30
0.0
 10
477.4573793888
 20
1079.9668368718
 30
0.0
 10
477.4140937145
 20
1079.9668368718
 30
0.0
  0
SPLINE
  5
345
100
AcDbEntity
  8
0
100
AcDbSpline
 62
7
  6
BYLAYER
 70
0
 71
3
 72
11
 73
7
 74
0
 42
0.0000001
 43
0.0000001
 44
0.0000000001
 40
0.0
 40
0.0
 40
0.0
 40
0.0
 40
0.2742864213
 40
0.5514542927
 40
0.7962818329
 40
1.0
 40
1.0
 40
1.0
 40
1.0
 10
476.189048381
 20
1077.9668368718
 30
0.0
 10
476.1890483743
 20
1077.9049037184
 30
0.0
 10
476.1723546951
 20
1077.7797019551
 30
0.0
 10
476.0965969229
 20
1077.6131175606
 30
0.0
 10
475.9749695668
 20
1077.4954769068
 30
0.0
 10
475.8724857643
 20
1077.4668368714
 30
0.0
 10
475.8264867374
 20
1077.4668368718
 30
0.0
  0
SPLINE
  5
346
100
AcDbEntity
  8
0
100
AcDbSpline
 62
7
  6
BYLAYER
 70
0
 71
3
 72
12
 73
8
 74
0
 42
0.0000001
 43
0.0000001
 44
0.0000000001
 40
0.0
 40
0.0
 40
0.0
 40
0.0
 40
0.1596770904
 40
0.2582781683
 40
0.3740954473
 40
0.6599411656
 40
1.0
 40
1.0
 40
1.0
 40
1.0
 10
460.2767351848
 20
1079.9668368721
 30
0.0
 10
460.2125911037
 20
1079.9668237409
 30
0.0
 10
460.1087144231
 20
1079.92171378
 30
0.0
 10
460.0048462854
 20
1079.8128685455
 30
0.0
 10
459.8960126113
 20
1079.6423080706
 30
0.0
 10
459.8019735243
 20
1079.3554600665
 30
0.0
 10
459.7767343363
 20
1079.1034423289
 30
0.0
 10
459.7767336914
 20
1078.9668368718
 30
0.0
  0
SPLINE
  5
347
100
AcDbEntity
  8
0
100
AcDbSpline
 62
7
  6
BYLAYER
 70
0
 71
3
 72
12
 73
8
 74
0
 42
0.0000001
 43
0.0000001
 44
0.0000000001
 40
0.0
 40
0.0
 40
0.0
 40
0.0
 40
0.1249612752
 40
0.2501494132
 40
0.4995021241
 40
0.7494103699
 40
1.0
 40
1.0
 40
1.0
 40
1.0
 10
436.7767331505
 20
1077.9668368718
 30
0.0
 10
436.7767329303
 20
1077.8838284181
 30
0.0
 10
436.744586447
 20
1077.7165660055
 30
0.0
 10
436.581697197
 20
1077.4233299993
 30
0.0
 10
436.2569165156
 20
1077.1447347263
 30
0.0
 10
435.7785301761
 20
1076.9737566355
 30
0.0
 10
435.4431931814
 20
1076.9668368304
 30
0.0
 10
435.2767331505
 20
1076.9668368718
 30
0.0
  0
SPLINE
  5
348
100
AcDbEntity
  8
0
100
AcDbSpline
 62
7
  6
BYLAYER
 70
0
 71
3
 72
12
 73
8
 74
0
 42
0.0000001
 43
0.0000001
 44
0.0000000001
 40
0.0
 40
0.0
 40
0.0
 40
0.0
 40
0.3400478243
 40
0.6258993088
 40
0.7417192743
 40
0.8403210027
 40
1.0
 40
1.0
 40
1.0
 40
1.0
 10
459.7764937211
 20
97.4667267333
 30
0.0
 10
459.7764937215
 20
97.3301257045
 30
0.0
 10
459.8017329641
 20
97.0781102382
 30
0.0
 10
459.8957693096
 20
96.7912624356
 30
0.0
 10
460.0046037021
 20
96.6206981449
 30
0.0
 10
460.1084728261
 20
96.5118505309
 30
0.0
 10
460.2123504119
 20
96.4667412201
 30
0.0
 10
460.2764952562
 20
96.4667267329
 30
0.0
  0
SPLINE
  5
349
100
AcDbEntity
  8
0
100
AcDbSpline
 62
7
  6
BYLAYER
 70
0
 71
3
 72
12
 73
8
 74
0
 42
0.0000001
 43
0.0000001
 44
0.0000000001
 40
0.0
 40
0.0
 40
0.0
 40
0.0
 40
0.1204115357
 40
0.2167519688
 40
0.3384069038
 40
0.6443218671
 40
1.0
 40
1.0
 40
1.0
 40
1.0
 10
477.4138529773
 20
96.4667267333
 30
0.0
 10
477.4571185307
 20
96.4667267333
 30
0.0
 10
477.5220049656
 20
96.535342646
 30
0.0
 10
477.5715974491
 20
96.6418612214
 30
0.0
 10
477.630824946
 20
96.8229263845
 30
0.0
 10
477.6759794256
 20
97.1008418198
 30
0.0
 10
477.6885741052
 20
97.3389265923
 30
0.0
 10
477.6885741052
 20
97.4667267333
 30
0.0
  0
SPLINE
  5
34A
100
AcDbEntity
  8
0
100
AcDbSpline
 62
7
  6
BYLAYER
 70
0
 71
3
 72
16
 73
12
 74
0
 42
0.0000001
 43
0.0000001
 44
0.0000000001
 40
0.0
 40
0.0
 40
0.0
 40
0.0
 40
0.0116495546
 40
0.042737298
 40
0.0879609725
 40
0.1436762813
 40
0.2759947698
 40
0.4258123044
 40
0.5821235967
 40
0.7363726357
 40
1.0
 40
1.0
 40
1.0
 40
1.0
 10
428.2764924208
 20
98.9667267305
 30
0.0
 10
428.2782285177
 20
98.9645338372
 30
0.0
 10
428.2889495254
 20
98.9617035481
 30
0.0
 10
428.305702025
 20
98.9492321131
 30
0.0
 10
428.3330022315
 20
98.932821508
 30
0.0
 10
428.3787334121
 20
98.9005680707
 30
0.0
 10
428.4438635697
 20
98.852081712
 30
0.0
 10
428.5257934612
 20
98.7862652919
 30
0.0
 10
428.6105786563
 20
98.7142002395
 30
0.0
 10
428.7069460856
 20
98.6199463267
 30
0.0
 10
428.7764922684
 20
98.5300207479
 30
0.0
 10
428.7764924233
 20
98.4667267333
 30
0.0
  0
SPLINE
  5
34B
100
AcDbEntity
  8
0
100
AcDbSpline
 62
7
  6
BYLAYER
 70
0
 71
3
 72
12
 73
8
 74
0
 42
0.0000001
 43
0.0000001
 44
0.0000000001
 40
0.0
 40
0.0
 40
0.0
 40
0.0
 40
0.1249608927
 40
0.2501492077
 40
0.4995019733
 40
0.7494104792
 40
1.0
 40
1.0
 40
1.0
 40
1.0
 10
436.7764924134
 20
98.4667267333
 30
0.0
 10
436.776492193
 20
98.5497349326
 30
0.0
 10
436.7443458351
 20
98.7169972005
 30
0.0
 10
436.5814568204
 20
99.0102332451
 30
0.0
 10
436.2566759527
 20
99.2888288347
 30
0.0
 10
435.7782894553
 20
99.4598069461
 30
0.0
 10
435.4429523708
 20
99.4667267747
 30
0.0
 10
435.2764924134
 20
99.4667267333
 30
0.0
  0
SPLINE
  5
34C
100
AcDbEntity
  8
0
100
AcDbSpline
 62
7
  6
BYLAYER
 70
0
 71
3
 72
12
 73
8
 74
0
 42
0.0000001
 43
0.0000001
 44
0.0000000001
 40
0.0
 40
0.0
 40
0.0
 40
0.0
 40
0.1596770812
 40
0.2582781532
 40
0.3740954272
 40
0.6599411459
 40
1.0
 40
1.0
 40
1.0
 40
1.0
 10
450.2764904715
 20
96.466726733
 30
0.0
 10
450.3406345499
 20
96.4667398572
 30
0.0
 10
450.444511231
 20
96.5118498079
 30
0.0
 10
450.5483793705
 20
96.620695033
 30
0.0
 10
450.6572130504
 20
96.7912555032
 30
0.0
 10
450.7512521453
 20
97.0781035166
 30
0.0
 10
450.7764913364
 20
97.3301212662
 30
0.0
 10
450.7764919814
 20
97.4667267333
 30
0.0
  0
SPLINE
  5
34D
100
AcDbEntity
  8
0
100
AcDbSpline
 62
7
  6
BYLAYER
 70
0
 71
3
 72
12
 73
8
 74
0
 42
0.0000001
 43
0.0000001
 44
0.0000000001
 40
0.0
 40
0.0
 40
0.0
 40
0.0
 40
0.1249612752
 40
0.2501494132
 40
0.4995021241
 40
0.7494103699
 40
1.0
 40
1.0
 40
1.0
 40
1.0
 10
467.7764924134
 20
98.4667267333
 30
0.0
 10
467.7764926337
 20
98.5497351871
 30
0.0
 10
467.8086391169
 20
98.7169975996
 30
0.0
 10
467.9715283669
 20
99.0102336058
 30
0.0
 10
468.2963090483
 20
99.2888288788
 30
0.0
 10
468.7746953878
 20
99.4598069696
 30
0.0
 10
469.1100323826
 20
99.4667267747
 30
0.0
 10
469.2764924134
 20
99.4667267333
 30
0.0
  0
SPLINE
  5
34E
100
AcDbEntity
  8
0
100
AcDbSpline
 62
7
  6
BYLAYER
 70
0
 71
3
 72
12
 73
8
 74
0
 42
0.0000001
 43
0.0000001
 44
0.0000000001
 40
0.0
 40
0.0
 40
0.0
 40
0.0
 40
0.3555601317
 40
0.6614267398
 40
0.7831217149
 40
0.8795320322
 40
1.0
 40
1.0
 40
1.0
 40
1.0
 10
481.3259346692
 20
97.4667267333
 30
0.0
 10
481.3259346692
 20
97.338969452
 30
0.0
 10
481.3133481395
 20
97.1009449535
 30
0.0
 10
481.2682152234
 20
96.8230753301
 30
0.0
 10
481.2090061055
 20
96.6419801553
 30
0.0
 10
481.1594096268
 20
96.5354048514
 30
0.0
 10
481.0944992156
 20
96.4667267333
 30
0.0
 10
481.0512135413
 20
96.4667267333
 30
0.0
  0
SPLINE
  5
34F
100
AcDbEntity
  8
0
100
AcDbSpline
 62
7
  6
BYLAYER
 70
0
 71
3
 72
9
 73
5
 74
0
 42
0.0000001
 43
0.0000001
 44
0.0000000001
 40
0.0
 40
0.0
 40
0.0
 40
0.0
 40
0.2481650378
 40
1.0
 40
1.0
 40
1.0
 40
1.0
 10
477.6885742374
 20
99.4667265875
 30
0.0
 10
477.6529068125
 20
99.4317532331
 30
0.0
 10
477.5084657586
 20
99.2915671865
 30
0.0
 10
477.360496409
 20
99.1549420675
 30
0.0
 10
477.2462946791
 20
99.055641174
 30
0.0
  0
SPLINE
  5
350
100
AcDbEntity
  8
0
100
AcDbSpline
 62
7
  6
BYLAYER
 70
0
 71
3
 72
9
 73
5
 74
0
 42
0.0000001
 43
0.0000001
 44
0.0000000001
 40
0.0
 40
0.0
 40
0.0
 40
0.0
 40
0.2472783312
 40
1.0
 40
1.0
 40
1.0
 40
1.0
 10
477.6885741052
 20
99.4667267333
 30
0.0
 10
477.6411452258
 20
99.4492924781
 30
0.0
 10
477.449228342
 20
99.379101327
 30
0.0
 10
477.2566546346
 20
99.3106663216
 30
0.0
 10
477.1110111372
 20
99.2611840293
 30
0.0
  0
SPLINE
  5
351
100
AcDbEntity
  8
0
100
AcDbSpline
 62
7
  6
BYLAYER
 70
0
 71
3
 72
10
 73
6
 74
0
 42
0.0000001
 43
0.0000001
 44
0.0000000001
 40
0.0
 40
0.0
 40
0.0
 40
0.0
 40
0.2114262679
 40
0.4596614222
 40
1.0
 40
1.0
 40
1.0
 40
1.0
 10
476.1888076222
 20
98.4667267333
 30
0.0
 10
476.2752087949
 20
98.4667273157
 30
0.0
 10
476.4605029439
 20
98.5224818074
 30
0.0
 10
476.8194431679
 20
98.7158635384
 30
0.0
 10
477.0796488541
 20
98.9107687959
 30
0.0
 10
477.2462945476
 20
99.0556413253
 30
0.0
  0
SPLINE
  5
352
100
AcDbEntity
  8
0
100
AcDbSpline
 62
7
  6
BYLAYER
 70
0
 71
3
 72
11
 73
7
 74
0
 42
0.0000001
 43
0.0000001
 44
0.0000000001
 40
0.0
 40
0.0
 40
0.0
 40
0.0
 40
0.2037181708
 40
0.4485457117
 40
0.7257135813
 40
1.0
 40
1.0
 40
1.0
 40
1.0
 10
475.8262459821
 20
98.9667267333
 30
0.0
 10
475.87224501
 20
98.9667267337
 30
0.0
 10
475.9747288137
 20
98.9380866985
 30
0.0
 10
476.0963561705
 20
98.8204460439
 30
0.0
 10
476.1721139409
 20
98.6538616491
 30
0.0
 10
476.1888076178
 20
98.5286598862
 30
0.0
 10
476.1888076233
 20
98.4667267333
 30
0.0
  0
SPLINE
  5
353
100
AcDbEntity
  8
0
100
AcDbSpline
 62
7
  6
BYLAYER
 70
0
 71
3
 72
9
 73
5
 74
0
 42
0.0000001
 43
0.0000001
 44
0.0000000001
 40
0.0
 40
0.0
 40
0.0
 40
0.0
 40
0.2408658181
 40
1.0
 40
1.0
 40
1.0
 40
1.0
 10
477.1110111372
 20
99.2611840293
 30
0.0
 10
477.1130443412
 20
99.2775959593
 30
0.0
 10
477.1202833234
 20
99.3458790358
 30
0.0
 10
477.1231542459
 20
99.4146060118
 30
0.0
 10
477.1231542459
 20
99.4667267333
 30
0.0
  0
SPLINE
  5
354
100
AcDbEntity
  8
0
100
AcDbSpline
 62
7
  6
BYLAYER
 70
0
 71
3
 72
10
 73
6
 74
0
 42
0.0000001
 43
0.0000001
 44
0.0000000001
 40
0.0
 40
0.0
 40
0.0
 40
0.0
 40
0.2293296864
 40
0.4807218845
 40
1.0
 40
1.0
 40
1.0
 40
1.0
 10
475.8262460028
 20
98.9667267333
 30
0.0
 10
475.9273260231
 20
98.9667269698
 30
0.0
 10
476.1389014229
 20
98.9917417409
 30
0.0
 10
476.5694933013
 20
99.0856376462
 30
0.0
 10
476.8952969309
 20
99.1846806254
 30
0.0
 10
477.1110111997
 20
99.2611838129
 30
0.0
  0
SPLINE
  5
355
100
AcDbEntity
  8
0
100
AcDbSpline
 62
7
  6
BYLAYER
 70
0
 71
3
 72
13
 73
9
 74
0
 42
0.0000001
 43
0.0000001
 44
0.0000000001
 40
0.0
 40
0.0
 40
0.0
 40
0.0
 40
0.1861537513
 40
0.3431998769
 40
0.5191581911
 40
0.6928056202
 40
0.8431978215
 40
1.0
 40
1.0
 40
1.0
 40
1.0
 10
465.7601155384
 20
1076.9556426208
 30
0.0
 10
465.7595377262
 20
1076.8949830894
 30
0.0
 10
465.7595853152
 20
1076.7834536086
 30
0.0
 10
465.7593100905
 20
1076.6130063008
 30
0.0
 10
465.7592834568
 20
1076.4528942306
 30
0.0
 10
465.759389889
 20
1076.2719769367
 30
0.0
 10
465.7594246353
 20
1076.1743824192
 30
0.0
 10
465.7600602393
 20
1075.9269360114
 30
0.0
 10
465.7605469456
 20
1075.9780311228
 30
0.0
  0
SPLINE
  5
356
100
AcDbEntity
  8
0
100
AcDbSpline
 62
7
  6
BYLAYER
 70
0
 71
3
 72
13
 73
9
 74
0
 42
0.0000001
 43
0.0000001
 44
0.0000000001
 40
0.0
 40
0.0
 40
0.0
 40
0.0
 40
0.1861537513
 40
0.3431998769
 40
0.5191581911
 40
0.6928056202
 40
0.8431978215
 40
1.0
 40
1.0
 40
1.0
 40
1.0
 10
465.7933507627
 20
1076.9556426208
 30
0.0
 10
465.7939285749
 20
1076.8949830894
 30
0.0
 10
465.7938809859
 20
1076.7834536086
 30
0.0
 10
465.7941562106
 20
1076.6130063008
 30
0.0
 10
465.7941828443
 20
1076.4528942306
 30
0.0
 10
465.7940764121
 20
1076.2719769367
 30
0.0
 10
465.7940416658
 20
1076.1743824192
 30
0.0
 10
465.7934060618
 20
1075.9269360114
 30
0.0
 10
465.7929193554
 20
1075.9780311228
 30
0.0
  0
SPLINE
  5
357
100
AcDbEntity
  8
0
100
AcDbSpline
 62
7
  6
BYLAYER
 70
0
 71
3
 72
13
 73
9
 74
0
 42
0.0000001
 43
0.0000001
 44
0.0000000001
 40
0.0
 40
0.0
 40
0.0
 40
0.0
 40
0.1861537513
 40
0.3431998769
 40
0.5191581911
 40
0.6928056202
 40
0.8431978215
 40
1.0
 40
1.0
 40
1.0
 40
1.0
 10
465.7601155384
 20
1076.9556426208
 30
0.0
 10
465.7595377262
 20
1076.8949830894
 30
0.0
 10
465.7595853152
 20
1076.7834536086
 30
0.0
 10
465.7593100905
 20
1076.6130063008
 30
0.0
 10
465.7592834568
 20
1076.4528942306
 30
0.0
 10
465.759389889
 20
1076.2719769367
 30
0.0
 10
465.7594246353
 20
1076.1743824192
 30
0.0
 10
465.7600602393
 20
1075.9269360114
 30
0.0
 10
465.7605469456
 20
1075.9780311228
 30
0.0
  0
SPLINE
  5
358
100
AcDbEntity
  8
0
100
AcDbSpline
 62
7
  6
BYLAYER
 70
0
 71
3
 72
13
 73
9
 74
0
 42
0.0000001
 43
0.0000001
 44
0.0000000001
 40
0.0
 40
0.0
 40
0.0
 40
0.0
 40
0.1861537513
 40
0.3431998769
 40
0.5191581911
 40
0.6928056202
 40
0.8431978215
 40
1.0
 40
1.0
 40
1.0
 40
1.0
 10
465.7933507627
 20
1076.9556426208
 30
0.0
 10
465.7939285749
 20
1076.8949830894
 30
0.0
 10
465.7938809859
 20
1076.7834536086
 30
0.0
 10
465.7941562106
 20
1076.6130063008
 30
0.0
 10
465.7941828443
 20
1076.4528942306
 30
0.0
 10
465.7940764121
 20
1076.2719769367
 30
0.0
 10
465.7940416658
 20
1076.1743824192
 30
0.0
 10
465.7934060618
 20
1075.9269360114
 30
0.0
 10
465.7929193554
 20
1075.9780311228
 30
0.0
  0
SPLINE
  5
359
100
AcDbEntity
  8
0
100
AcDbSpline
 62
7
  6
BYLAYER
 70
0
 71
3
 72
13
 73
9
 74
0
 42
0.0000001
 43
0.0000001
 44
0.0000000001
 40
0.0
 40
0.0
 40
0.0
 40
0.0
 40
0.1862139205
 40
0.3432809426
 40
0.5192503754
 40
0.6928978042
 40
0.8432788864
 40
1.0
 40
1.0
 40
1.0
 40
1.0
 10
443.293350942
 20
1076.9556237889
 30
0.0
 10
443.2939284165
 20
1076.8949469838
 30
0.0
 10
443.2938812122
 20
1076.7833955889
 30
0.0
 10
443.2941562125
 20
1076.6129242175
 30
0.0
 10
443.2941828902
 20
1076.4528095154
 30
0.0
 10
443.2940762098
 20
1076.2718949861
 30
0.0
 10
443.2940419888
 20
1076.1743346534
 30
0.0
 10
443.2934051895
 20
1075.9269832222
 30
0.0
 10
443.2929191761
 20
1075.9780499547
 30
0.0
  0
SPLINE
  5
35A
100
AcDbEntity
  8
0
100
AcDbSpline
 62
7
  6
BYLAYER
 70
0
 71
3
 72
13
 73
9
 74
0
 42
0.0000001
 43
0.0000001
 44
0.0000000001
 40
0.0
 40
0.0
 40
0.0
 40
0.0
 40
0.1862139205
 40
0.3432809426
 40
0.5192503754
 40
0.6928978042
 40
0.8432788864
 40
1.0
 40
1.0
 40
1.0
 40
1.0
 10
443.2601153591
 20
1076.9556237889
 30
0.0
 10
443.2595378846
 20
1076.8949469838
 30
0.0
 10
443.2595850889
 20
1076.7833955889
 30
0.0
 10
443.2593100886
 20
1076.6129242175
 30
0.0
 10
443.2592834109
 20
1076.4528095154
 30
0.0
 10
443.2593900913
 20
1076.2718949861
 30
0.0
 10
443.2594243123
 20
1076.1743346534
 30
0.0
 10
443.2600611116
 20
1075.9269832222
 30
0.0
 10
443.260547125
 20
1075.9780499547
 30
0.0
  0
SPLINE
  5
35B
100
AcDbEntity
  8
0
100
AcDbSpline
 62
7
  6
BYLAYER
 70
0
 71
3
 72
13
 73
9
 74
0
 42
0.0000001
 43
0.0000001
 44
0.0000000001
 40
0.0
 40
0.0
 40
0.0
 40
0.0
 40
0.1863502903
 40
0.3434646729
 40
0.5194593054
 40
0.6931067336
 40
0.8434626149
 40
1.0
 40
1.0
 40
1.0
 40
1.0
 10
443.2933513483
 20
1076.9555810551
 30
0.0
 10
443.2939280593
 20
1076.8948651123
 30
0.0
 10
443.2938817242
 20
1076.7832640706
 30
0.0
 10
443.294156217
 20
1076.6127381863
 30
0.0
 10
443.2941829941
 20
1076.4526175419
 30
0.0
 10
443.2940757512
 20
1076.2717092906
 30
0.0
 10
443.2940427204
 20
1076.1742264451
 30
0.0
 10
443.2934032168
 20
1075.9270902732
 30
0.0
 10
443.2929187698
 20
1075.9780926885
 30
0.0
  0
SPLINE
  5
35C
100
AcDbEntity
  8
0
100
AcDbSpline
 62
7
  6
BYLAYER
 70
0
 71
3
 72
13
 73
9
 74
0
 42
0.0000001
 43
0.0000001
 44
0.0000000001
 40
0.0
 40
0.0
 40
0.0
 40
0.0
 40
0.1863502903
 40
0.3434646729
 40
0.5194593054
 40
0.6931067336
 40
0.8434626149
 40
1.0
 40
1.0
 40
1.0
 40
1.0
 10
443.2601149528
 20
1076.9555810551
 30
0.0
 10
443.2595382418
 20
1076.8948651123
 30
0.0
 10
443.2595845769
 20
1076.7832640706
 30
0.0
 10
443.259310084
 20
1076.6127381863
 30
0.0
 10
443.259283307
 20
1076.4526175419
 30
0.0
 10
443.2593905499
 20
1076.2717092906
 30
0.0
 10
443.2594235807
 20
1076.1742264451
 30
0.0
 10
443.2600630843
 20
1075.9270902732
 30
0.0
 10
443.2605475313
 20
1075.9780926885
 30
0.0
  0
SPLINE
  5
35D
100
AcDbEntity
  8
0
100
AcDbSpline
 62
7
  6
BYLAYER
 70
0
 71
3
 72
13
 73
9
 74
0
 42
0.0000001
 43
0.0000001
 44
0.0000000001
 40
0.0
 40
0.0
 40
0.0
 40
0.0
 40
0.1861537513
 40
0.3431998769
 40
0.5191581911
 40
0.6928056202
 40
0.8431978215
 40
1.0
 40
1.0
 40
1.0
 40
1.0
 10
465.7601155384
 20
1076.9556426208
 30
0.0
 10
465.7595377262
 20
1076.8949830894
 30
0.0
 10
465.7595853152
 20
1076.7834536086
 30
0.0
 10
465.7593100905
 20
1076.6130063008
 30
0.0
 10
465.7592834568
 20
1076.4528942306
 30
0.0
 10
465.759389889
 20
1076.2719769367
 30
0.0
 10
465.7594246353
 20
1076.1743824192
 30
0.0
 10
465.7600602393
 20
1075.9269360114
 30
0.0
 10
465.7605469456
 20
1075.9780311228
 30
0.0
  0
SPLINE
  5
35E
100
AcDbEntity
  8
0
100
AcDbSpline
 62
7
  6
BYLAYER
 70
0
 71
3
 72
13
 73
9
 74
0
 42
0.0000001
 43
0.0000001
 44
0.0000000001
 40
0.0
 40
0.0
 40
0.0
 40
0.0
 40
0.1861537513
 40
0.3431998769
 40
0.5191581911
 40
0.6928056202
 40
0.8431978215
 40
1.0
 40
1.0
 40
1.0
 40
1.0
 10
465.7933507627
 20
1076.9556426208
 30
0.0
 10
465.7939285749
 20
1076.8949830894
 30
0.0
 10
465.7938809859
 20
1076.7834536086
 30
0.0
 10
465.7941562106
 20
1076.6130063008
 30
0.0
 10
465.7941828443
 20
1076.4528942306
 30
0.0
 10
465.7940764121
 20
1076.2719769367
 30
0.0
 10
465.7940416658
 20
1076.1743824192
 30
0.0
 10
465.7934060618
 20
1075.9269360114
 30
0.0
 10
465.7929193554
 20
1075.9780311228
 30
0.0
  0
SPLINE
  5
35F
100
AcDbEntity
  8
0
100
AcDbSpline
 62
7
  6
BYLAYER
 70
0
 71
3
 72
13
 73
9
 74
0
 42
0.0000001
 43
0.0000001
 44
0.0000000001
 40
0.0
 40
0.0
 40
0.0
 40
0.0
 40
0.1861537513
 40
0.3431998769
 40
0.5191581911
 40
0.6928056202
 40
0.8431978215
 40
1.0
 40
1.0
 40
1.0
 40
1.0
 10
465.7601155384
 20
1076.9556426208
 30
0.0
 10
465.7595377262
 20
1076.8949830894
 30
0.0
 10
465.7595853152
 20
1076.7834536086
 30
0.0
 10
465.7593100905
 20
1076.6130063008
 30
0.0
 10
465.7592834568
 20
1076.4528942306
 30
0.0
 10
465.759389889
 20
1076.2719769367
 30
0.0
 10
465.7594246353
 20
1076.1743824192
 30
0.0
 10
465.7600602393
 20
1075.9269360114
 30
0.0
 10
465.7605469456
 20
1075.9780311228
 30
0.0
  0
SPLINE
  5
360
100
AcDbEntity
  8
0
100
AcDbSpline
 62
7
  6
BYLAYER
 70
0
 71
3
 72
13
 73
9
 74
0
 42
0.0000001
 43
0.0000001
 44
0.0000000001
 40
0.0
 40
0.0
 40
0.0
 40
0.0
 40
0.1861537513
 40
0.3431998769
 40
0.5191581911
 40
0.6928056202
 40
0.8431978215
 40
1.0
 40
1.0
 40
1.0
 40
1.0
 10
465.7933507627
 20
1076.9556426208
 30
0.0
 10
465.7939285749
 20
1076.8949830894
 30
0.0
 10
465.7938809859
 20
1076.7834536086
 30
0.0
 10
465.7941562106
 20
1076.6130063008
 30
0.0
 10
465.7941828443
 20
1076.4528942306
 30
0.0
 10
465.7940764121
 20
1076.2719769367
 30
0.0
 10
465.7940416658
 20
1076.1743824192
 30
0.0
 10
465.7934060618
 20
1075.9269360114
 30
0.0
 10
465.7929193554
 20
1075.9780311228
 30
0.0
  0
SPLINE
  5
361
100
AcDbEntity
  8
0
100
AcDbSpline
 62
7
  6
BYLAYER
 70
0
 71
3
 72
13
 73
9
 74
0
 42
0.0000001
 43
0.0000001
 44
0.0000000001
 40
0.0
 40
0.0
 40
0.0
 40
0.0
 40
0.1862139205
 40
0.3432809426
 40
0.5192503754
 40
0.6928978042
 40
0.8432788864
 40
1.0
 40
1.0
 40
1.0
 40
1.0
 10
443.293350942
 20
1076.9556237889
 30
0.0
 10
443.2939284165
 20
1076.8949469838
 30
0.0
 10
443.2938812122
 20
1076.7833955889
 30
0.0
 10
443.2941562125
 20
1076.6129242175
 30
0.0
 10
443.2941828902
 20
1076.4528095154
 30
0.0
 10
443.2940762098
 20
1076.2718949861
 30
0.0
 10
443.2940419888
 20
1076.1743346534
 30
0.0
 10
443.2934051895
 20
1075.9269832222
 30
0.0
 10
443.2929191761
 20
1075.9780499547
 30
0.0
  0
SPLINE
  5
362
100
AcDbEntity
  8
0
100
AcDbSpline
 62
7
  6
BYLAYER
 70
0
 71
3
 72
13
 73
9
 74
0
 42
0.0000001
 43
0.0000001
 44
0.0000000001
 40
0.0
 40
0.0
 40
0.0
 40
0.0
 40
0.1862139205
 40
0.3432809426
 40
0.5192503754
 40
0.6928978042
 40
0.8432788864
 40
1.0
 40
1.0
 40
1.0
 40
1.0
 10
443.2601153591
 20
1076.9556237889
 30
0.0
 10
443.2595378846
 20
1076.8949469838
 30
0.0
 10
443.2595850889
 20
1076.7833955889
 30
0.0
 10
443.2593100886
 20
1076.6129242175
 30
0.0
 10
443.2592834109
 20
1076.4528095154
 30
0.0
 10
443.2593900913
 20
1076.2718949861
 30
0.0
 10
443.2594243123
 20
1076.1743346534
 30
0.0
 10
443.2600611116
 20
1075.9269832222
 30
0.0
 10
443.260547125
 20
1075.9780499547
 30
0.0
  0
SPLINE
  5
363
100
AcDbEntity
  8
0
100
AcDbSpline
 62
7
  6
BYLAYER
 70
0
 71
3
 72
13
 73
9
 74
0
 42
0.0000001
 43
0.0000001
 44
0.0000000001
 40
0.0
 40
0.0
 40
0.0
 40
0.0
 40
0.1863502903
 40
0.3434646729
 40
0.5194593054
 40
0.6931067336
 40
0.8434626149
 40
1.0
 40
1.0
 40
1.0
 40
1.0
 10
443.2933513483
 20
1076.9555810551
 30
0.0
 10
443.2939280593
 20
1076.8948651123
 30
0.0
 10
443.2938817242
 20
1076.7832640706
 30
0.0
 10
443.294156217
 20
1076.6127381863
 30
0.0
 10
443.2941829941
 20
1076.4526175419
 30
0.0
 10
443.2940757512
 20
1076.2717092906
 30
0.0
 10
443.2940427204
 20
1076.1742264451
 30
0.0
 10
443.2934032168
 20
1075.9270902732
 30
0.0
 10
443.2929187698
 20
1075.9780926885
 30
0.0
  0
SPLINE
  5
364
100
AcDbEntity
  8
0
100
AcDbSpline
 62
7
  6
BYLAYER
 70
0
 71
3
 72
13
 73
9
 74
0
 42
0.0000001
 43
0.0000001
 44
0.0000000001
 40
0.0
 40
0.0
 40
0.0
 40
0.0
 40
0.1863502903
 40
0.3434646729
 40
0.5194593054
 40
0.6931067336
 40
0.8434626149
 40
1.0
 40
1.0
 40
1.0
 40
1.0
 10
443.2601149528
 20
1076.9555810551
 30
0.0
 10
443.2595382418
 20
1076.8948651123
 30
0.0
 10
443.2595845769
 20
1076.7832640706
 30
0.0
 10
443.259310084
 20
1076.6127381863
 30
0.0
 10
443.259283307
 20
1076.4526175419
 30
0.0
 10
443.2593905499
 20
1076.2717092906
 30
0.0
 10
443.2594235807
 20
1076.1742264451
 30
0.0
 10
443.2600630843
 20
1075.9270902732
 30
0.0
 10
443.2605475313
 20
1075.9780926885
 30
0.0
  0
ENDSEC
  0
SECTION
  2
OBJECTS
  0
DICTIONARY
  5
C
100
AcDbDictionary
280
0
281
1
  3
ACAD_GROUP
350
D
  3
ACAD_MLINESTYLE
350
17
  3
ACAD_LAYOUT
350
1A
  3
ACAD_PLOTSETTINGS
350
19
  3
ACAD_PLOTSTYLENAME
350
E
  0
DICTIONARY
  5
D
102
{ACAD_REACTORS
330
C
102
}
100
AcDbDictionary
280
0
281
1
  0
ACDBDICTIONARYWDFLT
  5
E
102
{ACAD_REACTORS
330
C
102
}
100
AcDbDictionary
281
1
  3
Normal
350
F
100
AcDbDictionaryWithDefault
340
F
  0
DICTIONARY
  5
17
102
{ACAD_REACTORS
330
C
102
}
100
AcDbDictionary
280
0
281
1
  3
Standard
350
18
  0
DICTIONARY
  5
19
102
{ACAD_REACTORS
330
C
102
}
100
AcDbDictionary
281
1
  0
DICTIONARY
  5
1A
102
{ACAD_REACTORS
330
C
102
}
100
AcDbDictionary
281
1
  3
Model
350
365
  3
Layout1
350
366
  0
ACDBPLACEHOLDER
  5
F
102
{ACAD_REACTORS
330
E
102
}
  0
MLINESTYLE
  5
18
102
{ACAD_REACTORS
330
17
102
}
100
AcDbMlineStyle
  2
STANDARD
 70
0
  3

 62
256
 51
90.0
 52
90.0
 71
2
 49
0.5
 62
256
  6
BYLAYER
 49
-0.5
 62
256
  6
BYLAYER
  0
LAYOUT
  5
365
102
{ACAD_REACTORS
330
1A
102
}
100
AcDbPlotSettings
  1

  2
none_device
  4

  6

 40
0.0
 41
0.0
 42
0.0
 43
0.0
 44
210.0
 45
297.0
 46
0.0
 47
0.0
 48
0.0
 49
0.0
140
0.0
141
0.0
142
1.0
143
1.0
 70
1024
 72
1
 73
0
 74
0
  7

 75
0
147
1.0
148
0.0
149
0.0
100
AcDbLayout
  1
Model
 70
0
 71
0
 10
0.0
 20
0.0
 11
210.0
 21
297.0
 12
0.0
 22
0.0
 32
0.0
 14
0.0
 24
0.0
 34
0.0
 15
0.0
 25
0.0
 35
0.0
146
0.0
 13
0.0
 23
0.0
 33
0.0
 16
1.0
 26
0.0
 36
0.0
 17
0.0
 27
1.0
 37
0.0
 76
0
330
212
345
0
346
0
  0
LAYOUT
  5
366
102
{ACAD_REACTORS
330
1A
102
}
100
AcDbPlotSettings
  1

  2
none_device
  4

  6

 40
0.0
 41
0.0
 42
0.0
 43
0.0
 44
210.0
 45
297.0
 46
0.0
 47
0.0
 48
0.0
 49
0.0
140
0.0
141
0.0
142
1.0
143
1.0
 70
0
 72
1
 73
0
 74
0
  7

 75
0
147
1.0
148
0.0
149
0.0
100
AcDbLayout
  1
Layout1
 70
0
 71
1
 10
0.0
 20
0.0
 11
210.0
 21
297.0
 12
0.0
 22
0.0
 32
0.0
 14
0.0
 24
0.0
 34
0.0
 15
0.0
 25
0.0
 35
0.0
146
0.0
 13
0.0
 23
0.0
 33
0.0
 16
1.0
 26
0.0
 36
0.0
 17
0.0
 27
1.0
 37
0.0
 76
0
330
213
345
0
346
0
  0
ENDSEC
  0
EOF
