999
DXF file: C:\Users\sesa63760\Dev\_Creo\CAD\MCADID0004805_3D-CAD\drw0001_1.dxf
999
Pro/ENGINEER 2019471 by Parametric Technology Corporation
  0
SECTION
  2
HEADER
  9
$ACADVER
  1
AC1024
  9
$DWGCODEPAGE
  3
ANSI_1252
  9
$EXTMAX
 10
115.5178770273
 20
163.3752832244
 30
0.0
  9
$EXTMIN
 10
0.0
 20
0.0
 30
0.0
  9
$LIMMIN
 10
0.0
 20
0.0
  9
$LIMMAX
 10
115.5178770273
 20
163.3752832244
  9
$VIEWCTR
 10
57.7589385137
 20
81.6876416122
  9
$VIEWSIZE
 40
163.3752832244
  9
$CLAYER
  8
0
  9
$LTSCALE
 40
10.6496480917
  9
$CELTYPE
  6
BYLAYER
  9
$DIMSCALE
 40
1.0
  9
$DIMASZ
 40
1.3752128218
  9
$DIMEXO
 40
1.0
  9
$DIMDLI
 40
7.3579386815
  9
$DIMEXE
 40
1.0
  9
$DIMCEN
 40
1.7426696877
  9
$DIMLFAC
 40
1.0
  9
$DIMBLK
  1
_FILLED
  9
$DIMALT
 70
0
  9
$DIMALTF
 40
0.0393700787
  9
$DIMTXT
 40
1.9252979505
  9
$DIMTOL
 70
1
  9
$DIMLIM
 70
0
  9
$DIMTFAC
 40
1.0
  9
$DIMTP
 40
0.01
  9
$DIMTM
 40
0.01
  9
$DIMGAP
 40
0.625
  9
$DIMDSEP
 70
46
  9
$AUNITS
 70
0
  9
$PDMODE
 70
3
  9
$PDSIZE
 40
0.3125
  9
$HANDSEED
  5
268
  9
$TILEMODE
 70
1
  9
$MEASUREMENT
 70
1
  9
$INSUNITS
 70
4
  0
ENDSEC
  0
SECTION
  2
CLASSES
  0
CLASS
  1
ACDBDICTIONARYWDFLT
  2
AcDbDictionaryWithDefault
  3
AutoCAD 2000
 90
0
 91
1
280
0
281
0
  0
CLASS
  1
ACDBPLACEHOLDER
  2
AcDbPlaceHolder
  3
AutoCAD 2000
 90
0
 91
1
280
0
281
0
  0
CLASS
  1
LAYOUT
  2
AcDbLayout
  3
AutoCAD 2000
 90
0
 91
0
280
0
281
0
  0
ENDSEC
  0
SECTION
  2
TABLES
  0
TABLE
  2
VPORT
  5
8
100
AcDbSymbolTable
 70
2
  0
VPORT
  5
1F4
100
AcDbSymbolTableRecord
100
AcDbViewportTableRecord
  2
*ACTIVE
 70
0
 10
0.0
 20
0.0
 11
1.0
 21
1.0
 12
57.7589385137
 22
81.6876416122
 13
0.0
 23
0.0
 14
1.0
 24
1.0
 15
0.0
 25
0.0
 16
0.0
 26
0.0
 36
1.0
 17
0.0
 27
0.0
 37
0.0
 40
163.3752832244
 41
0.7070707071
 42
50.0
 43
0.0
 44
0.0
 50
0.0
 51
0.0
 71
0
 72
100
 73
1
 74
1
 75
0
 76
0
 77
0
 78
0
  0
ENDTAB
  0
TABLE
  2
LTYPE
  5
5
100
AcDbSymbolTable
 70
6
  0
LTYPE
  5
14
100
AcDbSymbolTableRecord
100
AcDbLinetypeTableRecord
  2
BYBLOCK
 70
0
  3

 72
65
 73
0
 40
0.0
  0
LTYPE
  5
15
100
AcDbSymbolTableRecord
100
AcDbLinetypeTableRecord
  2
BYLAYER
 70
0
  3

 72
65
 73
0
 40
0.0
  0
LTYPE
  5
16
100
AcDbSymbolTableRecord
100
AcDbLinetypeTableRecord
  2
CONTINUOUS
 70
64
  3
Solid line
 72
65
 73
0
 40
0.0
  0
LTYPE
  5
1F5
100
AcDbSymbolTableRecord
100
AcDbLinetypeTableRecord
  2
CENTER
 70
64
  3
____ _ ____ _ ____ _ ____ _ ____ _ ____ _ ____
 72
65
 73
4
 40
0.6
 49
0.375
 74
0
 49
-0.075
 74
0
 49
0.075
 74
0
 49
-0.075
 74
0
  0
LTYPE
  5
1F6
100
AcDbSymbolTableRecord
100
AcDbLinetypeTableRecord
  2
HIDDEN
 70
64
  3
- - - - - - - - - - - - - - - - - - - -
 72
65
 73
2
 40
0.2
 49
0.1
 74
0
 49
-0.1
 74
0
  0
LTYPE
  5
1F7
100
AcDbSymbolTableRecord
100
AcDbLinetypeTableRecord
  2
PHANTOM
 70
64
  3
_____ _ _ _____ _ _ _____ _ _ _____
 72
65
 73
6
 40
0.8
 49
0.45
 74
0
 49
-0.05
 74
0
 49
0.1
 74
0
 49
-0.05
 74
0
 49
0.1
 74
0
 49
-0.05
 74
0
  0
LTYPE
  5
1F8
100
AcDbSymbolTableRecord
100
AcDbLinetypeTableRecord
  2
DOT
 70
64
  3
. . . . . . . . . . . . . . . . . . . .
 72
65
 73
2
 40
0.2
 49
0.1
 74
0
 49
-0.1
 74
0
  0
LTYPE
  5
1F9
100
AcDbSymbolTableRecord
100
AcDbLinetypeTableRecord
  2
DASHED
 70
64
  3
- - - - - - - - - - - - - - - - - - - -
 72
65
 73
2
 40
0.2
 49
0.1
 74
0
 49
-0.1
 74
0
  0
ENDTAB
  0
TABLE
  2
LAYER
  5
2
100
AcDbSymbolTable
 70
36
  0
LAYER
  5
10
100
AcDbSymbolTableRecord
100
AcDbLayerTableRecord
  2
0
 70
0
 62
7
  6
CONTINUOUS
370
-3
390
F
  0
LAYER
  5
1FA
100
AcDbSymbolTableRecord
100
AcDbLayerTableRecord
  2
DEFAULT_1
 70
0
 62
7
  6
CENTER
370
-3
390
F
  0
LAYER
  5
1FB
100
AcDbSymbolTableRecord
100
AcDbLayerTableRecord
  2
DEFAULT_2
 70
0
 62
7
  6
HIDDEN
370
-3
390
F
  0
LAYER
  5
1FC
100
AcDbSymbolTableRecord
100
AcDbLayerTableRecord
  2
DEFAULT_3
 70
0
 62
7
  6
PHANTOM
370
-3
390
F
  0
LAYER
  5
1FD
100
AcDbSymbolTableRecord
100
AcDbLayerTableRecord
  2
00_COMPONENTS
 70
0
 62
7
  6
CONTINUOUS
370
-3
390
F
  0
LAYER
  5
1FE
100
AcDbSymbolTableRecord
100
AcDbLayerTableRecord
  2
01_1_DEFAULT_DATUMS
 70
0
 62
7
  6
CONTINUOUS
370
-3
390
F
  0
LAYER
  5
1FF
100
AcDbSymbolTableRecord
100
AcDbLayerTableRecord
  2
01_PLANES
 70
0
 62
7
  6
CONTINUOUS
370
-3
390
F
  0
LAYER
  5
200
100
AcDbSymbolTableRecord
100
AcDbLayerTableRecord
  2
02_COORD_SYS
 70
0
 62
7
  6
CONTINUOUS
370
-3
390
F
  0
LAYER
  5
201
100
AcDbSymbolTableRecord
100
AcDbLayerTableRecord
  2
03_AXES
 70
0
 62
7
  6
CONTINUOUS
370
-3
390
F
  0
LAYER
  5
202
100
AcDbSymbolTableRecord
100
AcDbLayerTableRecord
  2
04_POINTS
 70
0
 62
7
  6
CONTINUOUS
370
-3
390
F
  0
LAYER
  5
203
100
AcDbSymbolTableRecord
100
AcDbLayerTableRecord
  2
05_CURVES
 70
0
 62
7
  6
CONTINUOUS
370
-3
390
F
  0
LAYER
  5
204
100
AcDbSymbolTableRecord
100
AcDbLayerTableRecord
  2
06_SURFS
 70
0
 62
7
  6
CONTINUOUS
370
-3
390
F
  0
LAYER
  5
205
100
AcDbSymbolTableRecord
100
AcDbLayerTableRecord
  2
07_COSMETICS
 70
0
 62
7
  6
CONTINUOUS
370
-3
390
F
  0
LAYER
  5
206
100
AcDbSymbolTableRecord
100
AcDbLayerTableRecord
  2
10_NOTES
 70
0
 62
7
  6
CONTINUOUS
370
-3
390
F
  0
LAYER
  5
207
100
AcDbSymbolTableRecord
100
AcDbLayerTableRecord
  2
11_NOTES_PUB
 70
0
 62
7
  6
CONTINUOUS
370
-3
390
F
  0
LAYER
  5
208
100
AcDbSymbolTableRecord
100
AcDbLayerTableRecord
  2
13_REF_GTOL
 70
0
 62
7
  6
CONTINUOUS
370
-3
390
F
  0
LAYER
  5
209
100
AcDbSymbolTableRecord
100
AcDbLayerTableRecord
  2
16_MISC
 70
0
 62
7
  6
CONTINUOUS
370
-3
390
F
  0
LAYER
  5
20A
100
AcDbSymbolTableRecord
100
AcDbLayerTableRecord
  2
17_NO_PRINT
 70
0
 62
7
  6
CONTINUOUS
370
-3
390
F
  0
LAYER
  5
20B
100
AcDbSymbolTableRecord
100
AcDbLayerTableRecord
  2
18_DATUM_CAMS_JOINTS
 70
0
 62
7
  6
CONTINUOUS
370
-3
390
F
  0
LAYER
  5
20C
100
AcDbSymbolTableRecord
100
AcDbLayerTableRecord
  2
19_DATUM_FUNCTIONAL
 70
0
 62
7
  6
CONTINUOUS
370
-3
390
F
  0
LAYER
  5
20D
100
AcDbSymbolTableRecord
100
AcDbLayerTableRecord
  2
20_DATUM_KINEMATIC_SCHEME
 70
0
 62
7
  6
CONTINUOUS
370
-3
390
F
  0
ENDTAB
  0
TABLE
  2
STYLE
  5
3
100
AcDbSymbolTable
 70
1
  0
STYLE
  5
11
100
AcDbSymbolTableRecord
100
AcDbTextStyleTableRecord
  2
STANDARD
 70
0
 40
0.0
 41
1.0
 50
0.0
 71
0
 42
0.2
  3
ARIAL.TTF
  4

  0
STYLE
  5
20E
100
AcDbSymbolTableRecord
100
AcDbTextStyleTableRecord
  2
TEXTSTYLE_1
 70
0
 40
0.0
 41
0.8
 50
0.0
 71
0
 42
0.2
  3
gdt
  4

  0
ENDTAB
  0
TABLE
  2
VIEW
  5
6
100
AcDbSymbolTable
 70
0
  0
ENDTAB
  0
TABLE
  2
UCS
  5
7
100
AcDbSymbolTable
 70
0
  0
ENDTAB
  0
TABLE
  2
APPID
  5
9
100
AcDbSymbolTable
 70
1
  0
APPID
  5
20F
100
AcDbSymbolTableRecord
100
AcDbRegAppTableRecord
  2
ACAD
 70
0
  0
ENDTAB
  0
TABLE
  2
BLOCK_RECORD
  5
1
100
AcDbSymbolTable
 70
0
  0
BLOCK_RECORD
  5
210
100
AcDbSymbolTableRecord
100
AcDbBlockTableRecord
  2
*Model_Space
  0
BLOCK_RECORD
  5
211
100
AcDbSymbolTableRecord
100
AcDbBlockTableRecord
  2
*Paper_Space
  0
BLOCK_RECORD
  5
212
100
AcDbSymbolTableRecord
100
AcDbBlockTableRecord
  2
_FILLED
  0
ENDTAB
  0
TABLE
  2
DIMSTYLE
  5
A
100
AcDbSymbolTable
 70
1
100
AcDbDimStyleTable
 71
0
  0
DIMSTYLE
105
213
100
AcDbSymbolTableRecord
100
AcDbDimStyleTableRecord
  2
STANDARD
 70
0
  3

  4

 40
1.0
 41
1.3752128218
 42
1.0
 43
0.38
 44
1.0
 45
0.0
 46
0.0
 47
0.01
 48
0.01
140
1.9252979505
141
0.09
142
0.0
143
25.4
144
1.0
145
0.0
146
1.0
147
0.625
 71
1
 72
0
 73
0
 74
0
 75
0
 76
0
 77
1
 78
8
 79
2
170
0
171
1
172
0
173
0
174
0
175
0
176
0
177
0
178
0
270
2
179
2
271
2
272
2
273
2
274
2
275
0
280
0
281
0
282
0
283
1
284
8
285
0
286
0
287
3
288
0
340
11
278
46
341
212
342
212
343
212
344
212
  0
ENDTAB
  0
ENDSEC
  0
SECTION
  2
BLOCKS
  0
BLOCK
  5
20
100
AcDbEntity
  8
0
100
AcDbBlockBegin
  2
*Model_Space
 70
0
 10
0.0
 20
0.0
 30
0.0
  3
*Model_Space
  1

  0
ENDBLK
  5
21
100
AcDbEntity
  8
0
100
AcDbBlockEnd
  0
BLOCK
  5
1C
100
AcDbEntity
  8
0
100
AcDbBlockBegin
  2
*Paper_Space
 70
0
 10
0.0
 20
0.0
 30
0.0
  3
*Paper_Space
  1

  0
ENDBLK
  5
1D
100
AcDbEntity
  8
0
100
AcDbBlockEnd
  0
BLOCK
  5
214
100
AcDbEntity
  8
0
100
AcDbBlockBegin
  2
_FILLED
 70
64
 10
0.0
 20
0.0
  3
_FILLED
  1

  0
SOLID
  5
215
100
AcDbEntity
  8
0
  6
BYBLOCK
 62
0
100
AcDbTrace
 10
0.0
 20
0.0
 11
-1.0
 21
0.25
 12
-1.0
 22
-0.25
 13
-1.0
 23
-0.25
  0
ENDBLK
  5
216
100
AcDbEntity
  8
0
  6
BYBLOCK
 62
0
100
AcDbBlockEnd
  0
ENDSEC
  0
SECTION
  2
ENTITIES
  0
LINE
  5
217
100
AcDbEntity
  8
0
100
AcDbLine
 62
7
  6
BYLAYER
 10
13.4014027999
 20
55.7593492124
 11
13.4014027999
 21
58.2088564638
  0
LINE
  5
218
100
AcDbEntity
  8
0
100
AcDbLine
 62
7
  6
BYLAYER
 10
15.5227319754
 20
56.9841342002
 11
15.5227319754
 21
54.5346269488
  0
LINE
  5
219
100
AcDbEntity
  8
0
100
AcDbLine
 62
7
  6
BYLAYER
 10
15.5227319754
 20
54.5346269488
 11
13.4014027999
 21
55.7593492124
  0
LINE
  5
21A
100
AcDbEntity
  8
0
100
AcDbLine
 62
7
  6
BYLAYER
 10
13.4014027999
 20
58.2088564638
 11
15.5227319754
 21
56.9841342002
  0
LINE
  5
21B
100
AcDbEntity
  8
0
100
AcDbLine
 62
7
  6
BYLAYER
 10
34.4104579903
 20
73.6405590752
 11
34.4104579903
 21
70.3383677299
  0
LINE
  5
21C
100
AcDbEntity
  8
0
100
AcDbLine
 62
7
  6
BYLAYER
 10
34.4104579903
 20
65.4393955552
 11
34.4104579903
 21
64.3732566407
  0
LINE
  5
21D
100
AcDbEntity
  8
0
100
AcDbLine
 62
7
  6
BYLAYER
 10
36.4492048492
 20
73.1936596589
 11
36.4492048492
 21
74.0874214203
  0
LINE
  5
21E
100
AcDbEntity
  8
0
100
AcDbLine
 62
7
  6
BYLAYER
 10
38.1604784133
 20
70.8084775624
 11
38.1604683375
 21
72.2056872953
  0
LINE
  5
21F
100
AcDbEntity
  8
0
100
AcDbLine
 62
7
  6
BYLAYER
 10
38.1604476431
 20
73.0341459677
 11
38.1604375674
 21
76.4726117435
  0
LINE
  5
220
100
AcDbEntity
  8
0
100
AcDbLine
 62
7
  6
BYLAYER
 10
39.2550787924
 20
75.0633433341
 11
39.2550787924
 21
77.1045993769
  0
LINE
  5
221
100
AcDbEntity
  8
0
100
AcDbLine
 62
7
  6
BYLAYER
 10
41.4984569624
 20
64.6327311419
 11
41.4984569624
 21
63.4079775162
  0
LINE
  5
222
100
AcDbEntity
  8
0
100
AcDbLine
 62
7
  6
BYLAYER
 10
43.3864586395
 20
69.1885286449
 11
41.6752015964
 21
70.1765010085
  0
LINE
  5
223
100
AcDbEntity
  8
0
100
AcDbLine
 62
7
  6
BYLAYER
 10
38.1604683375
 20
72.2056872953
 11
36.4492112944
 21
73.1936596589
  0
LINE
  5
224
100
AcDbEntity
  8
0
100
AcDbLine
 62
7
  6
BYLAYER
 10
41.6751516357
 20
75.0633491512
 11
41.6751516357
 21
77.104605194
  0
LINE
  5
225
100
AcDbEntity
  8
0
100
AcDbLine
 62
7
  6
BYLAYER
 10
43.3863944295
 20
78.0925857843
 11
43.3863944295
 21
76.0513297415
  0
LINE
  5
226
100
AcDbEntity
  8
0
100
AcDbLine
 62
7
  6
BYLAYER
 10
44.934457341
 20
76.0513334625
 11
44.934457341
 21
78.0925895054
  0
LINE
  5
227
100
AcDbEntity
  8
0
100
AcDbLine
 62
7
  6
BYLAYER
 10
46.6457143841
 20
75.063361099
 11
46.6457143841
 21
77.1046171418
  0
LINE
  5
228
100
AcDbEntity
  8
0
100
AcDbLine
 62
7
  6
BYLAYER
 10
49.0658371882
 20
70.1765187734
 11
46.6457643449
 21
70.1765129563
  0
LINE
  5
229
100
AcDbEntity
  8
0
100
AcDbLine
 62
7
  6
BYLAYER
 10
41.6752015964
 20
70.1765010085
 11
39.2551287531
 21
70.1764951914
  0
LINE
  5
22A
100
AcDbEntity
  8
0
100
AcDbLine
 62
7
  6
BYLAYER
 10
44.934457341
 20
76.0513334625
 11
46.6457143841
 21
75.063361099
  0
LINE
  5
22B
100
AcDbEntity
  8
0
100
AcDbLine
 62
7
  6
BYLAYER
 10
50.160447643
 20
73.0341748121
 11
50.8779345035
 21
72.6199429513
  0
LINE
  5
22C
100
AcDbEntity
  8
0
100
AcDbLine
 62
7
  6
BYLAYER
 10
44.934457341
 20
78.0925895054
 11
46.6457143841
 21
77.1046171418
  0
LINE
  5
22D
100
AcDbEntity
  8
0
100
AcDbLine
 62
7
  6
BYLAYER
 10
50.160447643
 20
75.075430855
 11
51.8717046861
 21
74.0874584914
  0
LINE
  5
22E
100
AcDbEntity
  8
0
100
AcDbLine
 62
7
  6
BYLAYER
 10
49.0657872274
 20
77.1046229589
 11
49.0657872274
 21
75.0633669161
  0
LINE
  5
22F
100
AcDbEntity
  8
0
100
AcDbLine
 62
7
  6
BYLAYER
 10
50.1604683374
 20
72.2057161398
 11
50.1604784132
 21
70.8085064069
  0
LINE
  5
230
100
AcDbEntity
  8
0
100
AcDbLine
 62
7
  6
BYLAYER
 10
50.160447643
 20
73.0341748121
 11
50.1604375673
 21
76.4726405879
  0
LINE
  5
231
100
AcDbEntity
  8
0
100
AcDbLine
 62
7
  6
BYLAYER
 10
51.8717046861
 20
74.0874584914
 11
51.8717046861
 21
73.19369673
  0
LINE
  5
232
100
AcDbEntity
  8
0
100
AcDbLine
 62
7
  6
BYLAYER
 10
49.0657872274
 20
75.0633669161
 11
46.6457143841
 21
75.063361099
  0
LINE
  5
233
100
AcDbEntity
  8
0
100
AcDbLine
 62
7
  6
BYLAYER
 10
41.6751516357
 20
75.0633491512
 11
39.2550787924
 21
75.0633433341
  0
LINE
  5
234
100
AcDbEntity
  8
0
100
AcDbLine
 62
7
  6
BYLAYER
 10
53.9104579903
 20
73.6405590752
 11
53.9104579903
 21
64.3732566407
  0
LINE
  5
235
100
AcDbEntity
  8
0
100
AcDbLine
 62
7
  6
BYLAYER
 10
36.4492048492
 20
74.0874214203
 11
38.1604476431
 21
75.0754020105
  0
LINE
  5
236
100
AcDbEntity
  8
0
100
AcDbLine
 62
7
  6
BYLAYER
 10
41.6751516357
 20
77.104605194
 11
43.3863944295
 21
78.0925857843
  0
LINE
  5
237
100
AcDbEntity
  8
0
100
AcDbLine
 62
7
  6
BYLAYER
 10
39.2550787924
 20
77.1045993769
 11
41.6751516357
 21
77.104605194
  0
LINE
  5
238
100
AcDbEntity
  8
0
100
AcDbLine
 62
7
  6
BYLAYER
 10
46.6457143841
 20
77.1046171418
 11
49.0657872274
 21
77.1046229589
  0
LINE
  5
239
100
AcDbEntity
  8
0
100
AcDbLine
 62
7
  6
BYLAYER
 10
37.4429814771
 20
72.6199191562
 11
38.1604476431
 21
73.0341459677
  0
LINE
  5
23A
100
AcDbEntity
  8
0
100
AcDbLine
 62
7
  6
BYLAYER
 10
41.6751516357
 20
75.0633491512
 11
43.3863944295
 21
76.0513297415
  0
LINE
  5
23B
100
AcDbEntity
  8
0
100
AcDbLine
 62
7
  6
BYLAYER
 10
13.4014027999
 20
58.2088564638
 11
34.2847031241
 21
70.2657635575
  0
LINE
  5
23C
100
AcDbEntity
  8
0
100
AcDbLine
 62
7
  6
BYLAYER
 10
48.7023057225
 20
78.5897206114
 11
101.7893824516
 21
109.2393756977
  0
LINE
  5
23D
100
AcDbEntity
  8
0
100
AcDbLine
 62
7
  6
BYLAYER
 10
51.1447434856
 20
77.5503893707
 11
103.9107116271
 21
108.0146534341
  0
LINE
  5
23E
100
AcDbEntity
  8
0
100
AcDbLine
 62
7
  6
BYLAYER
 10
35.1772426377
 20
66.6350501487
 11
35.9294326827
 21
67.0693246814
  0
LINE
  5
23F
100
AcDbEntity
  8
0
100
AcDbLine
 62
7
  6
BYLAYER
 10
41.6798956406
 20
70.3893362003
 11
44.2955457337
 21
71.8994734713
  0
LINE
  5
240
100
AcDbEntity
  8
0
100
AcDbLine
 62
7
  6
BYLAYER
 10
15.5227319754
 20
54.5346269488
 11
36.4959750572
 21
66.6434622079
  0
LINE
  5
241
100
AcDbEntity
  8
0
100
AcDbLine
 62
7
  6
BYLAYER
 10
52.9007002972
 20
76.1146782056
 11
103.9107116271
 21
105.5651461828
  0
LINE
  5
242
100
AcDbEntity
  8
0
100
AcDbLine
 62
7
  6
BYLAYER
 10
51.8717111313
 20
73.19369673
 11
50.1604683374
 21
72.2057161398
  0
LINE
  5
243
100
AcDbEntity
  8
0
100
AcDbLine
 62
7
  6
BYLAYER
 10
46.6457643449
 20
70.1765129563
 11
44.934521551
 21
69.188532366
  0
LINE
  5
244
100
AcDbEntity
  8
0
100
AcDbLine
 62
7
  6
BYLAYER
 10
103.9107116271
 20
108.0146534341
 11
103.9107116271
 21
105.5651461828
  0
LINE
  5
245
100
AcDbEntity
  8
0
100
AcDbLine
 62
7
  6
BYLAYER
 10
101.7893824516
 20
109.2393756977
 11
103.9107116271
 21
108.0146534341
  0
ARC
  5
246
100
AcDbEntity
  8
0
100
AcDbCircle
 62
7
  6
BYLAYER
 10
44.1604580315
 20
62.6777029966
 40
13.3960093599
100
AcDbArc
 50
86.687699756
 51
93.3125756882
  0
ARC
  5
247
100
AcDbEntity
  8
0
100
AcDbCircle
 62
7
  6
BYLAYER
 10
44.160457949
 20
82.5621553849
 40
13.3960056401
100
AcDbArc
 50
266.6876988352
 51
273.312576609
  0
ARC
  5
248
100
AcDbEntity
  8
0
100
AcDbCircle
 62
7
  6
BYLAYER
 10
44.1604580315
 20
64.7189627654
 40
13.3960056401
100
AcDbArc
 50
86.6876988352
 51
93.312576609
  0
ARC
  5
249
100
AcDbEntity
  8
0
100
AcDbCircle
 62
7
  6
BYLAYER
 10
39.0238964306
 20
73.6420575021
 40
2.6134391472
100
AcDbArc
 50
180.0328507904
 51
189.8793392359
  0
ARC
  5
24A
100
AcDbEntity
  8
0
100
AcDbCircle
 62
7
  6
BYLAYER
 10
49.29701955
 20
73.6390606483
 40
2.6134391472
100
AcDbArc
 50
0.0328507904
 51
9.8793392359
  0
ARC
  5
24B
100
AcDbEntity
  8
0
100
AcDbCircle
 62
7
  6
BYLAYER
 10
49.3102219163
 20
73.6409127953
 40
2.6002363754
100
AcDbArc
 50
350.0964263777
 51
359.992205835
  0
ARC
  5
24C
100
AcDbEntity
  8
0
100
AcDbCircle
 62
7
  6
BYLAYER
 10
39.0106940643
 20
73.640205355
 40
2.6002363754
100
AcDbArc
 50
170.0964263777
 51
179.992205835
  0
SPLINE
  5
24D
100
AcDbEntity
  8
0
100
AcDbSpline
 62
7
  6
BYLAYER
 70
0
 71
3
 72
19
 73
15
 74
0
 42
0.0000001
 43
0.0000001
 44
0.0000000001
 40
0.0
 40
0.0
 40
0.0
 40
0.0
 40
0.0991814497
 40
0.1541630783
 40
0.2125741106
 40
0.2741367534
 40
0.3384402845
 40
0.4730625139
 40
0.6117039715
 40
0.7490191099
 40
0.8155834002
 40
0.8799214277
 40
0.9415504465
 40
1.0
 40
1.0
 40
1.0
 40
1.0
 10
47.1271710781
 20
70.8141007561
 30
0.0
 10
47.012754922
 20
70.9617802451
 30
0.0
 10
46.7961336939
 20
71.1622080849
 30
0.0
 10
46.4600774823
 20
71.3802639048
 30
0.0
 10
46.1659103878
 20
71.5302736509
 30
0.0
 10
45.8429498575
 20
71.6586189888
 30
0.0
 10
45.3728258056
 20
71.8007480807
 30
0.0
 10
44.7441656964
 20
71.9120015108
 30
0.0
 10
43.9690140743
 20
71.9390051759
 30
0.0
 10
43.3248506569
 20
71.872473825
 30
0.0
 10
42.8307690421
 20
71.7650713546
 30
0.0
 10
42.4831089653
 20
71.6604183365
 30
0.0
 10
42.1597561392
 20
71.5323813212
 30
0.0
 10
41.9576960783
 20
71.4297778485
 30
0.0
 10
41.8623513836
 20
71.374730892
 30
0.0
  0
SPLINE
  5
24E
100
AcDbEntity
  8
0
100
AcDbSpline
 62
7
  6
BYLAYER
 70
0
 71
3
 72
14
 73
10
 74
0
 42
0.0000001
 43
0.0000001
 44
0.0000000001
 40
0.0
 40
0.0
 40
0.0
 40
0.0
 40
0.1080445285
 40
0.2181258527
 40
0.3321026685
 40
0.4514974728
 40
0.5774434206
 40
0.7107181163
 40
1.0
 40
1.0
 40
1.0
 40
1.0
 10
47.4104488006
 20
71.5993029803
 30
0.0
 10
47.4104546027
 20
71.5377781174
 30
0.0
 10
47.3997610708
 20
71.4133193985
 30
0.0
 10
47.3520854226
 20
71.2294823067
 30
0.0
 10
47.2733458251
 20
71.0496152095
 30
0.0
 10
47.1646151991
 20
70.8755245149
 30
0.0
 10
47.0270439302
 20
70.7087756933
 30
0.0
 10
46.8010181354
 20
70.4924394441
 30
0.0
 10
46.6012239977
 20
70.3548845319
 30
0.0
 10
46.458564597
 20
70.2725205801
 30
0.0
  0
SPLINE
  5
24F
100
AcDbEntity
  8
0
100
AcDbSpline
 62
7
  6
BYLAYER
 70
0
 71
3
 72
15
 73
11
 74
0
 42
0.0000001
 43
0.0000001
 44
0.0000000001
 40
0.0
 40
0.0
 40
0.0
 40
0.0
 40
0.1080122362
 40
0.2180609456
 40
0.3319978691
 40
0.4513558008
 40
0.5772775707
 40
0.7104934026
 40
0.8514062329
 40
1.0
 40
1.0
 40
1.0
 40
1.0
 10
53.9104544299
 20
64.3732566407
 30
0.0
 10
53.9104544269
 20
64.1886775604
 30
0.0
 10
53.8783929626
 20
63.8152903808
 30
0.0
 10
53.7353183281
 20
63.2637869161
 30
0.0
 10
53.4991635096
 20
62.7241599499
 30
0.0
 10
53.1729054583
 20
62.2018761587
 30
0.0
 10
52.7602125577
 20
61.7016878906
 30
0.0
 10
52.2653435288
 20
61.2279912189
 30
0.0
 10
51.6931980543
 20
60.7851308442
 30
0.0
 10
51.2746859947
 20
60.5198725757
 30
0.0
 10
51.0547778105
 20
60.3929092842
 30
0.0
  0
SPLINE
  5
250
100
AcDbEntity
  8
0
100
AcDbSpline
 62
7
  6
BYLAYER
 70
0
 71
3
 72
26
 73
22
 74
0
 42
0.0000001
 43
0.0000001
 44
0.0000000001
 40
0.0
 40
0.0
 40
0.0
 40
0.0
 40
0.0213307406
 40
0.0428899094
 40
0.064893988
 40
0.0875373247
 40
0.1353098094
 40
0.1607318472
 40
0.1872559748
 40
0.2436909924
 40
0.3046360946
 40
0.369720934
 40
0.4383151653
 40
0.5095983302
 40
0.5826191801
 40
0.6563472555
 40
0.729721068
 40
0.8016940455
 40
0.8712840931
 40
0.9376186392
 40
1.0
 40
1.0
 40
1.0
 40
1.0
 10
53.9104505452
 20
73.6405590812
 30
0.0
 10
53.9104551544
 20
73.7788732966
 30
0.0
 10
53.8925919436
 20
74.0573037129
 30
0.0
 10
53.8126142073
 20
74.471476986
 30
0.0
 10
53.6798896866
 20
74.8808724359
 30
0.0
 10
53.4296048143
 20
75.4266045784
 30
0.0
 10
53.0774533469
 20
75.9448293952
 30
0.0
 10
52.6439482497
 20
76.4252505169
 30
0.0
 10
52.1296862054
 20
76.9054412806
 30
0.0
 10
51.3733305814
 20
77.4580837209
 30
0.0
 10
50.3314623388
 20
78.0247305841
 30
0.0
 10
49.1585693407
 20
78.4972520071
 30
0.0
 10
47.8795031211
 20
78.8658700662
 30
0.0
 10
46.521242597
 20
79.1229371197
 30
0.0
 10
45.1126603266
 20
79.2630106477
 30
0.0
 10
43.683764473
 20
79.283117636
 30
0.0
 10
42.2650341828
 20
79.1828211645
 30
0.0
 10
40.886730745
 20
78.9642762078
 30
0.0
 10
39.5781103213
 20
78.6320549181
 30
0.0
 10
38.3671344429
 20
78.1932917289
 30
0.0
 10
37.616443712
 20
77.8231542234
 30
0.0
 10
37.2661381701
 20
77.6209064317
 30
0.0
  0
SPLINE
  5
251
100
AcDbEntity
  8
0
100
AcDbSpline
 62
7
  6
BYLAYER
 70
0
 71
3
 72
26
 73
22
 74
0
 42
0.0000001
 43
0.0000001
 44
0.0000000001
 40
0.0
 40
0.0
 40
0.0
 40
0.0
 40
0.0623811978
 40
0.1287154975
 40
0.1983053676
 40
0.2702783047
 40
0.3436522619
 40
0.4173805528
 40
0.4904015909
 40
0.5616849445
 40
0.6302793853
 40
0.695364382
 40
0.7563095052
 40
0.8127444169
 40
0.8392684738
 40
0.864690441
 40
0.9124628221
 40
0.9351061248
 40
0.9571101671
 40
0.9786693005
 40
1.0
 40
1.0
 40
1.0
 40
1.0
 10
51.0547778105
 20
60.3929092842
 30
0.0
 10
50.7044731849
 20
60.1906620215
 30
0.0
 10
49.9537849475
 20
59.8205255011
 30
0.0
 10
48.7428128207
 20
59.3817631961
 30
0.0
 10
47.4341955913
 20
59.049541634
 30
0.0
 10
46.055892777
 20
58.8309957757
 30
0.0
 10
44.6371604812
 20
58.7306982214
 30
0.0
 10
43.2082610519
 20
58.7508046254
 30
0.0
 10
41.7996749186
 20
58.8908782278
 30
0.0
 10
40.4414106547
 20
59.1479460344
 30
0.0
 10
39.1623410777
 20
59.5165655146
 30
0.0
 10
37.9894460498
 20
59.989088671
 30
0.0
 10
36.9475779085
 20
60.5557367377
 30
0.0
 10
36.1912237604
 20
61.1083794646
 30
0.0
 10
35.6769633232
 20
61.5885695908
 30
0.0
 10
35.2434598617
 20
62.0689900661
 30
0.0
 10
34.8913098249
 20
62.5872141243
 30
0.0
 10
34.6410253812
 20
63.132945251
 30
0.0
 10
34.5083018147
 20
63.5423402598
 30
0.0
 10
34.4283236809
 20
63.95651272
 30
0.0
 10
34.4104611479
 20
64.2349426876
 30
0.0
 10
34.410465701
 20
64.3732566364
 30
0.0
  0
SPLINE
  5
252
100
AcDbEntity
  8
0
100
AcDbSpline
 62
7
  6
BYLAYER
 70
0
 71
3
 72
9
 73
5
 74
0
 42
0.0000001
 43
0.0000001
 44
0.0000000001
 40
0.0
 40
0.0
 40
0.0
 40
0.0
 40
0.2451092472
 40
1.0
 40
1.0
 40
1.0
 40
1.0
 10
50.1604784132
 20
70.8085064069
 30
0.0
 10
50.1193068453
 20
70.7794317139
 30
0.0
 10
49.9499020206
 20
70.662848675
 30
0.0
 10
49.77499257
 20
70.5543083915
 30
0.0
 10
49.6405583602
 20
70.4766932276
 30
0.0
  0
SPLINE
  5
253
100
AcDbEntity
  8
0
100
AcDbSpline
 62
7
  6
BYLAYER
 70
0
 71
3
 72
14
 73
10
 74
0
 42
0.0000001
 43
0.0000001
 44
0.0000000001
 40
0.0
 40
0.0
 40
0.0
 40
0.0
 40
0.1447621507
 40
0.2854114121
 40
0.4209320314
 40
0.5504995348
 40
0.673467478
 40
0.7894415381
 40
1.0
 40
1.0
 40
1.0
 40
1.0
 10
41.4984569624
 20
64.6327311419
 30
0.0
 10
41.1528085995
 20
64.6893672187
 30
0.0
 10
40.4748153732
 20
64.8239251197
 30
0.0
 10
39.4916123714
 20
65.0928935257
 30
0.0
 10
38.5661107973
 20
65.4234228658
 30
0.0
 10
37.7098906607
 20
65.8113150308
 30
0.0
 10
36.9330294985
 20
66.2523445496
 30
0.0
 10
36.04584056
 20
66.882456455
 30
0.0
 10
35.4778281274
 20
67.4484740262
 30
0.0
 10
35.1772426377
 20
67.8598037744
 30
0.0
  0
SPLINE
  5
254
100
AcDbEntity
  8
0
100
AcDbSpline
 62
7
  6
BYLAYER
 70
0
 71
3
 72
9
 73
5
 74
0
 42
0.0000001
 43
0.0000001
 44
0.0000000001
 40
0.0
 40
0.0
 40
0.0
 40
0.0
 40
0.2455580132
 40
1.0
 40
1.0
 40
1.0
 40
1.0
 10
49.6405583602
 20
70.4766932276
 30
0.0
 10
49.5945887978
 20
70.4501528469
 30
0.0
 10
49.4062098925
 20
70.3441131705
 30
0.0
 10
49.213317283
 20
70.2461316187
 30
0.0
 10
49.0658371882
 20
70.1765187734
 30
0.0
  0
SPLINE
  5
255
100
AcDbEntity
  8
0
100
AcDbSpline
 62
7
  6
BYLAYER
 70
0
 71
3
 72
9
 73
5
 74
0
 42
0.0000001
 43
0.0000001
 44
0.0000000001
 40
0.0
 40
0.0
 40
0.0
 40
0.0
 40
0.5242961453
 40
1.0
 40
1.0
 40
1.0
 40
1.0
 10
41.8623513836
 20
71.374730892
 30
0.0
 10
41.7360212851
 20
71.301794611
 30
0.0
 10
41.5043938016
 20
71.1453788906
 30
0.0
 10
41.3036027593
 20
70.9496824947
 30
0.0
 10
41.2199653942
 20
70.8471044726
 30
0.0
  0
SPLINE
  5
256
100
AcDbEntity
  8
0
100
AcDbSpline
 62
7
  6
BYLAYER
 70
0
 71
3
 72
25
 73
21
 74
0
 42
0.0000001
 43
0.0000001
 44
0.0000000001
 40
0.0
 40
0.0
 40
0.0
 40
0.0
 40
0.1987760868
 40
0.3902187656
 40
0.4798460926
 40
0.5639607373
 40
0.6417860915
 40
0.7126966992
 40
0.7762610155
 40
0.8321413416
 40
0.8800988056
 40
0.9199245408
 40
0.9367368896
 40
0.9514628541
 40
0.9640961079
 40
0.9746510113
 40
0.9831916111
 40
0.9898912829
 40
0.9951784745
 40
1.0
 40
1.0
 40
1.0
 40
1.0
 10
35.1772426377
 20
67.8598037744
 30
0.0
 10
35.1505162696
 20
67.9884473821
 30
0.0
 10
35.0886168638
 20
68.2390744084
 30
0.0
 10
34.9953890781
 20
68.5423641565
 30
0.0
 10
34.9168349445
 20
68.7706255371
 30
0.0
 10
34.8596489571
 20
68.9267795603
 30
0.0
 10
34.8040949616
 20
69.0703259787
 30
0.0
 10
34.7511967733
 20
69.2003117765
 30
0.0
 10
34.7017149565
 20
69.3160050638
 30
0.0
 10
34.6562432769
 20
69.416893283
 30
0.0
 10
34.6150787716
 20
69.5024786477
 30
0.0
 10
34.5830119045
 20
69.5637604756
 30
0.0
 10
34.5593407893
 20
69.6045717997
 30
0.0
 10
34.543770492
 20
69.6292810648
 30
0.0
 10
34.5293496435
 20
69.6497956692
 30
0.0
 10
34.5160521434
 20
69.6660473097
 30
0.0
 10
34.5038028817
 20
69.6779894007
 30
0.0
 10
34.4924783555
 20
69.6856454162
 30
0.0
 10
34.4814406538
 20
69.6887603507
 30
0.0
 10
34.4746297241
 20
69.686869237
 30
0.0
 10
34.4718710791
 20
69.6852733176
 30
0.0
  0
SPLINE
  5
257
100
AcDbEntity
  8
0
100
AcDbSpline
 62
7
  6
BYLAYER
 70
0
 71
3
 72
9
 73
5
 74
0
 42
0.0000001
 43
0.0000001
 44
0.0000000001
 40
0.0
 40
0.0
 40
0.0
 40
0.0
 40
0.2593979009
 40
1.0
 40
1.0
 40
1.0
 40
1.0
 10
39.2551287531
 20
70.1764951914
 30
0.0
 10
39.1562256313
 20
70.2231781741
 30
0.0
 10
38.7785309696
 20
70.4105356463
 30
0.0
 10
38.4155430845
 20
70.6283580925
 30
0.0
 10
38.1604784133
 20
70.8084775624
 30
0.0
  0
SPLINE
  5
258
100
AcDbEntity
  8
0
100
AcDbSpline
 62
7
  6
BYLAYER
 70
0
 71
3
 72
23
 73
19
 74
0
 42
0.0000001
 43
0.0000001
 44
0.0000000001
 40
0.0
 40
0.0
 40
0.0
 40
0.0
 40
0.0623864025
 40
0.1287466889
 40
0.1983455642
 40
0.2703346026
 40
0.3437225352
 40
0.4174671273
 40
0.4905043589
 40
0.5618030111
 40
0.6304121199
 40
0.6955107387
 40
0.7564679343
 40
0.812913788
 40
0.8648223603
 40
0.9126047646
 40
0.9571861494
 40
1.0
 40
1.0
 40
1.0
 40
1.0
 10
46.458564597
 20
70.2725205801
 30
0.0
 10
46.3418111561
 20
70.205113352
 30
0.0
 10
46.0915676
 20
70.0817444493
 30
0.0
 10
45.6879222925
 20
69.9354654894
 30
0.0
 10
45.251694315
 20
69.8247453913
 30
0.0
 10
44.7922766694
 20
69.7518807456
 30
0.0
 10
44.3193642409
 20
69.7184495969
 30
0.0
 10
43.8430641301
 20
69.7251544321
 30
0.0
 10
43.3735310522
 20
69.7718492902
 30
0.0
 10
42.9207745054
 20
69.8575393971
 30
0.0
 10
42.4944123545
 20
69.9804117495
 30
0.0
 10
42.1034597374
 20
70.137909608
 30
0.0
 10
41.7561346013
 20
70.3268224979
 30
0.0
 10
41.4597067771
 20
70.5434312865
 30
0.0
 10
41.2204814468
 20
70.7836600917
 30
0.0
 10
41.0439763778
 20
71.0432659558
 30
0.0
 10
40.9351904237
 20
71.3171198167
 30
0.0
 10
40.9104759049
 20
71.5067836959
 30
0.0
 10
40.9104671799
 20
71.5993030843
 30
0.0
  0
SPLINE
  5
259
100
AcDbEntity
  8
0
100
AcDbSpline
 62
7
  6
BYLAYER
 70
0
 71
3
 72
15
 73
11
 74
0
 42
0.0000001
 43
0.0000001
 44
0.0000000001
 40
0.0
 40
0.0
 40
0.0
 40
0.0
 40
0.1485899841
 40
0.2895074379
 40
0.4227228173
 40
0.5486439031
 40
0.6680019146
 40
0.7819386634
 40
0.891987719
 40
1.0
 40
1.0
 40
1.0
 40
1.0
 10
37.2661381701
 20
77.6209064317
 30
0.0
 10
37.0462355618
 20
77.4939463595
 30
0.0
 10
36.6277246199
 20
77.2286837544
 30
0.0
 10
36.0555747837
 20
76.7858282168
 30
0.0
 10
35.5606990806
 20
76.3121291313
 30
0.0
 10
35.1480127899
 20
75.8119377789
 30
0.0
 10
34.8217546399
 20
75.2896555539
 30
0.0
 10
34.5855978684
 20
74.7500300507
 30
0.0
 10
34.4425098503
 20
74.1985274364
 30
0.0
 10
34.4104715862
 20
73.8251382447
 30
0.0
 10
34.4104654353
 20
73.6405590691
 30
0.0
  0
SPLINE
  5
25A
100
AcDbEntity
  8
0
100
AcDbSpline
 62
7
  6
BYLAYER
 70
0
 71
3
 72
14
 73
10
 74
0
 42
0.0000001
 43
0.0000001
 44
0.0000000001
 40
0.0
 40
0.0
 40
0.0
 40
0.0
 40
0.2105584619
 40
0.326532522
 40
0.4495004652
 40
0.5790679686
 40
0.7145885879
 40
0.8552378493
 40
1.0
 40
1.0
 40
1.0
 40
1.0
 10
35.1772426377
 20
66.6350501487
 30
0.0
 10
35.4778281274
 20
66.2237204005
 30
0.0
 10
36.04584056
 20
65.6577028293
 30
0.0
 10
36.9330294985
 20
65.0275909239
 30
0.0
 10
37.7098906607
 20
64.5865614051
 30
0.0
 10
38.5661107973
 20
64.1986692401
 30
0.0
 10
39.4916123714
 20
63.8681399
 30
0.0
 10
40.4748153732
 20
63.599171494
 30
0.0
 10
41.1528085995
 20
63.464613593
 30
0.0
 10
41.4984569624
 20
63.4079775162
 30
0.0
  0
SPLINE
  5
25B
100
AcDbEntity
  8
0
100
AcDbSpline
 62
7
  6
BYLAYER
 70
0
 71
3
 72
15
 73
11
 74
0
 42
0.0000001
 43
0.0000001
 44
0.0000000001
 40
0.0
 40
0.0
 40
0.0
 40
0.0
 40
0.1154282999
 40
0.2387635997
 40
0.3677675662
 40
0.4997205391
 40
0.6317170503
 40
0.7608369279
 40
0.8843646144
 40
1.0
 40
1.0
 40
1.0
 40
1.0
 10
41.9820819546
 20
70.2156657291
 30
0.0
 10
42.1352089942
 20
70.2954971378
 30
0.0
 10
42.4650475439
 20
70.4361660008
 30
0.0
 10
42.9957244817
 20
70.5859799878
 30
0.0
 10
43.5644013379
 20
70.6782590341
 30
0.0
 10
44.1525161922
 20
70.7098916365
 30
0.0
 10
44.7408886873
 20
70.6799052657
 30
0.0
 10
45.3103560417
 20
70.589234178
 30
0.0
 10
45.842236733
 20
70.4408862382
 30
0.0
 10
46.1731525859
 20
70.301246603
 30
0.0
 10
46.3268685501
 20
70.2218775679
 30
0.0
  0
SPLINE
  5
25C
100
AcDbEntity
  8
0
100
AcDbSpline
 62
7
  6
BYLAYER
 70
0
 71
3
 72
26
 73
22
 74
0
 42
0.0000001
 43
0.0000001
 44
0.0000000001
 40
0.0
 40
0.0
 40
0.0
 40
0.0
 40
0.0213307406
 40
0.0428899094
 40
0.064893988
 40
0.0875373247
 40
0.1353098094
 40
0.1607318472
 40
0.1872559748
 40
0.2436909924
 40
0.3046360946
 40
0.369720934
 40
0.4383151653
 40
0.5095983302
 40
0.5826191801
 40
0.6563472555
 40
0.729721068
 40
0.8016940455
 40
0.8712840931
 40
0.9376186392
 40
1.0
 40
1.0
 40
1.0
 40
1.0
 10
34.4104654353
 20
73.6405590691
 30
0.0
 10
34.4104608261
 20
73.5022448537
 30
0.0
 10
34.4283240369
 20
73.2238144374
 30
0.0
 10
34.5083017732
 20
72.8096411643
 30
0.0
 10
34.641026294
 20
72.4002457144
 30
0.0
 10
34.8913111663
 20
71.8545135719
 30
0.0
 10
35.2434626336
 20
71.3362887551
 30
0.0
 10
35.6769677308
 20
70.8558676334
 30
0.0
 10
36.1912297751
 20
70.3756768697
 30
0.0
 10
36.9475853991
 20
69.8230344294
 30
0.0
 10
37.9894536417
 20
69.2563875662
 30
0.0
 10
39.1623466398
 20
68.7838661432
 30
0.0
 10
40.4414128595
 20
68.4152480841
 30
0.0
 10
41.7996733836
 20
68.1581810306
 30
0.0
 10
43.208255654
 20
68.0181075027
 30
0.0
 10
44.6371515076
 20
67.9980005143
 30
0.0
 10
46.0558817978
 20
68.0982969858
 30
0.0
 10
47.4341852356
 20
68.3168419425
 30
0.0
 10
48.7428056592
 20
68.6490632322
 30
0.0
 10
49.9537815376
 20
69.0878264214
 30
0.0
 10
50.7044722686
 20
69.4579639269
 30
0.0
 10
51.0547778105
 20
69.6602117186
 30
0.0
  0
SPLINE
  5
25D
100
AcDbEntity
  8
0
100
AcDbSpline
 62
7
  6
BYLAYER
 70
0
 71
3
 72
14
 73
10
 74
0
 42
0.0000001
 43
0.0000001
 44
0.0000000001
 40
0.0
 40
0.0
 40
0.0
 40
0.0
 40
0.1080445285
 40
0.2181258527
 40
0.3321026685
 40
0.4514974728
 40
0.5774434206
 40
0.7107181163
 40
1.0
 40
1.0
 40
1.0
 40
1.0
 10
40.9104671799
 20
71.5993030843
 30
0.0
 10
40.9104613779
 20
71.6608279473
 30
0.0
 10
40.9211549098
 20
71.7852866662
 30
0.0
 10
40.9688305579
 20
71.969123758
 30
0.0
 10
41.0475701555
 20
72.1489908551
 30
0.0
 10
41.1563007815
 20
72.3230815498
 30
0.0
 10
41.2938720504
 20
72.4898303714
 30
0.0
 10
41.5198978452
 20
72.7061666206
 30
0.0
 10
41.7196919829
 20
72.8437215328
 30
0.0
 10
41.8623513836
 20
72.9260854845
 30
0.0
  0
SPLINE
  5
25E
100
AcDbEntity
  8
0
100
AcDbSpline
 62
7
  6
BYLAYER
 70
0
 71
3
 72
9
 73
5
 74
0
 42
0.0000001
 43
0.0000001
 44
0.0000000001
 40
0.0
 40
0.0
 40
0.0
 40
0.0
 40
0.2451092472
 40
1.0
 40
1.0
 40
1.0
 40
1.0
 10
38.1604375674
 20
76.4726117435
 30
0.0
 10
38.2016091353
 20
76.5016864364
 30
0.0
 10
38.37101396
 20
76.6182694754
 30
0.0
 10
38.5459234106
 20
76.7268097588
 30
0.0
 10
38.6803576204
 20
76.8044249227
 30
0.0
  0
SPLINE
  5
25F
100
AcDbEntity
  8
0
100
AcDbSpline
 62
7
  6
BYLAYER
 70
0
 71
3
 72
9
 73
5
 74
0
 42
0.0000001
 43
0.0000001
 44
0.0000000001
 40
0.0
 40
0.0
 40
0.0
 40
0.0
 40
0.2455580132
 40
1.0
 40
1.0
 40
1.0
 40
1.0
 10
38.6803576204
 20
76.8044249227
 30
0.0
 10
38.7263271827
 20
76.8309653035
 30
0.0
 10
38.914706088
 20
76.9370049798
 30
0.0
 10
39.1075986976
 20
77.0349865316
 30
0.0
 10
39.2550787924
 20
77.1045993769
 30
0.0
  0
SPLINE
  5
260
100
AcDbEntity
  8
0
100
AcDbSpline
 62
7
  6
BYLAYER
 70
0
 71
3
 72
9
 73
5
 74
0
 42
0.0000001
 43
0.0000001
 44
0.0000000001
 40
0.0
 40
0.0
 40
0.0
 40
0.0
 40
0.2549270941
 40
1.0
 40
1.0
 40
1.0
 40
1.0
 10
38.6803576204
 20
74.7631688799
 30
0.0
 10
38.6349593329
 20
74.7369583228
 30
0.0
 10
38.4579903812
 20
74.6322304994
 30
0.0
 10
38.2855885496
 20
74.5197352928
 30
0.0
 10
38.1604375674
 20
74.4313557006
 30
0.0
  0
SPLINE
  5
261
100
AcDbEntity
  8
0
100
AcDbSpline
 62
7
  6
BYLAYER
 70
0
 71
3
 72
9
 73
5
 74
0
 42
0.0000001
 43
0.0000001
 44
0.0000000001
 40
0.0
 40
0.0
 40
0.0
 40
0.0
 40
0.2544429784
 40
1.0
 40
1.0
 40
1.0
 40
1.0
 10
39.2550787924
 20
75.0633433341
 30
0.0
 10
39.2053398685
 20
75.0398658064
 30
0.0
 10
39.0107691539
 20
74.9456837806
 30
0.0
 10
38.8199287133
 20
74.8437498069
 30
0.0
 10
38.6803576204
 20
74.7631688799
 30
0.0
  0
SPLINE
  5
262
100
AcDbEntity
  8
0
100
AcDbSpline
 62
7
  6
BYLAYER
 70
0
 71
3
 72
9
 73
5
 74
0
 42
0.0000001
 43
0.0000001
 44
0.0000000001
 40
0.0
 40
0.0
 40
0.0
 40
0.0
 40
0.2406728405
 40
1.0
 40
1.0
 40
1.0
 40
1.0
 10
50.1604375673
 20
74.4313845451
 30
0.0
 10
50.0775464921
 20
74.4899198822
 30
0.0
 10
49.727218659
 20
74.7247245986
 30
0.0
 10
49.3553133774
 20
74.926708497
 30
0.0
 10
49.0657872274
 20
75.0633669161
 30
0.0
  0
SPLINE
  5
263
100
AcDbEntity
  8
0
100
AcDbSpline
 62
7
  6
BYLAYER
 70
0
 71
3
 72
23
 73
19
 74
0
 42
0.0000001
 43
0.0000001
 44
0.0000000001
 40
0.0
 40
0.0
 40
0.0
 40
0.0
 40
0.0623864025
 40
0.1287466889
 40
0.1983455642
 40
0.2703346026
 40
0.3437225352
 40
0.4174671273
 40
0.4905043589
 40
0.5618030111
 40
0.6304121199
 40
0.6955107387
 40
0.7564679343
 40
0.812913788
 40
0.8648223603
 40
0.9126047646
 40
0.9571861494
 40
1.0
 40
1.0
 40
1.0
 40
1.0
 10
41.8623513836
 20
72.9260854845
 30
0.0
 10
41.9791048245
 20
72.9934927127
 30
0.0
 10
42.2293483806
 20
73.1168616153
 30
0.0
 10
42.632993688
 20
73.2631405753
 30
0.0
 10
43.0692216655
 20
73.3738606733
 30
0.0
 10
43.5286393111
 20
73.446725319
 30
0.0
 10
44.0015517397
 20
73.4801564677
 30
0.0
 10
44.4778518504
 20
73.4734516326
 30
0.0
 10
44.9473849283
 20
73.4267567744
 30
0.0
 10
45.4001414752
 20
73.3410666675
 30
0.0
 10
45.826503626
 20
73.2181943151
 30
0.0
 10
46.2174562431
 20
73.0606964566
 30
0.0
 10
46.5647813792
 20
72.8717835667
 30
0.0
 10
46.8612092035
 20
72.6551747781
 30
0.0
 10
47.1004345338
 20
72.4149459729
 30
0.0
 10
47.2769396028
 20
72.1553401089
 30
0.0
 10
47.3857255569
 20
71.8814862479
 30
0.0
 10
47.4104400757
 20
71.6918223687
 30
0.0
 10
47.4104488006
 20
71.5993029803
 30
0.0
  0
SPLINE
  5
264
100
AcDbEntity
  8
0
100
AcDbSpline
 62
7
  6
BYLAYER
 70
0
 71
3
 72
9
 73
5
 74
0
 42
0.0000001
 43
0.0000001
 44
0.0000000001
 40
0.0
 40
0.0
 40
0.0
 40
0.0
 40
0.2593979009
 40
1.0
 40
1.0
 40
1.0
 40
1.0
 10
49.0657872274
 20
77.1046229589
 30
0.0
 10
49.1646903492
 20
77.0579399762
 30
0.0
 10
49.5423850109
 20
76.870582504
 30
0.0
 10
49.905372896
 20
76.6527600578
 30
0.0
 10
50.1604375673
 20
76.4726405879
 30
0.0
  0
SPLINE
  5
265
100
AcDbEntity
  8
0
100
AcDbSpline
 62
7
  6
BYLAYER
 70
0
 71
3
 72
15
 73
11
 74
0
 42
0.0000001
 43
0.0000001
 44
0.0000000001
 40
0.0
 40
0.0
 40
0.0
 40
0.0
 40
0.1485899841
 40
0.2895074379
 40
0.4227228173
 40
0.5486439031
 40
0.6680019146
 40
0.7819386634
 40
0.891987719
 40
1.0
 40
1.0
 40
1.0
 40
1.0
 10
51.0547778105
 20
69.6602117186
 30
0.0
 10
51.2746804188
 20
69.7871717908
 30
0.0
 10
51.6931913607
 20
70.052434396
 30
0.0
 10
52.2653411969
 20
70.4952899335
 30
0.0
 10
52.7602169
 20
70.968989019
 30
0.0
 10
53.1729031907
 20
71.4691803714
 30
0.0
 10
53.4991613407
 20
71.9914625964
 30
0.0
 10
53.7353181121
 20
72.5310880996
 30
0.0
 10
53.8784061303
 20
73.0825907139
 30
0.0
 10
53.9104443943
 20
73.4559799056
 30
0.0
 10
53.9104505452
 20
73.6405590812
 30
0.0
  0
ENDSEC
  0
SECTION
  2
OBJECTS
  0
DICTIONARY
  5
C
100
AcDbDictionary
280
0
281
1
  3
ACAD_GROUP
350
D
  3
ACAD_MLINESTYLE
350
17
  3
ACAD_LAYOUT
350
1A
  3
ACAD_PLOTSETTINGS
350
19
  3
ACAD_PLOTSTYLENAME
350
E
  0
DICTIONARY
  5
D
102
{ACAD_REACTORS
330
C
102
}
100
AcDbDictionary
280
0
281
1
  0
ACDBDICTIONARYWDFLT
  5
E
102
{ACAD_REACTORS
330
C
102
}
100
AcDbDictionary
281
1
  3
Normal
350
F
100
AcDbDictionaryWithDefault
340
F
  0
DICTIONARY
  5
17
102
{ACAD_REACTORS
330
C
102
}
100
AcDbDictionary
280
0
281
1
  3
Standard
350
18
  0
DICTIONARY
  5
19
102
{ACAD_REACTORS
330
C
102
}
100
AcDbDictionary
281
1
  0
DICTIONARY
  5
1A
102
{ACAD_REACTORS
330
C
102
}
100
AcDbDictionary
281
1
  3
Model
350
266
  3
Layout1
350
267
  0
ACDBPLACEHOLDER
  5
F
102
{ACAD_REACTORS
330
E
102
}
  0
MLINESTYLE
  5
18
102
{ACAD_REACTORS
330
17
102
}
100
AcDbMlineStyle
  2
STANDARD
 70
0
  3

 62
256
 51
90.0
 52
90.0
 71
2
 49
0.5
 62
256
  6
BYLAYER
 49
-0.5
 62
256
  6
BYLAYER
  0
LAYOUT
  5
266
102
{ACAD_REACTORS
330
1A
102
}
100
AcDbPlotSettings
  1

  2
none_device
  4

  6

 40
0.0
 41
0.0
 42
0.0
 43
0.0
 44
210.0
 45
297.0
 46
0.0
 47
0.0
 48
0.0
 49
0.0
140
0.0
141
0.0
142
1.0
143
1.0
 70
1024
 72
1
 73
0
 74
0
  7

 75
0
147
1.0
148
0.0
149
0.0
100
AcDbLayout
  1
Model
 70
0
 71
0
 10
0.0
 20
0.0
 11
210.0
 21
297.0
 12
0.0
 22
0.0
 32
0.0
 14
0.0
 24
0.0
 34
0.0
 15
0.0
 25
0.0
 35
0.0
146
0.0
 13
0.0
 23
0.0
 33
0.0
 16
1.0
 26
0.0
 36
0.0
 17
0.0
 27
1.0
 37
0.0
 76
0
330
210
345
0
346
0
  0
LAYOUT
  5
267
102
{ACAD_REACTORS
330
1A
102
}
100
AcDbPlotSettings
  1

  2
none_device
  4

  6

 40
0.0
 41
0.0
 42
0.0
 43
0.0
 44
210.0
 45
297.0
 46
0.0
 47
0.0
 48
0.0
 49
0.0
140
0.0
141
0.0
142
1.0
143
1.0
 70
0
 72
1
 73
0
 74
0
  7

 75
0
147
1.0
148
0.0
149
0.0
100
AcDbLayout
  1
Layout1
 70
0
 71
1
 10
0.0
 20
0.0
 11
210.0
 21
297.0
 12
0.0
 22
0.0
 32
0.0
 14
0.0
 24
0.0
 34
0.0
 15
0.0
 25
0.0
 35
0.0
146
0.0
 13
0.0
 23
0.0
 33
0.0
 16
1.0
 26
0.0
 36
0.0
 17
0.0
 27
1.0
 37
0.0
 76
0
330
211
345
0
346
0
  0
ENDSEC
  0
EOF
