999
DXF file: C:\Gen2D\CAD\GVAU025_3D-CAD\drw0001_1.dxf
999
Pro/ENGINEER 2019471 by Parametric Technology Corporation
  0
SECTION
  2
HEADER
  9
$ACADVER
  1
AC1024
  9
$DWGCODEPAGE
  3
ANSI_1252
  9
$EXTMAX
 10
78.6350698955
 20
111.212455995
 30
0.0
  9
$EXTMIN
 10
0.0
 20
0.0
 30
0.0
  9
$LIMMIN
 10
0.0
 20
0.0
  9
$LIMMAX
 10
78.6350698955
 20
111.212455995
  9
$VIEWCTR
 10
39.3175349477
 20
55.6062279975
  9
$VIEWSIZE
 40
111.212455995
  9
$CLAYER
  8
0
  9
$LTSCALE
 40
7.2494045389
  9
$CELTYPE
  6
BYLAYER
  9
$DIMSCALE
 40
1.0
  9
$DIMASZ
 40
0.9361317845
  9
$DIMEXO
 40
1.0
  9
$DIMDLI
 40
5.0086794996
  9
$DIMEXE
 40
1.0
  9
$DIMCEN
 40
1.1862661973
  9
$DIMLFAC
 40
1.0
  9
$DIMBLK
  1
_FILLED
  9
$DIMALT
 70
0
  9
$DIMALTF
 40
0.0393700787
  9
$DIMTXT
 40
1.3105844983
  9
$DIMTOL
 70
1
  9
$DIMLIM
 70
0
  9
$DIMTFAC
 40
1.0
  9
$DIMTP
 40
0.01
  9
$DIMTM
 40
0.01
  9
$DIMGAP
 40
0.625
  9
$DIMDSEP
 70
46
  9
$AUNITS
 70
0
  9
$PDMODE
 70
3
  9
$PDSIZE
 40
0.3125
  9
$HANDSEED
  5
281
  9
$TILEMODE
 70
1
  9
$MEASUREMENT
 70
1
  9
$INSUNITS
 70
4
  0
ENDSEC
  0
SECTION
  2
CLASSES
  0
CLASS
  1
ACDBDICTIONARYWDFLT
  2
AcDbDictionaryWithDefault
  3
AutoCAD 2000
 90
0
 91
1
280
0
281
0
  0
CLASS
  1
ACDBPLACEHOLDER
  2
AcDbPlaceHolder
  3
AutoCAD 2000
 90
0
 91
1
280
0
281
0
  0
CLASS
  1
LAYOUT
  2
AcDbLayout
  3
AutoCAD 2000
 90
0
 91
0
280
0
281
0
  0
ENDSEC
  0
SECTION
  2
TABLES
  0
TABLE
  2
VPORT
  5
8
100
AcDbSymbolTable
 70
2
  0
VPORT
  5
1F4
100
AcDbSymbolTableRecord
100
AcDbViewportTableRecord
  2
*ACTIVE
 70
0
 10
0.0
 20
0.0
 11
1.0
 21
1.0
 12
39.3175349477
 22
55.6062279975
 13
0.0
 23
0.0
 14
1.0
 24
1.0
 15
0.0
 25
0.0
 16
0.0
 26
0.0
 36
1.0
 17
0.0
 27
0.0
 37
0.0
 40
111.212455995
 41
0.7070707071
 42
50.0
 43
0.0
 44
0.0
 50
0.0
 51
0.0
 71
0
 72
100
 73
1
 74
1
 75
0
 76
0
 77
0
 78
0
  0
ENDTAB
  0
TABLE
  2
LTYPE
  5
5
100
AcDbSymbolTable
 70
6
  0
LTYPE
  5
14
100
AcDbSymbolTableRecord
100
AcDbLinetypeTableRecord
  2
BYBLOCK
 70
0
  3

 72
65
 73
0
 40
0.0
  0
LTYPE
  5
15
100
AcDbSymbolTableRecord
100
AcDbLinetypeTableRecord
  2
BYLAYER
 70
0
  3

 72
65
 73
0
 40
0.0
  0
LTYPE
  5
16
100
AcDbSymbolTableRecord
100
AcDbLinetypeTableRecord
  2
CONTINUOUS
 70
64
  3
Solid line
 72
65
 73
0
 40
0.0
  0
LTYPE
  5
1F5
100
AcDbSymbolTableRecord
100
AcDbLinetypeTableRecord
  2
CENTER
 70
64
  3
____ _ ____ _ ____ _ ____ _ ____ _ ____ _ ____
 72
65
 73
4
 40
0.6
 49
0.375
 74
0
 49
-0.075
 74
0
 49
0.075
 74
0
 49
-0.075
 74
0
  0
LTYPE
  5
1F6
100
AcDbSymbolTableRecord
100
AcDbLinetypeTableRecord
  2
HIDDEN
 70
64
  3
- - - - - - - - - - - - - - - - - - - -
 72
65
 73
2
 40
0.2
 49
0.1
 74
0
 49
-0.1
 74
0
  0
LTYPE
  5
1F7
100
AcDbSymbolTableRecord
100
AcDbLinetypeTableRecord
  2
PHANTOM
 70
64
  3
_____ _ _ _____ _ _ _____ _ _ _____
 72
65
 73
6
 40
0.8
 49
0.45
 74
0
 49
-0.05
 74
0
 49
0.1
 74
0
 49
-0.05
 74
0
 49
0.1
 74
0
 49
-0.05
 74
0
  0
LTYPE
  5
1F8
100
AcDbSymbolTableRecord
100
AcDbLinetypeTableRecord
  2
DOT
 70
64
  3
. . . . . . . . . . . . . . . . . . . .
 72
65
 73
2
 40
0.2
 49
0.1
 74
0
 49
-0.1
 74
0
  0
LTYPE
  5
1F9
100
AcDbSymbolTableRecord
100
AcDbLinetypeTableRecord
  2
DASHED
 70
64
  3
- - - - - - - - - - - - - - - - - - - -
 72
65
 73
2
 40
0.2
 49
0.1
 74
0
 49
-0.1
 74
0
  0
ENDTAB
  0
TABLE
  2
LAYER
  5
2
100
AcDbSymbolTable
 70
36
  0
LAYER
  5
10
100
AcDbSymbolTableRecord
100
AcDbLayerTableRecord
  2
0
 70
0
 62
7
  6
CONTINUOUS
370
-3
390
F
  0
LAYER
  5
1FA
100
AcDbSymbolTableRecord
100
AcDbLayerTableRecord
  2
DEFAULT_1
 70
0
 62
7
  6
CENTER
370
-3
390
F
  0
LAYER
  5
1FB
100
AcDbSymbolTableRecord
100
AcDbLayerTableRecord
  2
DEFAULT_2
 70
0
 62
8
  6
HIDDEN
370
-3
390
F
  0
LAYER
  5
1FC
100
AcDbSymbolTableRecord
100
AcDbLayerTableRecord
  2
DEFAULT_3
 70
0
 62
7
  6
PHANTOM
370
-3
390
F
  0
LAYER
  5
1FD
100
AcDbSymbolTableRecord
100
AcDbLayerTableRecord
  2
00_COMPONENTS
 70
0
 62
7
  6
CONTINUOUS
370
-3
390
F
  0
LAYER
  5
1FE
100
AcDbSymbolTableRecord
100
AcDbLayerTableRecord
  2
01_1_DEFAULT_DATUMS
 70
0
 62
7
  6
CONTINUOUS
370
-3
390
F
  0
LAYER
  5
1FF
100
AcDbSymbolTableRecord
100
AcDbLayerTableRecord
  2
01_PLANES
 70
0
 62
7
  6
CONTINUOUS
370
-3
390
F
  0
LAYER
  5
200
100
AcDbSymbolTableRecord
100
AcDbLayerTableRecord
  2
02_COORD_SYS
 70
0
 62
7
  6
CONTINUOUS
370
-3
390
F
  0
LAYER
  5
201
100
AcDbSymbolTableRecord
100
AcDbLayerTableRecord
  2
03_AXES
 70
0
 62
7
  6
CONTINUOUS
370
-3
390
F
  0
LAYER
  5
202
100
AcDbSymbolTableRecord
100
AcDbLayerTableRecord
  2
04_POINTS
 70
0
 62
7
  6
CONTINUOUS
370
-3
390
F
  0
LAYER
  5
203
100
AcDbSymbolTableRecord
100
AcDbLayerTableRecord
  2
05_CURVES
 70
0
 62
7
  6
CONTINUOUS
370
-3
390
F
  0
LAYER
  5
204
100
AcDbSymbolTableRecord
100
AcDbLayerTableRecord
  2
06_SURFS
 70
0
 62
7
  6
CONTINUOUS
370
-3
390
F
  0
LAYER
  5
205
100
AcDbSymbolTableRecord
100
AcDbLayerTableRecord
  2
07_COSMETICS
 70
0
 62
7
  6
CONTINUOUS
370
-3
390
F
  0
LAYER
  5
206
100
AcDbSymbolTableRecord
100
AcDbLayerTableRecord
  2
10_NOTES
 70
0
 62
7
  6
CONTINUOUS
370
-3
390
F
  0
LAYER
  5
207
100
AcDbSymbolTableRecord
100
AcDbLayerTableRecord
  2
11_NOTES_PUB
 70
0
 62
7
  6
CONTINUOUS
370
-3
390
F
  0
LAYER
  5
208
100
AcDbSymbolTableRecord
100
AcDbLayerTableRecord
  2
13_REF_GTOL
 70
0
 62
7
  6
CONTINUOUS
370
-3
390
F
  0
LAYER
  5
209
100
AcDbSymbolTableRecord
100
AcDbLayerTableRecord
  2
16_MISC
 70
0
 62
7
  6
CONTINUOUS
370
-3
390
F
  0
LAYER
  5
20A
100
AcDbSymbolTableRecord
100
AcDbLayerTableRecord
  2
17_NO_PRINT
 70
0
 62
7
  6
CONTINUOUS
370
-3
390
F
  0
LAYER
  5
20B
100
AcDbSymbolTableRecord
100
AcDbLayerTableRecord
  2
18_DATUM_CAMS_JOINTS
 70
0
 62
7
  6
CONTINUOUS
370
-3
390
F
  0
LAYER
  5
20C
100
AcDbSymbolTableRecord
100
AcDbLayerTableRecord
  2
19_DATUM_FUNCTIONAL
 70
0
 62
7
  6
CONTINUOUS
370
-3
390
F
  0
LAYER
  5
20D
100
AcDbSymbolTableRecord
100
AcDbLayerTableRecord
  2
20_DATUM_KINEMATIC_SCHEME
 70
0
 62
7
  6
CONTINUOUS
370
-3
390
F
  0
LAYER
  5
20E
100
AcDbSymbolTableRecord
100
AcDbLayerTableRecord
  2
INTFCLR_75
 70
0
 62
7
  6
CONTINUOUS
370
-3
390
F
  0
ENDTAB
  0
TABLE
  2
STYLE
  5
3
100
AcDbSymbolTable
 70
1
  0
STYLE
  5
11
100
AcDbSymbolTableRecord
100
AcDbTextStyleTableRecord
  2
STANDARD
 70
0
 40
0.0
 41
0.8
 50
0.0
 71
0
 42
0.2
  3
txt
  4

  0
STYLE
  5
20F
100
AcDbSymbolTableRecord
100
AcDbTextStyleTableRecord
  2
TEXTSTYLE_1
 70
0
 40
0.0
 41
0.8
 50
0.0
 71
0
 42
0.2
  3
gdt
  4

  0
ENDTAB
  0
TABLE
  2
VIEW
  5
6
100
AcDbSymbolTable
 70
0
  0
ENDTAB
  0
TABLE
  2
UCS
  5
7
100
AcDbSymbolTable
 70
0
  0
ENDTAB
  0
TABLE
  2
APPID
  5
9
100
AcDbSymbolTable
 70
1
  0
APPID
  5
210
100
AcDbSymbolTableRecord
100
AcDbRegAppTableRecord
  2
ACAD
 70
0
  0
ENDTAB
  0
TABLE
  2
BLOCK_RECORD
  5
1
100
AcDbSymbolTable
 70
0
  0
BLOCK_RECORD
  5
211
100
AcDbSymbolTableRecord
100
AcDbBlockTableRecord
  2
*Model_Space
  0
BLOCK_RECORD
  5
212
100
AcDbSymbolTableRecord
100
AcDbBlockTableRecord
  2
*Paper_Space
  0
BLOCK_RECORD
  5
213
100
AcDbSymbolTableRecord
100
AcDbBlockTableRecord
  2
_FILLED
  0
ENDTAB
  0
TABLE
  2
DIMSTYLE
  5
A
100
AcDbSymbolTable
 70
1
100
AcDbDimStyleTable
 71
0
  0
DIMSTYLE
105
214
100
AcDbSymbolTableRecord
100
AcDbDimStyleTableRecord
  2
STANDARD
 70
0
  3

  4

 40
1.0
 41
0.9361317845
 42
1.0
 43
0.38
 44
1.0
 45
0.0
 46
0.0
 47
0.01
 48
0.01
140
1.3105844983
141
0.09
142
0.0
143
25.4
144
1.0
145
0.0
146
1.0
147
0.625
 71
1
 72
0
 73
0
 74
0
 75
0
 76
0
 77
1
 78
8
 79
2
170
0
171
1
172
0
173
0
174
0
175
0
176
0
177
0
178
0
270
2
179
2
271
2
272
2
273
2
274
2
275
0
280
0
281
0
282
0
283
1
284
8
285
0
286
0
287
3
288
0
340
11
278
46
341
213
342
213
343
213
344
213
  0
ENDTAB
  0
ENDSEC
  0
SECTION
  2
BLOCKS
  0
BLOCK
  5
20
100
AcDbEntity
  8
0
100
AcDbBlockBegin
  2
*Model_Space
 70
0
 10
0.0
 20
0.0
 30
0.0
  3
*Model_Space
  1

  0
ENDBLK
  5
21
100
AcDbEntity
  8
0
100
AcDbBlockEnd
  0
BLOCK
  5
1C
100
AcDbEntity
  8
0
100
AcDbBlockBegin
  2
*Paper_Space
 70
0
 10
0.0
 20
0.0
 30
0.0
  3
*Paper_Space
  1

  0
ENDBLK
  5
1D
100
AcDbEntity
  8
0
100
AcDbBlockEnd
  0
BLOCK
  5
215
100
AcDbEntity
  8
0
100
AcDbBlockBegin
  2
_FILLED
 70
64
 10
0.0
 20
0.0
  3
_FILLED
  1

  0
SOLID
  5
216
100
AcDbEntity
  8
0
  6
BYBLOCK
 62
0
100
AcDbTrace
 10
0.0
 20
0.0
 11
-1.0
 21
0.25
 12
-1.0
 22
-0.25
 13
-1.0
 23
-0.25
  0
ENDBLK
  5
217
100
AcDbEntity
  8
0
  6
BYBLOCK
 62
0
100
AcDbBlockEnd
  0
ENDSEC
  0
SECTION
  2
ENTITIES
  0
LINE
  5
218
100
AcDbEntity
  8
0
100
AcDbLine
 62
7
  6
CONTINUOUS
 10
28.5084949591
 20
8.5835117043
 11
21.8616635427
 21
12.4209747968
  0
LINE
  5
219
100
AcDbEntity
  8
0
100
AcDbLine
 62
7
  6
CONTINUOUS
 10
23.1345564325
 20
15.6825910905
 11
10.4065813798
 21
23.0309246719
  0
LINE
  5
21A
100
AcDbEntity
  8
0
100
AcDbLine
 62
7
  6
CONTINUOUS
 10
22.8175014348
 20
18.7267757687
 11
16.3098049726
 21
22.4839110753
  0
LINE
  5
21B
100
AcDbEntity
  8
0
100
AcDbLine
 62
7
  6
CONTINUOUS
 10
16.8059252756
 20
22.7703544554
 11
22.3213811318
 21
19.5860765701
  0
LINE
  5
21C
100
AcDbEntity
  8
0
100
AcDbLine
 62
7
  6
CONTINUOUS
 10
22.3213811318
 20
21.1118118887
 11
16.9716151322
 21
24.2004308548
  0
LINE
  5
21D
100
AcDbEntity
  8
0
100
AcDbLine
 62
7
  6
CONTINUOUS
 10
28.5084949591
 20
18.509860399
 11
34.5896385954
 21
14.9989899101
  0
LINE
  5
21E
100
AcDbEntity
  8
0
100
AcDbLine
 62
7
  6
CONTINUOUS
 10
17.1326564126
 20
25.3473614318
 11
22.3213811318
 21
22.3517175889
  0
LINE
  5
21F
100
AcDbEntity
  8
0
100
AcDbLine
 62
7
  6
CONTINUOUS
 10
22.3213811318
 20
23.1786872055
 11
16.8059252756
 21
26.3629650907
  0
LINE
  5
220
100
AcDbEntity
  8
0
100
AcDbLine
 62
7
  6
CONTINUOUS
 10
21.1882731778
 20
85.6806678842
 11
24.7977485028
 21
87.7645869954
  0
LINE
  5
221
100
AcDbEntity
  8
0
100
AcDbLine
 62
7
  6
CONTINUOUS
 10
43.7236724697
 20
98.691409068
 11
50.2393444829
 21
102.4532116038
  0
LINE
  5
222
100
AcDbEntity
  8
0
100
AcDbLine
 62
7
  6
CONTINUOUS
 10
21.8616635427
 20
83.4566850871
 11
23.3324395235
 21
84.3058329268
  0
LINE
  5
223
100
AcDbEntity
  8
0
100
AcDbLine
 62
7
  6
CONTINUOUS
 10
27.1790844031
 20
86.5266811268
 11
45.8678388155
 21
97.3165741106
  0
LINE
  5
224
100
AcDbEntity
  8
0
100
AcDbLine
 62
7
  6
CONTINUOUS
 10
52.6206807304
 20
101.2153059358
 11
55.5392968517
 21
102.9003596806
  0
LINE
  5
225
100
AcDbEntity
  8
0
100
AcDbLine
 62
7
  6
CONTINUOUS
 10
16.3098049726
 20
27.2222658921
 11
22.8175014348
 21
23.4651305856
  0
LINE
  5
226
100
AcDbEntity
  8
0
100
AcDbLine
 62
7
  6
CONTINUOUS
 10
16.4158705482
 20
27.2835025152
 11
22.9235670104
 21
23.5263672087
  0
LINE
  5
227
100
AcDbEntity
  8
0
100
AcDbLine
 62
7
  6
CONTINUOUS
 10
40.3171290406
 20
15.401189074
 11
46.3982726768
 21
11.8903185851
  0
LINE
  5
228
100
AcDbEntity
  8
0
100
AcDbLine
 62
7
  6
CONTINUOUS
 10
10.4065813798
 20
59.6196246266
 11
10.4065813798
 21
23.0309246719
  0
LINE
  5
229
100
AcDbEntity
  8
0
100
AcDbLine
 62
7
  6
CONTINUOUS
 10
32.2207388795
 20
88.8659225054
 11
26.7053289492
 21
85.6816181052
  0
LINE
  5
22A
100
AcDbEntity
  8
0
100
AcDbLine
 62
7
  6
CONTINUOUS
 10
32.2914957778
 20
82.4565161445
 11
37.8069057081
 21
85.6408205447
  0
LINE
  5
22B
100
AcDbEntity
  8
0
100
AcDbLine
 62
7
  6
CONTINUOUS
 10
49.2619925813
 20
91.6011879107
 11
43.7465826511
 21
88.4168835105
  0
LINE
  5
22C
100
AcDbEntity
  8
0
100
AcDbLine
 62
7
  6
CONTINUOUS
 10
40.3171290406
 20
86.4368993642
 11
28.5084949591
 21
79.6192219946
  0
LINE
  5
22D
100
AcDbEntity
  8
0
100
AcDbLine
 62
7
  6
CONTINUOUS
 10
16.3098049726
 20
22.4839110753
 11
16.3098049726
 21
27.2222658921
  0
LINE
  5
22E
100
AcDbEntity
  8
0
100
AcDbLine
 62
7
  6
CONTINUOUS
 10
16.8059252756
 20
26.3629650907
 11
16.8059252756
 21
22.7703544554
  0
LINE
  5
22F
100
AcDbEntity
  8
0
100
AcDbLine
 62
7
  6
CONTINUOUS
 10
32.2207388795
 20
88.8659225054
 11
30.5236896701
 21
85.926530735
  0
LINE
  5
230
100
AcDbEntity
  8
0
100
AcDbLine
 62
7
  6
CONTINUOUS
 10
21.1882731778
 20
83.1495103911
 11
21.1882731778
 21
85.6806678842
  0
LINE
  5
231
100
AcDbEntity
  8
0
100
AcDbLine
 62
7
  6
CONTINUOUS
 10
21.8616635427
 20
12.4209747968
 11
21.8616635427
 21
16.4174795177
  0
LINE
  5
232
100
AcDbEntity
  8
0
100
AcDbLine
 62
7
  6
CONTINUOUS
 10
21.8616635427
 20
66.3101343274
 11
21.8616635427
 21
83.4566850871
  0
LINE
  5
233
100
AcDbEntity
  8
0
100
AcDbLine
 62
7
  6
CONTINUOUS
 10
21.8616635427
 20
66.3101343274
 11
10.4065813798
 21
59.6196246266
  0
LINE
  5
234
100
AcDbEntity
  8
0
100
AcDbLine
 62
7
  6
CONTINUOUS
 10
49.3327494797
 20
85.1917815498
 11
54.84815941
 21
88.37608595
  0
LINE
  5
235
100
AcDbEntity
  8
0
100
AcDbLine
 62
7
  6
CONTINUOUS
 10
46.3982726768
 20
82.9260288754
 11
68.2672719043
 21
95.5520260992
  0
LINE
  5
236
100
AcDbEntity
  8
0
100
AcDbLine
 62
7
  6
CONTINUOUS
 10
22.3213811318
 20
19.5860765701
 11
22.3213811318
 21
23.1786872055
  0
LINE
  5
237
100
AcDbEntity
  8
0
100
AcDbLine
 62
7
  6
CONTINUOUS
 10
22.8175014348
 20
23.4651305856
 11
22.8175014348
 21
18.7267757687
  0
LINE
  5
238
100
AcDbEntity
  8
0
100
AcDbLine
 62
7
  6
CONTINUOUS
 10
22.9235670104
 20
23.5263672087
 11
22.9235670104
 21
18.7880123918
  0
LINE
  5
239
100
AcDbEntity
  8
0
100
AcDbLine
 62
7
  6
CONTINUOUS
 10
23.1345564325
 20
52.2712910452
 11
23.1345564325
 21
15.6825910905
  0
LINE
  5
23A
100
AcDbEntity
  8
0
100
AcDbLine
 62
7
  6
CONTINUOUS
 10
40.3171290406
 20
76.5898802137
 11
28.5084949591
 21
69.6928732999
  0
LINE
  5
23B
100
AcDbEntity
  8
0
100
AcDbLine
 62
7
  6
CONTINUOUS
 10
28.5084949591
 20
8.5835117043
 11
28.5084949591
 21
18.509860399
  0
LINE
  5
23C
100
AcDbEntity
  8
0
100
AcDbLine
 62
7
  6
CONTINUOUS
 10
28.5084949591
 20
69.6928732999
 11
28.5084949591
 21
79.6192219946
  0
LINE
  5
23D
100
AcDbEntity
  8
0
100
AcDbLine
 62
7
  6
CONTINUOUS
 10
34.5896385954
 20
66.182002811
 11
46.3982726768
 21
73.0790097248
  0
LINE
  5
23E
100
AcDbEntity
  8
0
100
AcDbLine
 62
7
  6
CONTINUOUS
 10
23.1345564325
 20
52.2712910452
 11
10.4065813798
 21
59.6196246266
  0
LINE
  5
23F
100
AcDbEntity
  8
0
100
AcDbLine
 62
7
  6
CONTINUOUS
 10
30.5236896701
 20
83.4771363872
 11
30.5236896701
 21
85.926530735
  0
LINE
  5
240
100
AcDbEntity
  8
0
100
AcDbLine
 62
7
  6
CONTINUOUS
 10
49.2619925813
 20
91.6011879107
 11
47.564943372
 21
88.6617961403
  0
LINE
  5
241
100
AcDbEntity
  8
0
100
AcDbLine
 62
7
  6
CONTINUOUS
 10
34.5896385954
 20
14.9989899101
 11
34.5896385954
 21
22.2191919752
  0
LINE
  5
242
100
AcDbEntity
  8
0
100
AcDbLine
 62
7
  6
CONTINUOUS
 10
34.5896385954
 20
58.961800746
 11
34.5896385954
 21
66.182002811
  0
LINE
  5
243
100
AcDbEntity
  8
0
100
AcDbLine
 62
7
  6
CONTINUOUS
 10
23.1345564325
 20
52.2712910452
 11
34.5896385954
 21
58.961800746
  0
LINE
  5
244
100
AcDbEntity
  8
0
100
AcDbLine
 62
7
  6
CONTINUOUS
 10
65.3769396677
 20
74.4505444376
 11
69.44985777
 21
76.8020307639
  0
LINE
  5
245
100
AcDbEntity
  8
0
100
AcDbLine
 62
7
  6
CONTINUOUS
 10
40.3171290406
 20
86.4368993642
 11
40.3171290406
 21
76.5898802137
  0
LINE
  5
246
100
AcDbEntity
  8
0
100
AcDbLine
 62
7
  6
CONTINUOUS
 10
40.3171290406
 20
18.267261458
 11
40.3171290406
 21
15.401189074
  0
LINE
  5
247
100
AcDbEntity
  8
0
100
AcDbLine
 62
7
  6
CONTINUOUS
 10
34.5896385954
 20
58.961800746
 11
21.8616635427
 21
66.3101343274
  0
LINE
  5
248
100
AcDbEntity
  8
0
100
AcDbLine
 62
7
  6
CONTINUOUS
 10
43.7236724697
 20
96.1602515749
 11
43.7236724697
 21
98.691409068
  0
LINE
  5
249
100
AcDbEntity
  8
0
100
AcDbLine
 62
7
  6
CONTINUOUS
 10
17.6211730748
 20
25.8922922025
 11
17.1326564126
 21
25.3473614318
  0
LINE
  5
24A
100
AcDbEntity
  8
0
100
AcDbLine
 62
7
  6
CONTINUOUS
 10
46.3982726768
 20
21.7373377357
 11
46.3982726768
 21
11.8903185851
  0
LINE
  5
24B
100
AcDbEntity
  8
0
100
AcDbLine
 62
7
  6
CONTINUOUS
 10
46.3982726768
 20
73.0790097248
 11
46.3982726768
 21
82.9260288754
  0
LINE
  5
24C
100
AcDbEntity
  8
0
100
AcDbLine
 62
7
  6
CONTINUOUS
 10
47.564943372
 20
86.2124017924
 11
47.564943372
 21
88.6617961403
  0
LINE
  5
24D
100
AcDbEntity
  8
0
100
AcDbLine
 62
7
  6
CONTINUOUS
 10
65.3769396677
 20
46.8200240276
 11
69.44985777
 21
44.4685350456
  0
LINE
  5
24E
100
AcDbEntity
  8
0
100
AcDbLine
 62
7
  6
CONTINUOUS
 10
28.5084949591
 20
69.6928732999
 11
34.5896385954
 21
66.182002811
  0
LINE
  5
24F
100
AcDbEntity
  8
0
100
AcDbLine
 62
7
  6
CONTINUOUS
 10
16.3098049726
 20
27.2222658921
 11
16.4158705482
 21
27.2835025152
  0
LINE
  5
250
100
AcDbEntity
  8
0
100
AcDbLine
 62
7
  6
CONTINUOUS
 10
21.8616635427
 20
83.4566850871
 11
28.5084949591
 21
79.6192219946
  0
LINE
  5
251
100
AcDbEntity
  8
0
100
AcDbLine
 62
7
  6
CONTINUOUS
 10
21.1882731778
 20
83.1495103911
 11
21.8616635427
 21
82.7177339034
  0
LINE
  5
252
100
AcDbEntity
  8
0
100
AcDbLine
 62
7
  6
CONTINUOUS
 10
23.3324395235
 20
84.3058329268
 11
21.1882731778
 21
85.6806678842
  0
LINE
  5
253
100
AcDbEntity
  8
0
100
AcDbLine
 62
7
  6
CONTINUOUS
 10
16.8059252756
 20
22.7703544554
 11
18.1272697107
 21
23.5332284669
  0
LINE
  5
254
100
AcDbEntity
  8
0
100
AcDbLine
 62
7
  6
CONTINUOUS
 10
40.3171290406
 20
76.5898802137
 11
46.3982726768
 21
73.0790097248
  0
LINE
  5
255
100
AcDbEntity
  8
0
100
AcDbLine
 62
7
  6
CONTINUOUS
 10
22.8175014348
 20
23.4651305856
 11
22.9235670104
 21
23.5263672087
  0
LINE
  5
256
100
AcDbEntity
  8
0
100
AcDbLine
 62
7
  6
CONTINUOUS
 10
24.7977485028
 20
87.7645869954
 11
27.1790844031
 21
86.5266811268
  0
LINE
  5
257
100
AcDbEntity
  8
0
100
AcDbLine
 62
7
  6
CONTINUOUS
 10
26.7053289492
 20
85.6816181052
 11
32.2914957778
 21
82.4565161445
  0
LINE
  5
258
100
AcDbEntity
  8
0
100
AcDbLine
 62
7
  6
CONTINUOUS
 10
34.4127638323
 20
83.6812235162
 11
30.5236896701
 21
85.926530735
  0
LINE
  5
259
100
AcDbEntity
  8
0
100
AcDbLine
 62
7
  6
CONTINUOUS
 10
65.3769396677
 20
74.4505444376
 11
65.3769396677
 21
43.7500535535
  0
LINE
  5
25A
100
AcDbEntity
  8
0
100
AcDbLine
 62
7
  6
CONTINUOUS
 10
65.3769396677
 20
43.7500535535
 11
68.0356500956
 21
45.2850515721
  0
LINE
  5
25B
100
AcDbEntity
  8
0
100
AcDbLine
 62
7
  6
CONTINUOUS
 10
22.8175014348
 20
18.7267757687
 11
22.9235670104
 21
18.7880123918
  0
LINE
  5
25C
100
AcDbEntity
  8
0
100
AcDbLine
 62
7
  6
CONTINUOUS
 10
37.8069057081
 20
85.6408205447
 11
32.2207388795
 21
88.8659225054
  0
LINE
  5
25D
100
AcDbEntity
  8
0
100
AcDbLine
 62
7
  6
CONTINUOUS
 10
69.44985777
 20
86.5184095277
 11
69.44985777
 21
76.8020307639
  0
LINE
  5
25E
100
AcDbEntity
  8
0
100
AcDbLine
 62
7
  6
CONTINUOUS
 10
69.44985777
 20
44.4685350456
 11
69.44985777
 21
25.1990780013
  0
LINE
  5
25F
100
AcDbEntity
  8
0
100
AcDbLine
 62
7
  6
CONTINUOUS
 10
34.5896385954
 20
22.2191919752
 11
23.1345564325
 21
15.6825910905
  0
LINE
  5
260
100
AcDbEntity
  8
0
100
AcDbLine
 62
7
  6
CONTINUOUS
 10
40.3171290406
 20
86.4368993642
 11
46.3982726768
 21
82.9260288754
  0
LINE
  5
261
100
AcDbEntity
  8
0
100
AcDbLine
 62
7
  6
CONTINUOUS
 10
46.3982726768
 20
21.7373377357
 11
34.5896385954
 21
14.9989899101
  0
LINE
  5
262
100
AcDbEntity
  8
0
100
AcDbLine
 62
7
  6
CONTINUOUS
 10
43.7465826511
 20
88.4168835105
 11
49.3327494797
 21
85.1917815498
  0
LINE
  5
263
100
AcDbEntity
  8
0
100
AcDbLine
 62
7
  6
CONTINUOUS
 10
51.4540175341
 20
86.4164889215
 11
47.564943372
 21
88.6617961403
  0
LINE
  5
264
100
AcDbEntity
  8
0
100
AcDbLine
 62
7
  6
CONTINUOUS
 10
68.2672719043
 20
95.5520260992
 11
69.44985777
 21
86.5184095277
  0
LINE
  5
265
100
AcDbEntity
  8
0
100
AcDbLine
 62
7
  6
CONTINUOUS
 10
40.3171290406
 20
15.401189074
 11
28.5084949591
 21
8.5835117043
  0
LINE
  5
266
100
AcDbEntity
  8
0
100
AcDbLine
 62
7
  6
CONTINUOUS
 10
54.84815941
 20
88.37608595
 11
49.2619925813
 21
91.6011879107
  0
LINE
  5
267
100
AcDbEntity
  8
0
100
AcDbLine
 62
7
  6
CONTINUOUS
 10
43.7236724697
 20
96.1602515749
 11
43.7906417736
 21
96.117310998
  0
LINE
  5
268
100
AcDbEntity
  8
0
100
AcDbLine
 62
7
  6
CONTINUOUS
 10
46.3982726768
 20
11.8903185851
 11
69.44985777
 21
25.1990780013
  0
LINE
  5
269
100
AcDbEntity
  8
0
100
AcDbLine
 62
7
  6
CONTINUOUS
 10
45.8678388155
 20
97.3165741106
 11
43.7236724697
 21
98.691409068
  0
LINE
  5
26A
100
AcDbEntity
  8
0
100
AcDbLine
 62
7
  6
CONTINUOUS
 10
50.2393444829
 20
102.4532116038
 11
52.6206807304
 21
101.2153059358
  0
LINE
  5
26B
100
AcDbEntity
  8
0
100
AcDbLine
 62
7
  6
CONTINUOUS
 10
55.5392968517
 20
102.9003596806
 11
68.2672719043
 21
95.5520260992
  0
SPLINE
  5
26C
100
AcDbEntity
  8
0
100
AcDbSpline
 62
7
  6
CONTINUOUS
 70
0
 71
3
 72
12
 73
8
 74
0
 42
0.0000001
 43
0.0000001
 44
0.0000000001
 40
0.0
 40
0.0
 40
0.0
 40
0.0
 40
0.1081609636
 40
0.2183678068
 40
0.4513466778
 40
0.710443771
 40
1.0
 40
1.0
 40
1.0
 40
1.0
 10
26.6997054318
 20
14.5333120852
 30
0.0
 10
26.7505304987
 20
14.5626557779
 30
0.0
 10
26.848270067
 20
14.6308364546
 30
0.0
 10
27.0235161821
 20
14.8033004619
 30
0.0
 10
27.1971841222
 20
15.0863041179
 30
0.0
 10
27.3179280294
 20
15.4965624466
 30
0.0
 10
27.3417639126
 20
15.7953168808
 30
0.0
 10
27.3417639126
 20
15.9524287697
 30
0.0
  0
SPLINE
  5
26D
100
AcDbEntity
  8
0
100
AcDbSpline
 62
7
  6
CONTINUOUS
 70
0
 71
3
 72
20
 73
16
 74
0
 42
0.0000001
 43
0.0000001
 44
0.0000000001
 40
0.0
 40
0.0
 40
0.0
 40
0.0
 40
0.0623929511
 40
0.1288126399
 40
0.2703067509
 40
0.417367232
 40
0.5616168307
 40
0.6302528003
 40
0.6953795482
 40
0.7563622729
 40
0.8128317681
 40
0.8647645618
 40
0.9125662847
 40
0.9571673789
 40
1.0
 40
1.0
 40
1.0
 40
1.0
 10
45.3022526029
 20
76.8634822244
 30
0.0
 10
45.3022526029
 20
76.9920333011
 30
0.0
 10
45.2847665034
 20
77.2576185526
 30
0.0
 10
45.1871865828
 20
77.8067731713
 30
0.0
 10
44.9512990375
 20
78.5039822332
 30
0.0
 10
44.5251547041
 20
79.291503659
 30
0.0
 10
44.0660933156
 20
79.8794489463
 30
0.0
 10
43.652956873
 20
80.2773590719
 30
0.0
 10
43.3364007936
 20
80.5252159786
 30
0.0
 10
43.014696172
 20
80.7220108339
 30
0.0
 10
42.6943882032
 20
80.8635576771
 30
0.0
 10
42.3818593839
 20
80.9466398286
 30
0.0
 10
42.0832255086
 20
80.9685588345
 30
0.0
 10
41.8051207009
 20
80.9278606135
 30
0.0
 10
41.6366629789
 20
80.8578072111
 30
0.0
 10
41.5602284679
 20
80.8136956181
 30
0.0
  0
SPLINE
  5
26E
100
AcDbEntity
  8
0
100
AcDbSpline
 62
7
  6
CONTINUOUS
 70
0
 71
3
 72
12
 73
8
 74
0
 42
0.0000001
 43
0.0000001
 44
0.0000000001
 40
0.0
 40
0.0
 40
0.0
 40
0.0
 40
0.2895552427
 40
0.5486519846
 40
0.7816312595
 40
0.8918385311
 40
1.0
 40
1.0
 40
1.0
 40
1.0
 10
25.1497237646
 20
77.3942032512
 30
0.0
 10
25.0136642128
 20
77.472755493
 30
0.0
 10
24.7430240388
 20
77.6014838876
 30
0.0
 10
24.3273687946
 20
77.7020395152
 30
0.0
 10
23.9954553022
 20
77.693139023
 30
0.0
 10
23.7584797364
 20
77.6276049354
 30
0.0
 10
23.6505660417
 20
77.5770518261
 30
0.0
 10
23.5997420975
 20
77.5477087816
 30
0.0
  0
SPLINE
  5
26F
100
AcDbEntity
  8
0
100
AcDbSpline
 62
7
  6
CONTINUOUS
 70
0
 71
3
 72
15
 73
11
 74
0
 42
0.0000001
 43
0.0000001
 44
0.0000000001
 40
0.0
 40
0.0
 40
0.0
 40
0.0
 40
0.1141474765
 40
0.2373368178
 40
0.3669776594
 40
0.5000010819
 40
0.633024354
 40
0.7626647561
 40
0.8858534048
 40
1.0
 40
1.0
 40
1.0
 40
1.0
 10
27.3417639126
 20
73.5974994191
 30
0.0
 10
27.3417639126
 20
73.7707646728
 30
0.0
 10
27.3100050578
 20
74.1313534966
 30
0.0
 10
27.1835129948
 20
74.6753329612
 30
0.0
 10
26.9807840961
 20
75.2263284042
 30
0.0
 10
26.7095469403
 20
75.7636354409
 30
0.0
 10
26.3798419502
 20
76.2671851079
 30
0.0
 10
26.0040292158
 20
76.7182477474
 30
0.0
 10
25.5961750059
 20
77.0997781577
 30
0.0
 10
25.2997755661
 20
77.3075727631
 30
0.0
 10
25.1497237646
 20
77.3942032512
 30
0.0
  0
SPLINE
  5
270
100
AcDbEntity
  8
0
100
AcDbSpline
 62
7
  6
CONTINUOUS
 70
0
 71
3
 72
12
 73
8
 74
0
 42
0.0000001
 43
0.0000001
 44
0.0000000001
 40
0.0
 40
0.0
 40
0.0
 40
0.0
 40
0.1081621688
 40
0.218372233
 40
0.4513384398
 40
0.7104790775
 40
1.0
 40
1.0
 40
1.0
 40
1.0
 10
44.6601964419
 20
17.7992908594
 30
0.0
 10
44.7110268851
 20
17.8286259306
 30
0.0
 10
44.808742317
 20
17.8968466473
 30
0.0
 10
44.9839990325
 20
18.0692839183
 30
0.0
 10
45.1576893441
 20
18.3523023375
 30
0.0
 10
45.2783930667
 20
18.7625663569
 30
0.0
 10
45.3022526029
 20
19.0613196672
 30
0.0
 10
45.3022526029
 20
19.2184115751
 30
0.0
  0
SPLINE
  5
271
100
AcDbEntity
  8
0
100
AcDbSpline
 62
7
  6
CONTINUOUS
 70
0
 71
3
 72
12
 73
8
 74
0
 42
0.0000001
 43
0.0000001
 44
0.0000000001
 40
0.0
 40
0.0
 40
0.0
 40
0.0
 40
0.1081609636
 40
0.2183678068
 40
0.4513466778
 40
0.710443771
 40
1.0
 40
1.0
 40
1.0
 40
1.0
 10
26.6997054318
 20
72.1783827346
 30
0.0
 10
26.7505304987
 20
72.2077264273
 30
0.0
 10
26.848270067
 20
72.275907104
 30
0.0
 10
27.0235161821
 20
72.4483711112
 30
0.0
 10
27.1971841222
 20
72.7313747673
 30
0.0
 10
27.3179280294
 20
73.1416330959
 30
0.0
 10
27.3417639126
 20
73.4403875301
 30
0.0
 10
27.3417639126
 20
73.5974994191
 30
0.0
  0
SPLINE
  5
272
100
AcDbEntity
  8
0
100
AcDbSpline
 62
7
  6
CONTINUOUS
 70
0
 71
3
 72
12
 73
8
 74
0
 42
0.0000001
 43
0.0000001
 44
0.0000000001
 40
0.0
 40
0.0
 40
0.0
 40
0.0
 40
0.1081830621
 40
0.2183974586
 40
0.4513661005
 40
0.710543416
 40
1.0
 40
1.0
 40
1.0
 40
1.0
 10
44.6602024347
 20
75.4443511412
 30
0.0
 10
44.7110330038
 20
75.4737078628
 30
0.0
 10
44.8087244482
 20
75.5419784952
 30
0.0
 10
44.9840511469
 20
75.7143604542
 30
0.0
 10
45.1576985135
 20
75.9974482288
 30
0.0
 10
45.2783754491
 20
76.4076901041
 30
0.0
 10
45.3022526029
 20
76.7064263032
 30
0.0
 10
45.3022526029
 20
76.8634822244
 30
0.0
  0
SPLINE
  5
273
100
AcDbEntity
  8
0
100
AcDbSpline
 62
7
  6
CONTINUOUS
 70
0
 71
3
 72
10
 73
6
 74
0
 42
0.0000001
 43
0.0000001
 44
0.0000000001
 40
0.0
 40
0.0
 40
0.0
 40
0.0
 40
0.2295947603
 40
0.4755139878
 40
1.0
 40
1.0
 40
1.0
 40
1.0
 10
27.3417639126
 20
15.9524287697
 30
0.0
 10
27.3417639126
 20
16.1002888499
 30
0.0
 10
27.3186445891
 20
16.4068087737
 30
0.0
 10
27.1910627084
 20
17.0390851436
 30
0.0
 10
27.0118049692
 20
17.506823768
 30
0.0
 10
26.8620829672
 20
17.8095990004
 30
0.0
  0
SPLINE
  5
274
100
AcDbEntity
  8
0
100
AcDbSpline
 62
7
  6
CONTINUOUS
 70
0
 71
3
 72
10
 73
6
 74
0
 42
0.0000001
 43
0.0000001
 44
0.0000000001
 40
0.0
 40
0.0
 40
0.0
 40
0.0
 40
0.2305897251
 40
0.4763320504
 40
1.0
 40
1.0
 40
1.0
 40
1.0
 10
45.3022526029
 20
19.2184115751
 30
0.0
 10
45.3022526029
 20
19.3501499137
 30
0.0
 10
45.2838791337
 20
19.6224990916
 30
0.0
 10
45.1816423704
 20
20.1853604321
 30
0.0
 10
45.0367472596
 20
20.6041055328
 30
0.0
 10
44.9154060291
 20
20.87757069
 30
0.0
  0
SPLINE
  5
275
100
AcDbEntity
  8
0
100
AcDbSpline
 62
7
  6
CONTINUOUS
 70
0
 71
3
 72
12
 73
8
 74
0
 42
0.0000001
 43
0.0000001
 44
0.0000000001
 40
0.0
 40
0.0
 40
0.0
 40
0.0
 40
0.1081609636
 40
0.2183678068
 40
0.4513466778
 40
0.710443771
 40
1.0
 40
1.0
 40
1.0
 40
1.0
 10
23.5997420975
 20
77.5477087816
 30
0.0
 10
23.5489170306
 20
77.5183650889
 30
0.0
 10
23.4511774623
 20
77.4501844122
 30
0.0
 10
23.2759313472
 20
77.2777204049
 30
0.0
 10
23.1022634071
 20
76.9947167489
 30
0.0
 10
22.9815194998
 20
76.5844584203
 30
0.0
 10
22.9576836167
 20
76.2857039861
 30
0.0
 10
22.9576836167
 20
76.1285920971
 30
0.0
  0
SPLINE
  5
276
100
AcDbEntity
  8
0
100
AcDbSpline
 62
7
  6
CONTINUOUS
 70
0
 71
3
 72
12
 73
8
 74
0
 42
0.0000001
 43
0.0000001
 44
0.0000000001
 40
0.0
 40
0.0
 40
0.0
 40
0.0
 40
0.1081621688
 40
0.218372233
 40
0.4513384398
 40
0.7104790775
 40
1.0
 40
1.0
 40
1.0
 40
1.0
 10
41.5602284679
 20
80.8136956181
 30
0.0
 10
41.5093980247
 20
80.7843605469
 30
0.0
 10
41.4116825926
 20
80.7161398301
 30
0.0
 10
41.2364258771
 20
80.543702559
 30
0.0
 10
41.0627355654
 20
80.2606841393
 30
0.0
 10
40.9420318429
 20
79.8504201194
 30
0.0
 10
40.9181723069
 20
79.5516668088
 30
0.0
 10
40.9181723069
 20
79.3945749007
 30
0.0
  0
SPLINE
  5
277
100
AcDbEntity
  8
0
100
AcDbSpline
 62
7
  6
CONTINUOUS
 70
0
 71
3
 72
12
 73
8
 74
0
 42
0.0000001
 43
0.0000001
 44
0.0000000001
 40
0.0
 40
0.0
 40
0.0
 40
0.0
 40
0.2895552427
 40
0.5486519846
 40
0.7816312595
 40
0.8918385311
 40
1.0
 40
1.0
 40
1.0
 40
1.0
 10
25.1497237646
 20
14.6868176156
 30
0.0
 10
25.2857833165
 20
14.6082653738
 30
0.0
 10
25.5564234905
 20
14.4795369792
 30
0.0
 10
25.9720787347
 20
14.3789813517
 30
0.0
 10
26.3039922271
 20
14.3878818438
 30
0.0
 10
26.5409677929
 20
14.4534159315
 30
0.0
 10
26.6488814876
 20
14.5039690407
 30
0.0
 10
26.6997054318
 20
14.5333120852
 30
0.0
  0
SPLINE
  5
278
100
AcDbEntity
  8
0
100
AcDbSpline
 62
7
  6
CONTINUOUS
 70
0
 71
3
 72
10
 73
6
 74
0
 42
0.0000001
 43
0.0000001
 44
0.0000000001
 40
0.0
 40
0.0
 40
0.0
 40
0.0
 40
0.5245344496
 40
0.7704781922
 40
1.0
 40
1.0
 40
1.0
 40
1.0
 10
23.7713249878
 20
16.0456807457
 30
0.0
 10
23.9594597438
 20
15.7613790088
 30
0.0
 10
24.2768519811
 20
15.3677610887
 30
0.0
 10
24.7644245786
 20
14.9364389238
 30
0.0
 10
25.0205341788
 20
14.7614035705
 30
0.0
 10
25.1497237646
 20
14.6868176156
 30
0.0
  0
SPLINE
  5
279
100
AcDbEntity
  8
0
100
AcDbSpline
 62
7
  6
CONTINUOUS
 70
0
 71
3
 72
15
 73
11
 74
0
 42
0.0000001
 43
0.0000001
 44
0.0000000001
 40
0.0
 40
0.0
 40
0.0
 40
0.0
 40
0.156911845
 40
0.3076096231
 40
0.4494866261
 40
0.5805959983
 40
0.6999591164
 40
0.8079432645
 40
0.9066344152
 40
1.0
 40
1.0
 40
1.0
 40
1.0
 10
41.8497928198
 20
19.1407762916
 30
0.0
 10
41.9528157
 20
18.9976893564
 30
0.0
 10
42.169156252
 20
18.7271556939
 30
0.0
 10
42.5261067854
 20
18.3683641001
 30
0.0
 10
42.9007518448
 20
18.0725077984
 30
0.0
 10
43.2823200909
 20
17.8484263512
 30
0.0
 10
43.6602221865
 20
17.7029339956
 30
0.0
 10
44.0244311169
 20
17.6413120565
 30
0.0
 10
44.3644386131
 20
17.6676599413
 30
0.0
 10
44.5693308974
 20
17.7468508835
 30
0.0
 10
44.6601964419
 20
17.7992908594
 30
0.0
  0
SPLINE
  5
27A
100
AcDbEntity
  8
0
100
AcDbSpline
 62
7
  6
CONTINUOUS
 70
0
 71
3
 72
19
 73
15
 74
0
 42
0.0000001
 43
0.0000001
 44
0.0000000001
 40
0.0
 40
0.0
 40
0.0
 40
0.0
 40
0.0623908644
 40
0.1288291467
 40
0.2703452212
 40
0.4174388663
 40
0.5617104029
 40
0.6953039883
 40
0.7562963092
 40
0.812778543
 40
0.8647181813
 40
0.9125346444
 40
0.9571492581
 40
1.0
 40
1.0
 40
1.0
 40
1.0
 10
40.9181723069
 20
79.3945749007
 30
0.0
 10
40.918172307
 20
79.2660512321
 30
0.0
 10
40.9356820011
 20
79.0004830882
 30
0.0
 10
41.0332124199
 20
78.4513345877
 30
0.0
 10
41.2690835984
 20
77.7541622198
 30
0.0
 10
41.6953692194
 20
76.9663991404
 30
0.0
 10
42.236722049
 20
76.2732519521
 30
0.0
 10
42.7634436721
 20
75.8067645202
 30
0.0
 10
43.2055954559
 20
75.536105529
 30
0.0
 10
43.5259104027
 20
75.3945208349
 30
0.0
 10
43.838451108
 20
75.3114997047
 30
0.0
 10
44.1371045633
 20
75.2894065356
 30
0.0
 10
44.4152254417
 20
75.3302604974
 30
0.0
 10
44.5837633854
 20
75.4002044805
 30
0.0
 10
44.6602024347
 20
75.4443511412
 30
0.0
  0
SPLINE
  5
27B
100
AcDbEntity
  8
0
100
AcDbSpline
 62
7
  6
CONTINUOUS
 70
0
 71
3
 72
15
 73
11
 74
0
 42
0.0000001
 43
0.0000001
 44
0.0000000001
 40
0.0
 40
0.0
 40
0.0
 40
0.0
 40
0.1141474765
 40
0.2373368179
 40
0.3669776594
 40
0.500001082
 40
0.633024354
 40
0.7626647561
 40
0.8858534048
 40
1.0
 40
1.0
 40
1.0
 40
1.0
 10
22.9576836167
 20
76.1285920971
 30
0.0
 10
22.9576836167
 20
75.9553268433
 30
0.0
 10
22.9894424715
 20
75.5947380194
 30
0.0
 10
23.1159345346
 20
75.0507585545
 30
0.0
 10
23.3186634335
 20
74.4997631113
 30
0.0
 10
23.5899005895
 20
73.9624560744
 30
0.0
 10
23.9196055799
 20
73.4589064072
 30
0.0
 10
24.2954183145
 20
73.0078437677
 30
0.0
 10
24.7032725247
 20
72.6263133574
 30
0.0
 10
24.9996719647
 20
72.4185187521
 30
0.0
 10
25.1497237662
 20
72.3318882641
 30
0.0
  0
SPLINE
  5
27C
100
AcDbEntity
  8
0
100
AcDbSpline
 62
7
  6
CONTINUOUS
 70
0
 71
3
 72
12
 73
8
 74
0
 42
0.0000001
 43
0.0000001
 44
0.0000000001
 40
0.0
 40
0.0
 40
0.0
 40
0.0
 40
0.2895552427
 40
0.5486519845
 40
0.7816312595
 40
0.891838531
 40
1.0
 40
1.0
 40
1.0
 40
1.0
 10
25.1497237662
 20
72.3318882641
 30
0.0
 10
25.2857833179
 20
72.2533360225
 30
0.0
 10
25.5564234916
 20
72.1246076282
 30
0.0
 10
25.9720787355
 20
72.024052001
 30
0.0
 10
26.3039922275
 20
72.0329524932
 30
0.0
 10
26.540967793
 20
72.0984865809
 30
0.0
 10
26.6488814876
 20
72.1490396901
 30
0.0
 10
26.6997054318
 20
72.1783827346
 30
0.0
  0
SPLINE
  5
27D
100
AcDbEntity
  8
0
100
AcDbSpline
 62
7
  6
CONTINUOUS
 70
0
 71
3
 72
11
 73
7
 74
0
 42
0.0000001
 43
0.0000001
 44
0.0000000001
 40
0.0
 40
0.0
 40
0.0
 40
0.0
 40
0.2896604114
 40
0.549132393
 40
0.7822500661
 40
1.0
 40
1.0
 40
1.0
 40
1.0
 10
16.8059252756
 20
24.5666597731
 30
0.0
 10
16.8059252756
 20
24.5261312527
 30
0.0
 10
16.812081616
 20
24.4490377245
 30
0.0
 10
16.8432975392
 20
24.343119579
 30
0.0
 10
16.8958527861
 20
24.2571584772
 30
0.0
 10
16.9452342237
 20
24.2156717525
 30
0.0
 10
16.9716164766
 20
24.2004331638
 30
0.0
  0
SPLINE
  5
27E
100
AcDbEntity
  8
0
100
AcDbSpline
 62
7
  6
CONTINUOUS
 70
0
 71
3
 72
11
 73
7
 74
0
 42
0.0000001
 43
0.0000001
 44
0.0000000001
 40
0.0
 40
0.0
 40
0.0
 40
0.0
 40
0.2585074437
 40
0.5202294228
 40
0.7713853299
 40
1.0
 40
1.0
 40
1.0
 40
1.0
 10
17.1326564126
 20
25.3473614318
 30
0.0
 10
17.0830464969
 20
25.2920225422
 30
0.0
 10
16.9930693438
 20
25.1715128521
 30
0.0
 10
16.8901170125
 20
24.9740323357
 30
0.0
 10
16.8236133269
 20
24.7704745962
 30
0.0
 10
16.8059252756
 20
24.632386144
 30
0.0
 10
16.8059252756
 20
24.566659773
 30
0.0
  0
ENDSEC
  0
SECTION
  2
OBJECTS
  0
DICTIONARY
  5
C
100
AcDbDictionary
280
0
281
1
  3
ACAD_GROUP
350
D
  3
ACAD_MLINESTYLE
350
17
  3
ACAD_LAYOUT
350
1A
  3
ACAD_PLOTSETTINGS
350
19
  3
ACAD_PLOTSTYLENAME
350
E
  0
DICTIONARY
  5
D
102
{ACAD_REACTORS
330
C
102
}
100
AcDbDictionary
280
0
281
1
  0
ACDBDICTIONARYWDFLT
  5
E
102
{ACAD_REACTORS
330
C
102
}
100
AcDbDictionary
281
1
  3
Normal
350
F
100
AcDbDictionaryWithDefault
340
F
  0
DICTIONARY
  5
17
102
{ACAD_REACTORS
330
C
102
}
100
AcDbDictionary
280
0
281
1
  3
Standard
350
18
  0
DICTIONARY
  5
19
102
{ACAD_REACTORS
330
C
102
}
100
AcDbDictionary
281
1
  0
DICTIONARY
  5
1A
102
{ACAD_REACTORS
330
C
102
}
100
AcDbDictionary
281
1
  3
Model
350
27F
  3
Layout1
350
280
  0
ACDBPLACEHOLDER
  5
F
102
{ACAD_REACTORS
330
E
102
}
  0
MLINESTYLE
  5
18
102
{ACAD_REACTORS
330
17
102
}
100
AcDbMlineStyle
  2
STANDARD
 70
0
  3

 62
256
 51
90.0
 52
90.0
 71
2
 49
0.5
 62
256
  6
BYLAYER
 49
-0.5
 62
256
  6
BYLAYER
  0
LAYOUT
  5
27F
102
{ACAD_REACTORS
330
1A
102
}
100
AcDbPlotSettings
  1

  2
none_device
  4

  6

 40
0.0
 41
0.0
 42
0.0
 43
0.0
 44
210.0
 45
297.0
 46
0.0
 47
0.0
 48
0.0
 49
0.0
140
0.0
141
0.0
142
1.0
143
1.0
 70
1024
 72
1
 73
0
 74
0
  7

 75
0
147
1.0
148
0.0
149
0.0
100
AcDbLayout
  1
Model
 70
0
 71
0
 10
0.0
 20
0.0
 11
210.0
 21
297.0
 12
0.0
 22
0.0
 32
0.0
 14
0.0
 24
0.0
 34
0.0
 15
0.0
 25
0.0
 35
0.0
146
0.0
 13
0.0
 23
0.0
 33
0.0
 16
1.0
 26
0.0
 36
0.0
 17
0.0
 27
1.0
 37
0.0
 76
0
330
211
345
0
346
0
  0
LAYOUT
  5
280
102
{ACAD_REACTORS
330
1A
102
}
100
AcDbPlotSettings
  1

  2
none_device
  4

  6

 40
0.0
 41
0.0
 42
0.0
 43
0.0
 44
210.0
 45
297.0
 46
0.0
 47
0.0
 48
0.0
 49
0.0
140
0.0
141
0.0
142
1.0
143
1.0
 70
0
 72
1
 73
0
 74
0
  7

 75
0
147
1.0
148
0.0
149
0.0
100
AcDbLayout
  1
Layout1
 70
0
 71
1
 10
0.0
 20
0.0
 11
210.0
 21
297.0
 12
0.0
 22
0.0
 32
0.0
 14
0.0
 24
0.0
 34
0.0
 15
0.0
 25
0.0
 35
0.0
146
0.0
 13
0.0
 23
0.0
 33
0.0
 16
1.0
 26
0.0
 36
0.0
 17
0.0
 27
1.0
 37
0.0
 76
0
330
212
345
0
346
0
  0
ENDSEC
  0
EOF
