999
DXF file: C:\Users\sesa63760\Dev\_Creo\CAD\MCADID0005761_3D-CAD\mcadid0005761_3d-simplified_1.dxf
999
Pro/ENGINEER 2019471 by Parametric Technology Corporation
  0
SECTION
  2
HEADER
  9
$ACADVER
  1
AC1024
  9
$DWGCODEPAGE
  3
ANSI_1252
  9
$EXTMAX
 10
63.3917944176
 20
89.6541092478
 30
0.0
  9
$EXTMIN
 10
0.0
 20
0.0
 30
0.0
  9
$LIMMIN
 10
0.0
 20
0.0
  9
$LIMMAX
 10
63.3917944176
 20
89.6541092478
  9
$VIEWCTR
 10
31.6958972088
 20
44.8270546239
  9
$VIEWSIZE
 40
89.6541092478
  9
$CLAYER
  8
0
  9
$LTSCALE
 40
5.8441197139
  9
$CELTYPE
  6
BYLAYER
  9
$DIMSCALE
 40
1.0
  9
$DIMASZ
 40
0.7546642193
  9
$DIMEXO
 40
1.0
  9
$DIMDLI
 40
4.0377554387
  9
$DIMEXE
 40
1.0
  9
$DIMCEN
 40
0.9563104986
  9
$DIMLFAC
 40
1.0
  9
$DIMBLK
  1
_FILLED
  9
$DIMALT
 70
0
  9
$DIMALTF
 40
0.0393700787
  9
$DIMTXT
 40
1.056529907
  9
$DIMTOL
 70
1
  9
$DIMLIM
 70
0
  9
$DIMTFAC
 40
1.0
  9
$DIMTP
 40
0.01
  9
$DIMTM
 40
0.01
  9
$DIMGAP
 40
0.625
  9
$DIMDSEP
 70
46
  9
$AUNITS
 70
0
  9
$PDMODE
 70
3
  9
$PDSIZE
 40
0.3125
  9
$HANDSEED
  5
2AF
  9
$TILEMODE
 70
1
  9
$MEASUREMENT
 70
1
  9
$INSUNITS
 70
4
  0
ENDSEC
  0
SECTION
  2
CLASSES
  0
CLASS
  1
ACDBDICTIONARYWDFLT
  2
AcDbDictionaryWithDefault
  3
AutoCAD 2000
 90
0
 91
1
280
0
281
0
  0
CLASS
  1
ACDBPLACEHOLDER
  2
AcDbPlaceHolder
  3
AutoCAD 2000
 90
0
 91
1
280
0
281
0
  0
CLASS
  1
LAYOUT
  2
AcDbLayout
  3
AutoCAD 2000
 90
0
 91
0
280
0
281
0
  0
ENDSEC
  0
SECTION
  2
TABLES
  0
TABLE
  2
VPORT
  5
8
100
AcDbSymbolTable
 70
2
  0
VPORT
  5
1F4
100
AcDbSymbolTableRecord
100
AcDbViewportTableRecord
  2
*ACTIVE
 70
0
 10
0.0
 20
0.0
 11
1.0
 21
1.0
 12
31.6958972088
 22
44.8270546239
 13
0.0
 23
0.0
 14
1.0
 24
1.0
 15
0.0
 25
0.0
 16
0.0
 26
0.0
 36
1.0
 17
0.0
 27
0.0
 37
0.0
 40
89.6541092478
 41
0.7070707071
 42
50.0
 43
0.0
 44
0.0
 50
0.0
 51
0.0
 71
0
 72
100
 73
1
 74
1
 75
0
 76
0
 77
0
 78
0
  0
ENDTAB
  0
TABLE
  2
LTYPE
  5
5
100
AcDbSymbolTable
 70
6
  0
LTYPE
  5
14
100
AcDbSymbolTableRecord
100
AcDbLinetypeTableRecord
  2
BYBLOCK
 70
0
  3

 72
65
 73
0
 40
0.0
  0
LTYPE
  5
15
100
AcDbSymbolTableRecord
100
AcDbLinetypeTableRecord
  2
BYLAYER
 70
0
  3

 72
65
 73
0
 40
0.0
  0
LTYPE
  5
16
100
AcDbSymbolTableRecord
100
AcDbLinetypeTableRecord
  2
CONTINUOUS
 70
64
  3
Solid line
 72
65
 73
0
 40
0.0
  0
LTYPE
  5
1F5
100
AcDbSymbolTableRecord
100
AcDbLinetypeTableRecord
  2
CENTER
 70
64
  3
____ _ ____ _ ____ _ ____ _ ____ _ ____ _ ____
 72
65
 73
4
 40
0.6
 49
0.375
 74
0
 49
-0.075
 74
0
 49
0.075
 74
0
 49
-0.075
 74
0
  0
LTYPE
  5
1F6
100
AcDbSymbolTableRecord
100
AcDbLinetypeTableRecord
  2
HIDDEN
 70
64
  3
- - - - - - - - - - - - - - - - - - - -
 72
65
 73
2
 40
0.2
 49
0.1
 74
0
 49
-0.1
 74
0
  0
LTYPE
  5
1F7
100
AcDbSymbolTableRecord
100
AcDbLinetypeTableRecord
  2
PHANTOM
 70
64
  3
_____ _ _ _____ _ _ _____ _ _ _____
 72
65
 73
6
 40
0.8
 49
0.45
 74
0
 49
-0.05
 74
0
 49
0.1
 74
0
 49
-0.05
 74
0
 49
0.1
 74
0
 49
-0.05
 74
0
  0
LTYPE
  5
1F8
100
AcDbSymbolTableRecord
100
AcDbLinetypeTableRecord
  2
DOT
 70
64
  3
. . . . . . . . . . . . . . . . . . . .
 72
65
 73
2
 40
0.2
 49
0.1
 74
0
 49
-0.1
 74
0
  0
LTYPE
  5
1F9
100
AcDbSymbolTableRecord
100
AcDbLinetypeTableRecord
  2
DASHED
 70
64
  3
- - - - - - - - - - - - - - - - - - - -
 72
65
 73
2
 40
0.2
 49
0.1
 74
0
 49
-0.1
 74
0
  0
ENDTAB
  0
TABLE
  2
LAYER
  5
2
100
AcDbSymbolTable
 70
36
  0
LAYER
  5
10
100
AcDbSymbolTableRecord
100
AcDbLayerTableRecord
  2
0
 70
0
 62
7
  6
CONTINUOUS
370
-3
390
F
  0
LAYER
  5
1FA
100
AcDbSymbolTableRecord
100
AcDbLayerTableRecord
  2
DEFAULT_1
 70
0
 62
7
  6
CENTER
370
-3
390
F
  0
LAYER
  5
1FB
100
AcDbSymbolTableRecord
100
AcDbLayerTableRecord
  2
DEFAULT_2
 70
0
 62
7
  6
HIDDEN
370
-3
390
F
  0
LAYER
  5
1FC
100
AcDbSymbolTableRecord
100
AcDbLayerTableRecord
  2
DEFAULT_3
 70
0
 62
7
  6
PHANTOM
370
-3
390
F
  0
LAYER
  5
1FD
100
AcDbSymbolTableRecord
100
AcDbLayerTableRecord
  2
00_COMPONENTS
 70
0
 62
7
  6
CONTINUOUS
370
-3
390
F
  0
LAYER
  5
1FE
100
AcDbSymbolTableRecord
100
AcDbLayerTableRecord
  2
01_1_DEFAULT_DATUMS
 70
0
 62
7
  6
CONTINUOUS
370
-3
390
F
  0
LAYER
  5
1FF
100
AcDbSymbolTableRecord
100
AcDbLayerTableRecord
  2
01_PLANES
 70
0
 62
7
  6
CONTINUOUS
370
-3
390
F
  0
LAYER
  5
200
100
AcDbSymbolTableRecord
100
AcDbLayerTableRecord
  2
02_COORD_SYS
 70
0
 62
7
  6
CONTINUOUS
370
-3
390
F
  0
LAYER
  5
201
100
AcDbSymbolTableRecord
100
AcDbLayerTableRecord
  2
03_AXES
 70
0
 62
7
  6
CONTINUOUS
370
-3
390
F
  0
LAYER
  5
202
100
AcDbSymbolTableRecord
100
AcDbLayerTableRecord
  2
04_POINTS
 70
0
 62
7
  6
CONTINUOUS
370
-3
390
F
  0
LAYER
  5
203
100
AcDbSymbolTableRecord
100
AcDbLayerTableRecord
  2
05_CURVES
 70
0
 62
7
  6
CONTINUOUS
370
-3
390
F
  0
LAYER
  5
204
100
AcDbSymbolTableRecord
100
AcDbLayerTableRecord
  2
06_SURFS
 70
0
 62
7
  6
CONTINUOUS
370
-3
390
F
  0
LAYER
  5
205
100
AcDbSymbolTableRecord
100
AcDbLayerTableRecord
  2
07_COSMETICS
 70
0
 62
7
  6
CONTINUOUS
370
-3
390
F
  0
LAYER
  5
206
100
AcDbSymbolTableRecord
100
AcDbLayerTableRecord
  2
10_NOTES
 70
0
 62
7
  6
CONTINUOUS
370
-3
390
F
  0
LAYER
  5
207
100
AcDbSymbolTableRecord
100
AcDbLayerTableRecord
  2
11_NOTES_PUB
 70
0
 62
7
  6
CONTINUOUS
370
-3
390
F
  0
LAYER
  5
208
100
AcDbSymbolTableRecord
100
AcDbLayerTableRecord
  2
13_REF_GTOL
 70
0
 62
7
  6
CONTINUOUS
370
-3
390
F
  0
LAYER
  5
209
100
AcDbSymbolTableRecord
100
AcDbLayerTableRecord
  2
16_MISC
 70
0
 62
7
  6
CONTINUOUS
370
-3
390
F
  0
LAYER
  5
20A
100
AcDbSymbolTableRecord
100
AcDbLayerTableRecord
  2
17_NO_PRINT
 70
0
 62
7
  6
CONTINUOUS
370
-3
390
F
  0
LAYER
  5
20B
100
AcDbSymbolTableRecord
100
AcDbLayerTableRecord
  2
18_DATUM_CAMS_JOINTS
 70
0
 62
7
  6
CONTINUOUS
370
-3
390
F
  0
LAYER
  5
20C
100
AcDbSymbolTableRecord
100
AcDbLayerTableRecord
  2
19_DATUM_FUNCTIONAL
 70
0
 62
7
  6
CONTINUOUS
370
-3
390
F
  0
LAYER
  5
20D
100
AcDbSymbolTableRecord
100
AcDbLayerTableRecord
  2
20_DATUM_KINEMATIC_SCHEME
 70
0
 62
7
  6
CONTINUOUS
370
-3
390
F
  0
ENDTAB
  0
TABLE
  2
STYLE
  5
3
100
AcDbSymbolTable
 70
1
  0
STYLE
  5
11
100
AcDbSymbolTableRecord
100
AcDbTextStyleTableRecord
  2
STANDARD
 70
0
 40
0.0
 41
1.0
 50
0.0
 71
0
 42
0.2
  3
ARIAL.TTF
  4

  0
STYLE
  5
20E
100
AcDbSymbolTableRecord
100
AcDbTextStyleTableRecord
  2
TEXTSTYLE_1
 70
0
 40
0.0
 41
0.8
 50
0.0
 71
0
 42
0.2
  3
gdt
  4

  0
ENDTAB
  0
TABLE
  2
VIEW
  5
6
100
AcDbSymbolTable
 70
0
  0
ENDTAB
  0
TABLE
  2
UCS
  5
7
100
AcDbSymbolTable
 70
0
  0
ENDTAB
  0
TABLE
  2
APPID
  5
9
100
AcDbSymbolTable
 70
1
  0
APPID
  5
20F
100
AcDbSymbolTableRecord
100
AcDbRegAppTableRecord
  2
ACAD
 70
0
  0
ENDTAB
  0
TABLE
  2
BLOCK_RECORD
  5
1
100
AcDbSymbolTable
 70
0
  0
BLOCK_RECORD
  5
210
100
AcDbSymbolTableRecord
100
AcDbBlockTableRecord
  2
*Model_Space
  0
BLOCK_RECORD
  5
211
100
AcDbSymbolTableRecord
100
AcDbBlockTableRecord
  2
*Paper_Space
  0
BLOCK_RECORD
  5
212
100
AcDbSymbolTableRecord
100
AcDbBlockTableRecord
  2
_FILLED
  0
ENDTAB
  0
TABLE
  2
DIMSTYLE
  5
A
100
AcDbSymbolTable
 70
1
100
AcDbDimStyleTable
 71
0
  0
DIMSTYLE
105
213
100
AcDbSymbolTableRecord
100
AcDbDimStyleTableRecord
  2
STANDARD
 70
0
  3

  4

 40
1.0
 41
0.7546642193
 42
1.0
 43
0.38
 44
1.0
 45
0.0
 46
0.0
 47
0.01
 48
0.01
140
1.056529907
141
0.09
142
0.0
143
25.4
144
1.0
145
0.0
146
1.0
147
0.625
 71
1
 72
0
 73
0
 74
0
 75
0
 76
0
 77
1
 78
8
 79
2
170
0
171
1
172
0
173
0
174
0
175
0
176
0
177
0
178
0
270
2
179
2
271
2
272
2
273
2
274
2
275
0
280
0
281
0
282
0
283
1
284
8
285
0
286
0
287
3
288
0
340
11
278
46
341
212
342
212
343
212
344
212
  0
ENDTAB
  0
ENDSEC
  0
SECTION
  2
BLOCKS
  0
BLOCK
  5
20
100
AcDbEntity
  8
0
100
AcDbBlockBegin
  2
*Model_Space
 70
0
 10
0.0
 20
0.0
 30
0.0
  3
*Model_Space
  1

  0
ENDBLK
  5
21
100
AcDbEntity
  8
0
100
AcDbBlockEnd
  0
BLOCK
  5
1C
100
AcDbEntity
  8
0
100
AcDbBlockBegin
  2
*Paper_Space
 70
0
 10
0.0
 20
0.0
 30
0.0
  3
*Paper_Space
  1

  0
ENDBLK
  5
1D
100
AcDbEntity
  8
0
100
AcDbBlockEnd
  0
BLOCK
  5
214
100
AcDbEntity
  8
0
100
AcDbBlockBegin
  2
_FILLED
 70
64
 10
0.0
 20
0.0
  3
_FILLED
  1

  0
SOLID
  5
215
100
AcDbEntity
  8
0
  6
BYBLOCK
 62
0
100
AcDbTrace
 10
0.0
 20
0.0
 11
-1.0
 21
0.25
 12
-1.0
 22
-0.25
 13
-1.0
 23
-0.25
  0
ENDBLK
  5
216
100
AcDbEntity
  8
0
  6
BYBLOCK
 62
0
100
AcDbBlockEnd
  0
ENDSEC
  0
SECTION
  2
ENTITIES
  0
LINE
  5
217
100
AcDbEntity
  8
0
100
AcDbLine
 62
7
  6
BYLAYER
 10
19.1284158318
 20
66.2776161241
 11
17.3606562387
 21
65.2570057395
  0
LINE
  5
218
100
AcDbEntity
  8
0
100
AcDbLine
 62
7
  6
BYLAYER
 10
20.8961901446
 20
65.2570142378
 11
19.1284305516
 21
64.2364038532
  0
LINE
  5
219
100
AcDbEntity
  8
0
100
AcDbLine
 62
7
  6
BYLAYER
 10
25.5029552462
 20
64.9650199005
 11
22.6855402255
 21
63.3383942896
  0
LINE
  5
21A
100
AcDbEntity
  8
0
100
AcDbLine
 62
7
  6
BYLAYER
 10
25.9986260416
 20
23.1320165341
 11
29.8163940472
 21
20.9278770126
  0
LINE
  5
21B
100
AcDbEntity
  8
0
100
AcDbLine
 62
7
  6
BYLAYER
 10
30.3820818273
 20
22.0580966164
 11
27.2665001748
 21
23.8568378292
  0
LWPOLYLINE
  5
21C
100
AcDbEntity
  8
0
100
AcDbPolyline
 62
7
  6
BYLAYER
 90
3
 70
0
 10
22.1997079845
 20
23.3106803822
 10
23.1355430531
 20
23.4648554505
 10
23.2811859255
 20
23.5748540108
  0
LINE
  5
21D
100
AcDbEntity
  8
0
100
AcDbLine
 62
7
  6
BYLAYER
 10
25.9626107175
 20
59.9640509414
 11
21.5785669268
 21
57.4329371874
  0
LINE
  5
21E
100
AcDbEntity
  8
0
100
AcDbLine
 62
7
  6
BYLAYER
 10
17.3606562387
 20
65.2570057395
 11
17.3606562387
 21
49.8561150211
  0
LINE
  5
21F
100
AcDbEntity
  8
0
100
AcDbLine
 62
7
  6
BYLAYER
 10
19.3688444843
 20
53.5763323532
 11
21.5785669268
 21
54.8521474211
  0
LINE
  5
220
100
AcDbEntity
  8
0
100
AcDbLine
 62
7
  6
BYLAYER
 10
32.5034110027
 20
27.2020932064
 11
35.4131675217
 21
25.5221825016
  0
LINE
  5
221
100
AcDbEntity
  8
0
100
AcDbLine
 62
7
  6
BYLAYER
 10
19.1284305516
 20
49.4343165091
 11
19.1284305516
 21
64.2364038532
  0
LINE
  5
222
100
AcDbEntity
  8
0
100
AcDbLine
 62
7
  6
BYLAYER
 10
19.3688444843
 20
49.4462770917
 11
19.3688444843
 21
53.5763323532
  0
LWPOLYLINE
  5
223
100
AcDbEntity
  8
0
100
AcDbPolyline
 62
7
  6
BYLAYER
 90
3
 70
0
 10
11.1301366223
 20
45.3746074217
 10
9.858685356
 20
44.4143283054
 10
9.695797367
 20
44.0965156232
  0
LINE
  5
224
100
AcDbEntity
  8
0
100
AcDbLine
 62
7
  6
BYLAYER
 10
10.2840261433
 20
46.9316099158
 11
14.2240198235
 21
49.228780661
  0
LINE
  5
225
100
AcDbEntity
  8
0
100
AcDbLine
 62
7
  6
BYLAYER
 10
47.1784227673
 20
68.8449112992
 11
43.0306887112
 21
66.4502302197
  0
LINE
  5
226
100
AcDbEntity
  8
0
100
AcDbLine
 62
7
  6
BYLAYER
 10
35.1726654289
 20
61.0969371357
 11
43.7377984363
 21
66.0419894652
  0
LINE
  5
227
100
AcDbEntity
  8
0
100
AcDbLine
 62
7
  6
BYLAYER
 10
48.1079534465
 20
68.1707549964
 11
44.6386683484
 21
66.1871393538
  0
LINE
  5
228
100
AcDbEntity
  8
0
100
AcDbLine
 62
7
  6
BYLAYER
 10
35.9788553018
 20
27.2368459408
 11
33.4226536454
 21
28.7126362684
  0
LINE
  5
229
100
AcDbEntity
  8
0
100
AcDbLine
 62
7
  6
BYLAYER
 10
40.5644059341
 20
26.4671938741
 11
39.9201661022
 21
26.8391375
  0
LINE
  5
22A
100
AcDbEntity
  8
0
100
AcDbLine
 62
7
  6
BYLAYER
 10
35.8091501454
 20
29.212782783
 11
33.6259941632
 21
30.4731999626
  0
LINE
  5
22B
100
AcDbEntity
  8
0
100
AcDbLine
 62
7
  6
BYLAYER
 10
21.5785669268
 20
54.8521474211
 11
21.5785669268
 21
57.4329371874
  0
LINE
  5
22C
100
AcDbEntity
  8
0
100
AcDbLine
 62
7
  6
BYLAYER
 10
10.8428248691
 20
45.0827804883
 11
11.1963767876
 21
45.2869025652
  0
LINE
  5
22D
100
AcDbEntity
  8
0
100
AcDbLine
 62
7
  6
BYLAYER
 10
49.9603640176
 20
36.3213934773
 11
46.9668476568
 21
35.9896752079
  0
LINE
  5
22E
100
AcDbEntity
  8
0
100
AcDbLine
 62
7
  6
BYLAYER
 10
45.0191972025
 20
25.1200307463
 11
40.9808490187
 21
27.451519412
  0
LINE
  5
22F
100
AcDbEntity
  8
0
100
AcDbLine
 62
7
  6
BYLAYER
 10
42.5443337722
 20
27.61038781
 11
41.8466898966
 21
28.0131635774
  0
LINE
  5
230
100
AcDbEntity
  8
0
100
AcDbLine
 62
7
  6
BYLAYER
 10
23.3710535749
 20
58.4678236588
 11
23.3710535749
 21
62.6033566907
  0
LINE
  5
231
100
AcDbEntity
  8
0
100
AcDbLine
 62
7
  6
BYLAYER
 10
43.0306887112
 20
66.4502302197
 11
40.8878231589
 21
64.3965652935
  0
LINE
  5
232
100
AcDbEntity
  8
0
100
AcDbLine
 62
7
  6
BYLAYER
 10
21.3872618109
 20
49.0343848478
 11
24.0814727796
 21
50.5898789907
  0
LINE
  5
233
100
AcDbEntity
  8
0
100
AcDbLine
 62
7
  6
BYLAYER
 10
49.2532542924
 20
62.8577115799
 11
40.6881212851
 21
57.9126592505
  0
LINE
  5
234
100
AcDbEntity
  8
0
100
AcDbLine
 62
7
  6
BYLAYER
 10
49.0800411162
 20
63.6062575703
 11
52.6026101649
 21
65.6203391086
  0
LINE
  5
235
100
AcDbEntity
  8
0
100
AcDbLine
 62
7
  6
BYLAYER
 10
43.9007893666
 20
28.3935331378
 11
45.0191972025
 21
27.7478346804
  0
LINE
  5
236
100
AcDbEntity
  8
0
100
AcDbLine
 62
7
  6
BYLAYER
 10
45.0191972025
 20
27.7478346804
 11
43.9585414467
 21
28.4268761178
  0
LINE
  5
237
100
AcDbEntity
  8
0
100
AcDbLine
 62
7
  6
BYLAYER
 10
49.9603640176
 20
62.4494708254
 11
54.1080980737
 21
64.8441519049
  0
LINE
  5
238
100
AcDbEntity
  8
0
100
AcDbLine
 62
7
  6
BYLAYER
 10
38.1001697575
 20
55.3245166804
 11
36.3324101644
 21
54.3039062957
  0
LINE
  5
239
100
AcDbEntity
  8
0
100
AcDbLine
 62
7
  6
BYLAYER
 10
32.5737666225
 20
51.0849992929
 11
36.3324101644
 21
53.2550402002
  0
LINE
  5
23A
100
AcDbEntity
  8
0
100
AcDbLine
 62
7
  6
BYLAYER
 10
46.2919841095
 20
36.0203253166
 11
49.4739513769
 21
35.0404906699
  0
LINE
  5
23B
100
AcDbEntity
  8
0
100
AcDbLine
 62
7
  6
BYLAYER
 10
38.1001844773
 20
53.2833044094
 11
39.8679440703
 21
54.3039147941
  0
LINE
  5
23C
100
AcDbEntity
  8
0
100
AcDbLine
 62
7
  6
BYLAYER
 10
48.8163393325
 20
35.4201545716
 11
46.6950278209
 21
36.0733776694
  0
LWPOLYLINE
  5
23D
100
AcDbEntity
  8
0
100
AcDbPolyline
 62
7
  6
BYLAYER
 90
10
 70
0
 10
31.4427994066
 20
31.0806215853
 10
31.0339109379
 20
34.5975461304
 10
29.8437720352
 20
38.2932459247
 10
27.964451696
 20
41.8826790446
 10
25.5532206433
 20
45.0641361324
 10
22.8011887326
 20
47.5863535905
 10
19.9337229069
 20
49.2421703088
 10
17.1841467177
 20
49.8982309478
 10
14.7742148938
 20
49.5035861574
 10
14.2240870193
 20
49.2286646475
  0
LINE
  5
23E
100
AcDbEntity
  8
0
100
AcDbLine
 62
7
  6
BYLAYER
 10
30.7356366899
 20
27.1612419505
 11
30.7356366899
 21
22.2622274477
  0
LINE
  5
23F
100
AcDbEntity
  8
0
100
AcDbLine
 62
7
  6
BYLAYER
 10
48.1079534465
 20
68.1707549964
 11
46.1720849897
 21
65.29607092
  0
LINE
  5
240
100
AcDbEntity
  8
0
100
AcDbLine
 62
7
  6
BYLAYER
 10
49.2532542924
 20
62.8577115799
 11
41.696736523
 21
55.61574743
  0
LINE
  5
241
100
AcDbEntity
  8
0
100
AcDbLine
 62
7
  6
BYLAYER
 10
42.4038462482
 20
55.2075066754
 11
49.9603640176
 21
62.4494708254
  0
LINE
  5
242
100
AcDbEntity
  8
0
100
AcDbLine
 62
7
  6
BYLAYER
 10
46.2919841095
 20
36.3060698005
 11
46.6950278209
 21
36.0733776694
  0
LINE
  5
243
100
AcDbEntity
  8
0
100
AcDbLine
 62
7
  6
BYLAYER
 10
49.4739513769
 20
35.0404906699
 11
48.8163393325
 21
35.4201545716
  0
LWPOLYLINE
  5
244
100
AcDbEntity
  8
0
100
AcDbPolyline
 62
7
  6
BYLAYER
 90
9
 70
0
 10
33.0160855726
 20
34.7446013936
 10
32.6738748193
 20
37.561584418
 10
31.6802397995
 20
40.5172240972
 10
30.1201538295
 20
43.3593560743
 10
28.1371082153
 20
45.8264202291
 10
25.9045079885
 20
47.7046981001
 10
24.7556945244
 20
48.3686140596
 10
22.5223683775
 20
49.0711616922
 10
21.5800100405
 20
48.9883631525
  0
LINE
  5
245
100
AcDbEntity
  8
0
100
AcDbLine
 62
7
  6
BYLAYER
 10
32.5034110027
 20
22.4792713305
 11
32.5034110027
 21
27.2020932064
  0
LINE
  5
246
100
AcDbEntity
  8
0
100
AcDbLine
 62
7
  6
BYLAYER
 10
42.5443337722
 20
50.3908052479
 11
46.6455360281
 21
52.7586213404
  0
LINE
  5
247
100
AcDbEntity
  8
0
100
AcDbLine
 62
7
  6
BYLAYER
 10
36.3324101644
 20
45.7452269728
 11
35.8091501454
 21
45.4431244632
  0
LINE
  5
248
100
AcDbEntity
  8
0
100
AcDbLine
 62
7
  6
BYLAYER
 10
35.1726654289
 20
59.3823364207
 11
35.1726654289
 21
61.0969371357
  0
LINE
  5
249
100
AcDbEntity
  8
0
100
AcDbLine
 62
7
  6
BYLAYER
 10
35.8091501454
 20
45.4431244632
 11
35.8091501454
 21
29.212782783
  0
LINE
  5
24A
100
AcDbEntity
  8
0
100
AcDbLine
 62
7
  6
BYLAYER
 10
36.3324101644
 20
54.3039062957
 11
36.3324101644
 21
27.4409767721
  0
LINE
  5
24B
100
AcDbEntity
  8
0
100
AcDbLine
 62
7
  6
BYLAYER
 10
36.746034026
 20
24.9287362538
 11
36.746034026
 21
25.2236576815
  0
LINE
  5
24C
100
AcDbEntity
  8
0
100
AcDbLine
 62
7
  6
BYLAYER
 10
46.6455360281
 20
47.6146561125
 11
47.3526398653
 21
48.0229002663
  0
LINE
  5
24D
100
AcDbEntity
  8
0
100
AcDbLine
 62
7
  6
BYLAYER
 10
32.5737666225
 20
51.0849992929
 11
35.8091501454
 21
45.4431244632
  0
LINE
  5
24E
100
AcDbEntity
  8
0
100
AcDbLine
 62
7
  6
BYLAYER
 10
38.1001844773
 20
27.0735768195
 11
38.1001844773
 21
53.2833044094
  0
LWPOLYLINE
  5
24F
100
AcDbEntity
  8
0
100
AcDbPolyline
 62
7
  6
BYLAYER
 90
3
 70
0
 10
31.1489998742
 20
28.8983694298
 10
31.7868177604
 20
30.1387008815
 10
32.1498935287
 20
32.8360658381
  0
LINE
  5
250
100
AcDbEntity
  8
0
100
AcDbLine
 62
7
  6
BYLAYER
 10
21.5785669268
 20
57.4329371874
 11
32.5737666225
 21
51.0849992929
  0
LINE
  5
251
100
AcDbEntity
  8
0
100
AcDbLine
 62
7
  6
BYLAYER
 10
20.8961901446
 20
65.2570142378
 11
23.3710535749
 21
62.6033566907
  0
LINE
  5
252
100
AcDbEntity
  8
0
100
AcDbLine
 62
7
  6
BYLAYER
 10
40.5644059341
 20
27.2110873201
 11
40.5644059341
 21
26.4671938741
  0
LINE
  5
253
100
AcDbEntity
  8
0
100
AcDbLine
 62
7
  6
BYLAYER
 10
40.6881212851
 20
57.9126592505
 11
40.6881212851
 21
56.1980585355
  0
LINE
  5
254
100
AcDbEntity
  8
0
100
AcDbLine
 62
7
  6
BYLAYER
 10
42.3428075006
 20
29.5230417427
 11
42.3428075006
 21
51.650257247
  0
LINE
  5
255
100
AcDbEntity
  8
0
100
AcDbLine
 62
7
  6
BYLAYER
 10
42.5443337722
 20
27.61038781
 11
42.5443337722
 21
50.3908052479
  0
LINE
  5
256
100
AcDbEntity
  8
0
100
AcDbLine
 62
7
  6
BYLAYER
 10
23.3710535749
 20
61.4602533068
 11
25.9626107175
 21
59.9640509414
  0
LINE
  5
257
100
AcDbEntity
  8
0
100
AcDbLine
 62
7
  6
BYLAYER
 10
42.3428075006
 20
50.507153863
 11
42.5443337722
 21
50.3908052479
  0
LINE
  5
258
100
AcDbEntity
  8
0
100
AcDbLine
 62
7
  6
BYLAYER
 10
38.1001844773
 20
53.2833044094
 11
36.3324101644
 21
54.3039062957
  0
LINE
  5
259
100
AcDbEntity
  8
0
100
AcDbLine
 62
7
  6
BYLAYER
 10
19.1284305516
 20
64.2364038532
 11
17.3606562387
 21
65.2570057395
  0
LINE
  5
25A
100
AcDbEntity
  8
0
100
AcDbLine
 62
7
  6
BYLAYER
 10
46.6455360281
 20
48.4311376215
 11
47.3526398653
 21
48.0229002663
  0
LINE
  5
25B
100
AcDbEntity
  8
0
100
AcDbLine
 62
7
  6
BYLAYER
 10
45.0191972025
 20
25.1200307463
 11
45.0191972025
 21
27.7478346804
  0
LINE
  5
25C
100
AcDbEntity
  8
0
100
AcDbLine
 62
7
  6
BYLAYER
 10
46.2919841095
 20
41.6693451802
 11
46.2919841095
 21
36.0203253166
  0
LINE
  5
25D
100
AcDbEntity
  8
0
100
AcDbLine
 62
7
  6
BYLAYER
 10
47.3526398653
 20
42.862854395
 11
46.2919841095
 21
41.6693451802
  0
LINE
  5
25E
100
AcDbEntity
  8
0
100
AcDbLine
 62
7
  6
BYLAYER
 10
33.6259941632
 20
30.4731999626
 11
33.4388916606
 21
30.3582301511
  0
LINE
  5
25F
100
AcDbEntity
  8
0
100
AcDbLine
 62
7
  6
BYLAYER
 10
31.8818517275
 20
30.8447278738
 11
34.5822658594
 21
32.4038033933
  0
LINE
  5
260
100
AcDbEntity
  8
0
100
AcDbLine
 62
7
  6
BYLAYER
 10
31.5226621515
 20
28.9008285287
 11
33.9360524734
 21
30.2941917634
  0
LINE
  5
261
100
AcDbEntity
  8
0
100
AcDbLine
 62
7
  6
BYLAYER
 10
23.1927695797
 20
23.6919210936
 11
23.5463214983
 21
23.8960431705
  0
LINE
  5
262
100
AcDbEntity
  8
0
100
AcDbLine
 62
7
  6
BYLAYER
 10
19.1284158318
 20
66.2776161241
 11
20.8961901446
 21
65.2570142378
  0
LINE
  5
263
100
AcDbEntity
  8
0
100
AcDbLine
 62
7
  6
BYLAYER
 10
38.1001697575
 20
55.3245166804
 11
39.8679440703
 21
54.3039147941
  0
LINE
  5
264
100
AcDbEntity
  8
0
100
AcDbLine
 62
7
  6
BYLAYER
 10
46.6455360281
 20
52.7586213404
 11
25.5029552462
 21
64.9650199005
  0
LINE
  5
265
100
AcDbEntity
  8
0
100
AcDbLine
 62
7
  6
BYLAYER
 10
39.8679440703
 20
54.3039147941
 11
42.3428075006
 21
51.650257247
  0
LINE
  5
266
100
AcDbEntity
  8
0
100
AcDbLine
 62
7
  6
BYLAYER
 10
46.6455360281
 20
52.7586213404
 11
46.6455360281
 21
47.6146561125
  0
LINE
  5
267
100
AcDbEntity
  8
0
100
AcDbLine
 62
7
  6
BYLAYER
 10
47.3526398653
 20
48.0229002663
 11
47.3526398653
 21
42.862854395
  0
LINE
  5
268
100
AcDbEntity
  8
0
100
AcDbLine
 62
7
  6
BYLAYER
 10
35.049037739
 20
29.6516239576
 11
33.4226536454
 21
28.7126362684
  0
LINE
  5
269
100
AcDbEntity
  8
0
100
AcDbLine
 62
7
  6
BYLAYER
 10
35.8091501454
 20
29.212782783
 11
36.3324101644
 21
29.5148852926
  0
LINE
  5
26A
100
AcDbEntity
  8
0
100
AcDbLine
 62
7
  6
BYLAYER
 10
54.1080980737
 20
38.7160745568
 11
49.9603640176
 21
36.3213934773
  0
LINE
  5
26B
100
AcDbEntity
  8
0
100
AcDbLine
 62
7
  6
BYLAYER
 10
24.5144961879
 20
22.2835656551
 11
28.4739129514
 21
24.5470944324
  0
LINE
  5
26C
100
AcDbEntity
  8
0
100
AcDbLine
 62
7
  6
BYLAYER
 10
54.1080980737
 20
64.8441519049
 11
57.0222258127
 21
65.3018606708
  0
LINE
  5
26D
100
AcDbEntity
  8
0
100
AcDbLine
 62
7
  6
BYLAYER
 10
40.6881212851
 20
57.9126592505
 11
35.1726654289
 21
61.0969371357
  0
LINE
  5
26E
100
AcDbEntity
  8
0
100
AcDbLine
 62
7
  6
BYLAYER
 10
49.4739513769
 20
35.0404906699
 11
49.4739513769
 21
28.3288408011
  0
LINE
  5
26F
100
AcDbEntity
  8
0
100
AcDbLine
 62
7
  6
BYLAYER
 10
35.9788553018
 20
27.2368459408
 11
36.3324132192
 21
27.4409714811
  0
LINE
  5
270
100
AcDbEntity
  8
0
100
AcDbLine
 62
7
  6
BYLAYER
 10
38.1001844773
 20
27.0735768195
 11
42.3428075006
 21
29.5230417427
  0
LINE
  5
271
100
AcDbEntity
  8
0
100
AcDbLine
 62
7
  6
BYLAYER
 10
30.2537917878
 20
26.5160572465
 11
30.7356366899
 21
26.6961417965
  0
LINE
  5
272
100
AcDbEntity
  8
0
100
AcDbLine
 62
7
  6
BYLAYER
 10
57.0222258127
 20
41.6232905741
 11
54.1080980737
 21
38.7160745568
  0
LINE
  5
273
100
AcDbEntity
  8
0
100
AcDbLine
 62
7
  6
BYLAYER
 10
41.5557770678
 20
27.7834637727
 11
41.8466898966
 21
28.0131635774
  0
LINE
  5
274
100
AcDbEntity
  8
0
100
AcDbLine
 62
7
  6
BYLAYER
 10
30.3820818273
 20
22.0580966164
 11
30.7356397446
 21
22.2622221567
  0
LINE
  5
275
100
AcDbEntity
  8
0
100
AcDbLine
 62
7
  6
BYLAYER
 10
37.3131590157
 20
25.3339902413
 11
41.5557820389
 21
27.7834551646
  0
LINE
  5
276
100
AcDbEntity
  8
0
100
AcDbLine
 62
7
  6
BYLAYER
 10
32.5034110027
 20
22.4792713305
 11
36.746034026
 21
24.9287362538
  0
LINE
  5
277
100
AcDbEntity
  8
0
100
AcDbLine
 62
7
  6
BYLAYER
 10
43.9585414467
 20
28.4268761178
 11
42.5443337722
 21
27.61038781
  0
LINE
  5
278
100
AcDbEntity
  8
0
100
AcDbLine
 62
7
  6
BYLAYER
 10
41.6250888506
 20
27.0795757861
 11
40.5644059341
 21
26.4671938741
  0
LINE
  5
279
100
AcDbEntity
  8
0
100
AcDbLine
 62
7
  6
BYLAYER
 10
31.7163855411
 20
20.7396847524
 11
35.9590085644
 21
23.1891496756
  0
LINE
  5
27A
100
AcDbEntity
  8
0
100
AcDbLine
 62
7
  6
BYLAYER
 10
49.4739513769
 20
28.3288408011
 11
49.1555190361
 21
27.5081230155
  0
LINE
  5
27B
100
AcDbEntity
  8
0
100
AcDbLine
 62
7
  6
BYLAYER
 10
50.0925505062
 20
69.3026200651
 11
47.1784227673
 21
68.8449112992
  0
LINE
  5
27C
100
AcDbEntity
  8
0
100
AcDbLine
 62
7
  6
BYLAYER
 10
57.0222258127
 20
65.3018606708
 11
57.0222258127
 21
41.6232905741
  0
LINE
  5
27D
100
AcDbEntity
  8
0
100
AcDbLine
 62
7
  6
BYLAYER
 10
49.1555190361
 20
27.5081230155
 11
45.0191972025
 21
25.1200307463
  0
LINE
  5
27E
100
AcDbEntity
  8
0
100
AcDbLine
 62
7
  6
BYLAYER
 10
49.9603640176
 20
62.4494708254
 11
49.2532542924
 21
62.8577115799
  0
LINE
  5
27F
100
AcDbEntity
  8
0
100
AcDbLine
 62
7
  6
BYLAYER
 10
43.7377984363
 20
66.0419894652
 11
43.0306887112
 21
66.4502302197
  0
LINE
  5
280
100
AcDbEntity
  8
0
100
AcDbLine
 62
7
  6
BYLAYER
 10
44.6386683484
 20
66.1871393538
 11
49.0800411162
 21
63.6062575703
  0
LINE
  5
281
100
AcDbEntity
  8
0
100
AcDbLine
 62
7
  6
BYLAYER
 10
52.6026101649
 20
65.6203391086
 11
48.1079534465
 21
68.1707549964
  0
LINE
  5
282
100
AcDbEntity
  8
0
100
AcDbLine
 62
7
  6
BYLAYER
 10
47.1784227673
 20
68.8449112992
 11
54.1080980737
 21
64.8441519049
  0
LINE
  5
283
100
AcDbEntity
  8
0
100
AcDbLine
 62
7
  6
BYLAYER
 10
57.0222258127
 20
65.3018606708
 11
50.0925505062
 21
69.3026200651
  0
ARC
  5
284
100
AcDbEntity
  8
0
100
AcDbCircle
 62
7
  6
BYLAYER
 10
13.8612967435
 20
29.1951298445
 40
12.3370923087
100
AcDbArc
 50
0.0033981671
 51
1.5820837627
  0
ARC
  5
285
100
AcDbEntity
  8
0
100
AcDbCircle
 62
7
  6
BYLAYER
 10
21.502176163
 20
27.3278583379
 40
4.1940956779
100
AcDbArc
 50
295.3921972442
 51
300.9124883343
  0
SPLINE
  5
286
100
AcDbEntity
  8
0
100
AcDbSpline
 62
7
  6
BYLAYER
 70
0
 71
3
 72
29
 73
25
 74
0
 42
0.0000001
 43
0.0000001
 44
0.0000000001
 40
0.0
 40
0.0
 40
0.0
 40
0.0
 40
0.0306536068
 40
0.0623792439
 40
0.0950886717
 40
0.1287024521
 40
0.198254398
 40
0.2701891763
 40
0.3435267645
 40
0.4172237134
 40
0.4902210872
 40
0.561490584
 40
0.6300824174
 40
0.695176933
 40
0.7561432458
 40
0.7849671486
 40
0.8126457326
 40
0.8645792743
 40
0.8889821413
 40
0.9124455018
 40
0.9351012913
 40
0.9571129867
 40
0.9786741978
 40
1.0
 40
1.0
 40
1.0
 40
1.0
 10
7.3541774924
 20
40.4271901875
 30
0.0
 10
7.3541774924
 20
40.1372581493
 30
0.0
 10
7.3733214215
 20
39.5471221404
 30
0.0
 10
7.4555540327
 20
38.6510500344
 30
0.0
 10
7.5915598231
 20
37.7332214776
 30
0.0
 10
7.8463414383
 20
36.4730850079
 30
0.0
 10
8.2964309544
 20
34.8763699056
 30
0.0
 10
9.0245481179
 20
32.9766895582
 30
0.0
 10
9.9313948788
 20
31.1118678652
 30
0.0
 10
10.9976192297
 20
29.3217347226
 30
0.0
 10
12.2005409888
 20
27.6443537652
 30
0.0
 10
13.5145668145
 20
26.1154222597
 30
0.0
 10
14.9119381541
 20
24.7673310985
 30
0.0
 10
16.3630827489
 20
23.6287523963
 30
0.0
 10
17.6152161545
 20
22.8603701221
 30
0.0
 10
18.6170496754
 20
22.3778295868
 30
0.0
 10
19.5712923987
 20
22.0004385678
 30
0.0
 10
20.5271811465
 20
21.7443834482
 30
0.0
 10
21.4656506424
 20
21.6314349485
 30
0.0
 10
22.1338113656
 20
21.618926874
 30
0.0
 10
22.776947532
 20
21.6770278067
 30
0.0
 10
23.3915301764
 20
21.805796774
 30
0.0
 10
23.9739196944
 20
22.0044761651
 30
0.0
 10
24.3393777695
 20
22.183470252
 30
0.0
 10
24.5144886116
 20
22.2835788209
 30
0.0
  0
SPLINE
  5
287
100
AcDbEntity
  8
0
100
AcDbSpline
 62
7
  6
BYLAYER
 70
0
 71
3
 72
15
 73
11
 74
0
 42
0.0000001
 43
0.0000001
 44
0.0000000001
 40
0.0
 40
0.0
 40
0.0
 40
0.0
 40
0.1486066898
 40
0.2895005211
 40
0.4227246206
 40
0.5486429792
 40
0.6680004032
 40
0.7819377582
 40
0.8919868443
 40
1.0
 40
1.0
 40
1.0
 40
1.0
 10
8.2849921187
 20
39.4291241092
 30
0.0
 10
8.2849929494
 20
39.7508057817
 30
0.0
 10
8.3108955938
 20
40.3779079344
 30
0.0
 10
8.4343843845
 20
41.2860422937
 30
0.0
 10
8.6405757741
 20
42.1289110843
 30
0.0
 10
8.9279321303
 20
42.8984353453
 30
0.0
 10
9.2942339047
 20
43.5871292491
 30
0.0
 10
9.7366363602
 20
44.1879717696
 30
0.0
 10
10.251031193
 20
44.6942202317
 30
0.0
 10
10.6403380664
 20
44.9658762707
 30
0.0
 10
10.8428249396
 20
45.082780366
 30
0.0
  0
SPLINE
  5
288
100
AcDbEntity
  8
0
100
AcDbSpline
 62
7
  6
BYLAYER
 70
0
 71
3
 72
23
 73
19
 74
0
 42
0.0000001
 43
0.0000001
 44
0.0000000001
 40
0.0
 40
0.0
 40
0.0
 40
0.0
 40
0.056519852
 40
0.115416657
 40
0.1764382557
 40
0.2393004299
 40
0.3036626521
 40
0.3691573784
 40
0.4353966465
 40
0.5019768493
 40
0.5684883538
 40
0.6345231966
 40
0.6996816503
 40
0.7635813406
 40
0.8258647684
 40
0.8862072046
 40
0.9443280619
 40
1.0
 40
1.0
 40
1.0
 40
1.0
 10
26.193686118
 20
29.5357453904
 30
0.0
 10
26.1840998878
 20
29.8850205749
 30
0.0
 10
26.135212627
 20
30.5976972382
 30
0.0
 10
25.980541679
 20
31.6782796709
 30
0.0
 10
25.744408321
 20
32.7841365232
 30
0.0
 10
25.4290471512
 20
33.9051052038
 30
0.0
 10
25.0372777364
 20
35.0309833946
 30
0.0
 10
24.5727460122
 20
36.1514362847
 30
0.0
 10
24.0397072677
 20
37.2561869219
 30
0.0
 10
23.4430267691
 20
38.3350807912
 30
0.0
 10
22.7882197847
 20
39.3782280416
 30
0.0
 10
22.0812901293
 20
40.3760463018
 30
0.0
 10
21.3287020853
 20
41.3193570708
 30
0.0
 10
20.5373860314
 20
42.199531156
 30
0.0
 10
19.7145903995
 20
43.008494587
 30
0.0
 10
18.867782083
 20
43.7388254908
 30
0.0
 10
18.0047895546
 20
44.3838153716
 30
0.0
 10
17.4103151444
 20
44.7615908179
 30
0.0
 10
17.1122617405
 20
44.9336769662
 30
0.0
  0
SPLINE
  5
289
100
AcDbEntity
  8
0
100
AcDbSpline
 62
7
  6
BYLAYER
 70
0
 71
3
 72
21
 73
17
 74
0
 42
0.0000001
 43
0.0000001
 44
0.0000000001
 40
0.0
 40
0.0
 40
0.0
 40
0.0
 40
0.0553844704
 40
0.1131389314
 40
0.1730235832
 40
0.2348008447
 40
0.2981771332
 40
0.3628263525
 40
0.4284026794
 40
0.4945423695
 40
0.6269671072
 40
0.7571577913
 40
0.8205444764
 40
0.8823362756
 40
0.9422394142
 40
1.0
 40
1.0
 40
1.0
 40
1.0
 10
31.3190469616
 20
32.2951425892
 30
0.0
 10
31.3190469616
 20
32.6208439711
 30
0.0
 10
31.2918671741
 20
33.2864027728
 30
0.0
 10
31.1763068281
 20
34.2981078744
 30
0.0
 10
30.9859152487
 20
35.3366648117
 30
0.0
 10
30.7223936629
 20
36.3931310171
 30
0.0
 10
30.388006411
 20
37.4587095675
 30
0.0
 10
29.9855388163
 20
38.5243508472
 30
0.0
 10
29.518393826
 20
39.5810654886
 30
0.0
 10
28.8144544357
 20
40.9664441963
 30
0.0
 10
27.8022800911
 20
42.6181402116
 30
0.0
 10
26.6293021431
 20
44.1398458761
 30
0.0
 10
25.6132771436
 20
45.246727221
 30
0.0
 10
24.8302587876
 20
46.0037531101
 30
0.0
 10
24.0262575874
 20
46.6884201174
 30
0.0
 10
23.4698481194
 20
47.1009072707
 30
0.0
 10
23.1896323586
 20
47.2928916979
 30
0.0
  0
SPLINE
  5
28A
100
AcDbEntity
  8
0
100
AcDbSpline
 62
7
  6
BYLAYER
 70
0
 71
3
 72
12
 73
8
 74
0
 42
0.0000001
 43
0.0000001
 44
0.0000000001
 40
0.0
 40
0.0
 40
0.0
 40
0.0
 40
0.1097105741
 40
0.2231208386
 40
0.4626461165
 40
0.7213677043
 40
1.0
 40
1.0
 40
1.0
 40
1.0
 10
31.9387429907
 20
30.8339820093
 30
0.0
 10
32.0276622039
 20
30.95561121
 30
0.0
 10
32.1956372163
 20
31.2126282189
 30
0.0
 10
32.4902505858
 20
31.776447042
 30
0.0
 10
32.7746301506
 20
32.5716116417
 30
0.0
 10
32.9749293365
 20
33.6229220551
 30
0.0
 10
33.0160855726
 20
34.3619540894
 30
0.0
 10
33.0160855726
 20
34.7446013936
 30
0.0
  0
SPLINE
  5
28B
100
AcDbEntity
  8
0
100
AcDbSpline
 62
7
  6
BYLAYER
 70
0
 71
3
 72
23
 73
19
 74
0
 42
0.0000001
 43
0.0000001
 44
0.0000000001
 40
0.0
 40
0.0
 40
0.0
 40
0.0
 40
0.0594135935
 40
0.1221810478
 40
0.1878171738
 40
0.255735434
 40
0.3252573131
 40
0.3956522485
 40
0.4661588252
 40
0.5360125977
 40
0.6044706847
 40
0.6708379059
 40
0.7344944078
 40
0.7949264259
 40
0.8517616922
 40
0.9048108656
 40
0.9541156128
 40
1.0
 40
1.0
 40
1.0
 40
1.0
 10
32.1498935287
 20
32.8360658381
 30
0.0
 10
32.1498935287
 20
33.2877429099
 30
0.0
 10
32.0971194072
 20
34.2171022795
 30
0.0
 10
31.8773242298
 20
35.6298309739
 30
0.0
 10
31.5181429271
 20
37.0803388599
 30
0.0
 10
31.0254757858
 20
38.5451473197
 30
0.0
 10
30.4071983685
 20
40.0008109273
 30
0.0
 10
29.6733101531
 20
41.4238601557
 30
0.0
 10
28.8356315185
 20
42.7913485416
 30
0.0
 10
27.9076812773
 20
44.0812151227
 30
0.0
 10
26.9044095759
 20
45.2726691747
 30
0.0
 10
25.8419405802
 20
46.3465353218
 30
0.0
 10
24.7372770908
 20
47.2855646953
 30
0.0
 10
23.6079476045
 20
48.0746929177
 30
0.0
 10
22.4717301695
 20
48.7012201438
 30
0.0
 10
21.3460280024
 20
49.1548474735
 30
0.0
 10
20.24855218
 20
49.427613531
 30
0.0
 10
19.5228888652
 20
49.4866901097
 30
0.0
 10
19.1741032475
 20
49.4814722496
 30
0.0
  0
SPLINE
  5
28C
100
AcDbEntity
  8
0
100
AcDbSpline
 62
7
  6
BYLAYER
 70
0
 71
3
 72
16
 73
12
 74
0
 42
0.0000001
 43
0.0000001
 44
0.0000000001
 40
0.0
 40
0.0
 40
0.0
 40
0.0
 40
0.0539032972
 40
0.1080760719
 40
0.2181281903
 40
0.3320866213
 40
0.451467847
 40
0.5773965426
 40
0.710599168
 40
0.8514828263
 40
1.0
 40
1.0
 40
1.0
 40
1.0
 10
10.2840337526
 20
46.9315967791
 30
0.0
 10
10.1681857668
 20
46.8640534556
 30
0.0
 10
9.9415309786
 20
46.7186857825
 30
0.0
 10
9.51068775
 20
46.3879129775
 30
0.0
 10
9.0165453865
 20
45.8985585244
 30
0.0
 10
8.5100067193
 20
45.2066916467
 30
0.0
 10
8.0904576239
 20
44.4142593107
 30
0.0
 10
7.7613918225
 20
43.529417577
 30
0.0
 10
7.52523593
 20
42.5605928321
 30
0.0
 10
7.3838857714
 20
41.5171315584
 30
0.0
 10
7.3541774924
 20
40.7966699726
 30
0.0
 10
7.3541774924
 20
40.4271901875
 30
0.0
  0
SPLINE
  5
28D
100
AcDbEntity
  8
0
100
AcDbSpline
 62
7
  6
BYLAYER
 70
0
 71
3
 72
27
 73
23
 74
0
 42
0.0000001
 43
0.0000001
 44
0.0000000001
 40
0.0
 40
0.0
 40
0.0
 40
0.0
 40
0.0213298399
 40
0.0428882177
 40
0.0648914585
 40
0.0875341948
 40
0.1109815617
 40
0.135365941
 40
0.1607865219
 40
0.1873098347
 40
0.2437413866
 40
0.3046817109
 40
0.3697620318
 40
0.4383504003
 40
0.5096277799
 40
0.5826431516
 40
0.6563660938
 40
0.729735229
 40
0.801704419
 40
0.871289695
 40
0.9376226408
 40
1.0
 40
1.0
 40
1.0
 40
1.0
 10
23.1927695091
 20
23.6919212158
 30
0.0
 10
23.0410399777
 20
23.6043214455
 30
0.0
 10
22.7242995061
 20
23.447561195
 30
0.0
 10
22.2192867433
 20
23.2729940545
 30
0.0
 10
21.6861627503
 20
23.1592757805
 30
0.0
 10
21.1281124628
 20
23.1069412059
 30
0.0
 10
20.5482414557
 20
23.1160765111
 30
0.0
 10
19.9497335094
 20
23.1864568206
 30
0.0
 10
19.335767791
 20
23.3175491209
 30
0.0
 10
18.4834467853
 20
23.5775700065
 30
0.0
 10
17.3981124618
 20
24.0572363042
 30
0.0
 10
16.1166982019
 20
24.841237042
 30
0.0
 10
14.8555281183
 20
25.8285674083
 30
0.0
 10
13.6411029626
 20
26.9981702417
 30
0.0
 10
12.4988867453
 20
28.3252924165
 30
0.0
 10
11.4531321792
 20
29.7817192232
 30
0.0
 10
10.5261078508
 20
31.3364189264
 30
0.0
 10
9.7375931257
 20
32.9562353048
 30
0.0
 10
9.1044067155
 20
34.6066006893
 30
0.0
 10
8.6400359176
 20
36.2525391825
 30
0.0
 10
8.3544030331
 20
37.8588400433
 30
0.0
 10
8.2849934418
 20
38.9167617193
 30
0.0
 10
8.2849921187
 20
39.4291241092
 30
0.0
  0
SPLINE
  5
28E
100
AcDbEntity
  8
0
100
AcDbSpline
 62
7
  6
BYLAYER
 70
0
 71
3
 72
16
 73
12
 74
0
 42
0.0000001
 43
0.0000001
 44
0.0000000001
 40
0.0
 40
0.0
 40
0.0
 40
0.0
 40
0.0539377089
 40
0.1081226585
 40
0.2181480455
 40
0.3320426324
 40
0.4513566174
 40
0.5772419329
 40
0.7104428024
 40
0.8513768269
 40
1.0
 40
1.0
 40
1.0
 40
1.0
 10
28.4739030499
 20
24.5471116405
 30
0.0
 10
28.5911850215
 20
24.6141598522
 30
0.0
 10
28.8206784139
 20
24.7586884649
 30
0.0
 10
29.2570243838
 20
25.0884021161
 30
0.0
 10
29.7576794756
 20
25.5776534833
 30
0.0
 10
30.2710794666
 20
26.271262192
 30
0.0
 10
30.6963686045
 20
27.0670830521
 30
0.0
 10
31.0299656424
 20
27.9568009996
 30
0.0
 10
31.2693870435
 20
28.9318265433
 30
0.0
 10
31.412691871
 20
29.9826345699
 30
0.0
 10
31.4427994066
 20
30.7083741636
 30
0.0
 10
31.4427994066
 20
31.0806215853
 30
0.0
  0
SPLINE
  5
28F
100
AcDbEntity
  8
0
100
AcDbSpline
 62
7
  6
BYLAYER
 70
0
 71
3
 72
15
 73
11
 74
0
 42
0.0000001
 43
0.0000001
 44
0.0000000001
 40
0.0
 40
0.0
 40
0.0
 40
0.0
 40
0.1486067063
 40
0.2895005168
 40
0.4227246192
 40
0.5486429785
 40
0.6680004026
 40
0.7819377578
 40
0.8919868441
 40
1.0
 40
1.0
 40
1.0
 40
1.0
 10
25.75060233
 20
29.3455774726
 30
0.0
 10
25.7506031606
 20
29.0238957652
 30
0.0
 10
25.7246978149
 20
28.3967936437
 30
0.0
 10
25.6012103427
 20
27.4886592405
 30
0.0
 10
25.3950186085
 20
26.6457905068
 30
0.0
 10
25.1076623347
 20
25.8762662363
 30
0.0
 10
24.7413605398
 20
25.1875723327
 30
0.0
 10
24.2989580895
 20
24.5867298122
 30
0.0
 10
23.7845632554
 20
24.0804813502
 30
0.0
 10
23.3952563822
 20
23.8088253111
 30
0.0
 10
23.1927695091
 20
23.6919212158
 30
0.0
  0
SPLINE
  5
290
100
AcDbEntity
  8
0
100
AcDbSpline
 62
7
  6
BYLAYER
 70
0
 71
3
 72
37
 73
33
 74
0
 42
0.0000001
 43
0.0000001
 44
0.0000000001
 40
0.0
 40
0.0
 40
0.0
 40
0.0
 40
0.0309848378
 40
0.0603802192
 40
0.0881645194
 40
0.1144247896
 40
0.1393192541
 40
0.1630821547
 40
0.1860341548
 40
0.2085620563
 40
0.2310899128
 40
0.2540423151
 40
0.2778060123
 40
0.3026997365
 40
0.3156551923
 40
0.3289751128
 40
0.3567606452
 40
0.3861460056
 40
0.4171399786
 40
0.4496913945
 40
0.483702158
 40
0.5190316126
 40
0.5555075483
 40
0.5929308509
 40
0.6310817182
 40
0.7085880854
 40
0.7860934998
 40
0.8616330491
 40
0.8981069915
 40
0.9334356557
 40
0.9674562492
 40
1.0
 40
1.0
 40
1.0
 40
1.0
 10
11.3924573744
 20
37.3276887596
 30
0.0
 10
11.3924588647
 20
37.525037754
 30
0.0
 10
11.4083961351
 20
37.9098754933
 30
0.0
 10
11.4841064966
 20
38.4671776042
 30
0.0
 10
11.6106595244
 20
38.9844676779
 30
0.0
 10
11.7870239457
 20
39.4566743435
 30
0.0
 10
12.0117733235
 20
39.8793275499
 30
0.0
 10
12.2832557937
 20
40.2480247764
 30
0.0
 10
12.5989934242
 20
40.5587609089
 30
0.0
 10
12.9559205785
 20
40.8078672254
 30
0.0
 10
13.3501115291
 20
40.9924247058
 30
0.0
 10
13.7770861476
 20
41.1105552265
 30
0.0
 10
14.2321105329
 20
41.1612684479
 30
0.0
 10
14.6256384249
 20
41.1476185971
 30
0.0
 10
14.9488716502
 20
41.104656604
 30
0.0
 10
15.2869204148
 20
41.0381578328
 30
0.0
 10
15.7189310787
 20
40.9122072538
 30
0.0
 10
16.2394554267
 20
40.6992001537
 30
0.0
 10
16.764524981
 20
40.4242823928
 30
0.0
 10
17.2892346177
 20
40.0902215213
 30
0.0
 10
17.8086236005
 20
39.7001373159
 30
0.0
 10
18.3178246887
 20
39.2578075051
 30
0.0
 10
18.8119888548
 20
38.7674367712
 30
0.0
 10
19.2864157285
 20
38.233670962
 30
0.0
 10
19.8896817621
 20
37.4671102151
 30
0.0
 10
20.5651493538
 20
36.4353113382
 30
0.0
 10
21.2282513844
 20
35.1218644921
 30
0.0
 10
21.6461313823
 20
33.9859843994
 30
0.0
 10
21.8857327028
 20
33.0780576231
 30
0.0
 10
22.0142329607
 20
32.415842283
 30
0.0
 10
22.0922846492
 20
31.7710242675
 30
0.0
 10
22.1107302741
 20
31.3469082695
 30
0.0
 10
22.1107316255
 20
31.139630228
 30
0.0
  0
SPLINE
  5
291
100
AcDbEntity
  8
0
100
AcDbSpline
 62
7
  6
BYLAYER
 70
0
 71
3
 72
37
 73
33
 74
0
 42
0.0000001
 43
0.0000001
 44
0.0000000001
 40
0.0
 40
0.0
 40
0.0
 40
0.0
 40
0.0309848348
 40
0.0603802238
 40
0.0881645236
 40
0.1144247923
 40
0.1393192579
 40
0.1630821605
 40
0.1860341603
 40
0.208562057
 40
0.231089906
 40
0.2540422991
 40
0.2778059859
 40
0.3026997004
 40
0.315655152
 40
0.328975069
 40
0.3567605967
 40
0.3861459559
 40
0.4171399308
 40
0.4496913509
 40
0.4837021199
 40
0.5190315803
 40
0.5555075214
 40
0.5929308285
 40
0.6310816995
 40
0.708588072
 40
0.7860934908
 40
0.8616330447
 40
0.898106988
 40
0.933435653
 40
0.9674562518
 40
1.0
 40
1.0
 40
1.0
 40
1.0
 10
22.1107316255
 20
31.139630228
 30
0.0
 10
22.1107303389
 20
30.9422812647
 30
0.0
 10
22.0947930462
 20
30.5574435011
 30
0.0
 10
22.0190824507
 20
30.0001414376
 30
0.0
 10
21.8925295241
 20
29.4828513408
 30
0.0
 10
21.7161651612
 20
29.0106446865
 30
0.0
 10
21.4914157877
 20
28.5879914972
 30
0.0
 10
21.2199333157
 20
28.2192942844
 30
0.0
 10
20.9041957278
 20
27.9085581752
 30
0.0
 10
20.5472686702
 20
27.6594519048
 30
0.0
 10
20.1530778609
 20
27.4748945037
 30
0.0
 10
19.726103419
 20
27.3567640849
 30
0.0
 10
19.2710792338
 20
27.3060509872
 30
0.0
 10
18.8775515233
 20
27.3197009467
 30
0.0
 10
18.5543184406
 20
27.3626630187
 30
0.0
 10
18.2162697924
 20
27.4291618676
 30
0.0
 10
17.7842592439
 20
27.5551125276
 30
0.0
 10
17.2637349814
 20
27.7681196754
 30
0.0
 10
16.7386654317
 20
28.043037431
 30
0.0
 10
16.2139557195
 20
28.3770982492
 30
0.0
 10
15.6945665929
 20
28.767182361
 30
0.0
 10
15.1853653188
 20
29.2095120575
 30
0.0
 10
14.6912009512
 20
29.6998826715
 30
0.0
 10
14.2167738856
 20
30.2336483696
 30
0.0
 10
13.6135076393
 20
31.0002089867
 30
0.0
 10
12.9380398538
 20
32.032007757
 30
0.0
 10
12.2749377389
 20
33.3454545774
 30
0.0
 10
11.8570578416
 20
34.4813346941
 30
0.0
 10
11.6174564007
 20
35.3892614166
 30
0.0
 10
11.4889559902
 20
36.0514767367
 30
0.0
 10
11.4109045533
 20
36.6962947745
 30
0.0
 10
11.3924589396
 20
37.120410747
 30
0.0
 10
11.3924573744
 20
37.3276887596
 30
0.0
  0
SPLINE
  5
292
100
AcDbEntity
  8
0
100
AcDbSpline
 62
7
  6
BYLAYER
 70
0
 71
3
 72
11
 73
7
 74
0
 42
0.0000001
 43
0.0000001
 44
0.0000000001
 40
0.0
 40
0.0
 40
0.0
 40
0.0
 40
0.2312438135
 40
0.4766550246
 40
0.7338801183
 40
1.0
 40
1.0
 40
1.0
 40
1.0
 10
26.1041542486
 20
29.5496995496
 30
0.0
 10
26.1041542486
 20
30.0403334023
 30
0.0
 10
26.0405455037
 20
31.0522938638
 30
0.0
 10
25.7777708518
 20
32.5895315614
 30
0.0
 10
25.3499227604
 20
34.165831027
 30
0.0
 10
24.9650167985
 20
35.2090747503
 30
0.0
 10
24.7478179495
 20
35.7302587989
 30
0.0
  0
SPLINE
  5
293
100
AcDbEntity
  8
0
100
AcDbSpline
 62
7
  6
BYLAYER
 70
0
 71
3
 72
22
 73
18
 74
0
 42
0.0000001
 43
0.0000001
 44
0.0000000001
 40
0.0
 40
0.0
 40
0.0
 40
0.0
 40
0.1566712407
 40
0.2322115426
 40
0.3055750255
 40
0.3765764628
 40
0.4450699425
 40
0.5109524832
 40
0.5741722239
 40
0.6347355776
 40
0.6927137147
 40
0.7482524338
 40
0.801574812
 40
0.852988874
 40
0.9028813705
 40
0.9517134974
 40
1.0
 40
1.0
 40
1.0
 40
1.0
 10
20.9722311397
 20
41.6992001862
 30
0.0
 10
20.5793195976
 20
42.1313864388
 30
0.0
 10
19.966568942
 20
42.7456327863
 30
0.0
 10
19.1008727529
 20
43.4867989755
 30
0.0
 10
18.4494758839
 20
43.9853706011
 30
0.0
 10
17.7918667649
 20
44.4303992631
 30
0.0
 10
17.1317538592
 20
44.819415271
 30
0.0
 10
16.4728368681
 20
45.150157202
 30
0.0
 10
15.8188182233
 20
45.4207375192
 30
0.0
 10
15.1733531626
 20
45.6295712281
 30
0.0
 10
14.540038933
 20
45.7753697826
 30
0.0
 10
13.922430508
 20
45.8572290894
 30
0.0
 10
13.3240057081
 20
45.8744466262
 30
0.0
 10
12.7482181489
 20
45.8268188114
 30
0.0
 10
12.1984561015
 20
45.7142772437
 30
0.0
 10
11.6781621154
 20
45.5374918812
 30
0.0
 10
11.3522846723
 20
45.3769001877
 30
0.0
 10
11.1963833929
 20
45.2868911245
 30
0.0
  0
SPLINE
  5
294
100
AcDbEntity
  8
0
100
AcDbSpline
 62
7
  6
BYLAYER
 70
0
 71
3
 72
41
 73
37
 74
0
 42
0.0000001
 43
0.0000001
 44
0.0000000001
 40
0.0
 40
0.0
 40
0.0
 40
0.0
 40
0.0325440201
 40
0.0665566437
 40
0.1018803241
 40
0.1383523232
 40
0.1757718671
 40
0.2139185808
 40
0.2525588329
 40
0.2914480845
 40
0.3303372868
 40
0.3689774675
 40
0.4071242099
 40
0.44454326
 40
0.4810151522
 40
0.5163405217
 40
0.5503469768
 40
0.5828949069
 40
0.6138847076
 40
0.6432665096
 40
0.6710487711
 40
0.6843669332
 40
0.6973206119
 40
0.722211377
 40
0.7459720014
 40
0.7689216483
 40
0.7914466375
 40
0.813971681
 40
0.8369214433
 40
0.8606821233
 40
0.8855734313
 40
0.8985274556
 40
0.9118454472
 40
0.9396261008
 40
0.9690140955
 40
1.0
 40
1.0
 40
1.0
 40
1.0
 10
8.0256690942
 20
39.6876489388
 30
0.0
 10
8.0256690942
 20
39.3361694054
 30
0.0
 10
8.0569096707
 20
38.6170879678
 30
0.0
 10
8.1893016127
 20
37.5238197065
 30
0.0
 10
8.4071557639
 20
36.4011030265
 30
0.0
 10
8.7082753685
 20
35.2598125687
 30
0.0
 10
9.0898047395
 20
34.1107129106
 30
0.0
 10
9.5480864098
 20
32.9647985954
 30
0.0
 10
10.0787525911
 20
31.8330291376
 30
0.0
 10
10.6767263622
 20
30.7262257406
 30
0.0
 10
11.3362641253
 20
29.6549674331
 30
0.0
 10
12.0510755382
 20
28.6295159375
 30
0.0
 10
12.8143307185
 20
27.6596860672
 30
0.0
 10
13.6187109533
 20
26.754728768
 30
0.0
 10
14.4565530616
 20
25.9232962273
 30
0.0
 10
15.3198969701
 20
25.1733421589
 30
0.0
 10
16.2005297803
 20
24.5119907141
 30
0.0
 10
17.0901311858
 20
23.9455557616
 30
0.0
 10
17.9804000145
 20
23.4794922119
 30
0.0
 10
18.8629210177
 20
23.1183260889
 30
0.0
 10
19.5953818021
 20
22.9047761053
 30
0.0
 10
20.1685322476
 20
22.7920322558
 30
0.0
 10
20.7165647991
 20
22.7192201527
 30
0.0
 10
21.3837758058
 20
22.696036445
 30
0.0
 10
22.155250581
 20
22.7820600806
 30
0.0
 10
22.8791828418
 20
22.9822990337
 30
0.0
 10
23.5475105084
 20
23.2952375457
 30
0.0
 10
24.1526777064
 20
23.7175729006
 30
0.0
 10
24.688043583
 20
24.2444125557
 30
0.0
 10
25.1482758648
 20
24.869529953
 30
0.0
 10
25.4617911772
 20
25.4589620461
 30
0.0
 10
25.6727393812
 20
25.9699913596
 30
0.0
 10
25.8616660236
 20
26.522710903
 30
0.0
 10
26.0429850712
 20
27.2638721095
 30
0.0
 10
26.1713991939
 20
28.2086999824
 30
0.0
 10
26.1983890306
 20
28.8612098597
 30
0.0
 10
26.1983890306
 20
29.1958615477
 30
0.0
  0
SPLINE
  5
295
100
AcDbEntity
  8
0
100
AcDbSpline
 62
7
  6
BYLAYER
 70
0
 71
3
 72
25
 73
21
 74
0
 42
0.0000001
 43
0.0000001
 44
0.0000000001
 40
0.0
 40
0.0
 40
0.0
 40
0.0
 40
0.0742980436
 40
0.1447409117
 40
0.2113488465
 40
0.2432790971
 40
0.2743354769
 40
0.3340108769
 40
0.3909766357
 40
0.4459979302
 40
0.5000009599
 40
0.5540039852
 40
0.6090251643
 40
0.6659904412
 40
0.7256663526
 40
0.7567231176
 40
0.7886524921
 40
0.8552555877
 40
0.9257122921
 40
1.0
 40
1.0
 40
1.0
 40
1.0
 10
17.1122617405
 20
44.9336769662
 30
0.0
 10
16.822402031
 20
45.101032347
 30
0.0
 10
16.2438356806
 20
45.4039403051
 30
0.0
 10
15.3613478937
 20
45.7651087053
 30
0.0
 10
14.6288599432
 20
45.9786892804
 30
0.0
 10
14.0556975558
 20
46.0914499578
 30
0.0
 10
13.5076519053
 20
46.1642781903
 30
0.0
 10
12.8404248764
 20
46.187479838
 30
0.0
 10
12.0689298068
 20
46.1014744742
 30
0.0
 10
11.3449775243
 20
45.9012498393
 30
0.0
 10
10.6766304708
 20
45.588321577
 30
0.0
 10
10.0714450498
 20
45.1659922842
 30
0.0
 10
9.5360626229
 20
44.6391545864
 30
0.0
 10
9.0758158532
 20
44.0140353077
 30
0.0
 10
8.762290591
 20
43.4245988172
 30
0.0
 10
8.5513356924
 20
42.9135645604
 30
0.0
 10
8.3624029518
 20
42.3608387059
 30
0.0
 10
8.1810780282
 20
41.619667663
 30
0.0
 10
8.0526597714
 20
40.6748258965
 30
0.0
 10
8.0256690942
 20
40.0223059402
 30
0.0
 10
8.0256690942
 20
39.6876489388
 30
0.0
  0
SPLINE
  5
296
100
AcDbEntity
  8
0
100
AcDbSpline
 62
7
  6
BYLAYER
 70
0
 71
3
 72
15
 73
11
 74
0
 42
0.0000001
 43
0.0000001
 44
0.0000000001
 40
0.0
 40
0.0
 40
0.0
 40
0.0
 40
0.1476903901
 40
0.2879067406
 40
0.4207435924
 40
0.5465925273
 40
0.6661846404
 40
0.7806114998
 40
0.8913090517
 40
1.0
 40
1.0
 40
1.0
 40
1.0
 10
17.104976997
 20
44.9347467857
 30
0.0
 10
16.8327945639
 20
45.0841156795
 30
0.0
 10
16.289987796
 20
45.3538800431
 30
0.0
 10
15.4637308881
 20
45.6732457458
 30
0.0
 10
14.6530847172
 20
45.8942230779
 30
0.0
 10
13.8650485527
 20
46.0144600786
 30
0.0
 10
13.1064852989
 20
46.0324316589
 30
0.0
 10
12.3841630609
 20
45.9473711356
 30
0.0
 10
11.705174651
 20
45.7594713315
 30
0.0
 10
11.284035609
 20
45.5656006659
 30
0.0
 10
11.0850407405
 20
45.4533124013
 30
0.0
  0
SPLINE
  5
297
100
AcDbEntity
  8
0
100
AcDbSpline
 62
7
  6
BYLAYER
 70
0
 71
3
 72
27
 73
23
 74
0
 42
0.0000001
 43
0.0000001
 44
0.0000000001
 40
0.0
 40
0.0
 40
0.0
 40
0.0
 40
0.0213298399
 40
0.0428882177
 40
0.0648914585
 40
0.0875341948
 40
0.1109815617
 40
0.135365941
 40
0.1607865219
 40
0.1873098347
 40
0.2437413866
 40
0.3046817109
 40
0.3697620317
 40
0.4383504003
 40
0.5096277799
 40
0.5826431516
 40
0.6563660938
 40
0.729735229
 40
0.801704419
 40
0.871289695
 40
0.9376226408
 40
1.0
 40
1.0
 40
1.0
 40
1.0
 10
10.8428249396
 20
45.082780366
 30
0.0
 10
10.994554471
 20
45.1703801363
 30
0.0
 10
11.3112949426
 20
45.3271403869
 30
0.0
 10
11.8163077053
 20
45.5017075274
 30
0.0
 10
12.3494316984
 20
45.6154258013
 30
0.0
 10
12.9074819859
 20
45.6677603759
 30
0.0
 10
13.487352993
 20
45.6586250708
 30
0.0
 10
14.0858609393
 20
45.5882447612
 30
0.0
 10
14.6998266576
 20
45.457152461
 30
0.0
 10
15.5521476634
 20
45.1971315754
 30
0.0
 10
16.6374819869
 20
44.7174652776
 30
0.0
 10
17.9188962468
 20
43.9334645398
 30
0.0
 10
19.1800663303
 20
42.9461341736
 30
0.0
 10
20.3944914862
 20
41.7765313402
 30
0.0
 10
21.5367077028
 20
40.4494091653
 30
0.0
 10
22.5824622717
 20
38.9929823586
 30
0.0
 10
23.5094865899
 20
37.4382826554
 30
0.0
 10
24.2980013525
 20
35.8184662769
 30
0.0
 10
24.931187627
 20
34.1681008927
 30
0.0
 10
25.3955589057
 20
32.522162399
 30
0.0
 10
25.6811901162
 20
30.9158615399
 30
0.0
 10
25.750603653
 20
29.8579398631
 30
0.0
 10
25.75060233
 20
29.3455774726
 30
0.0
  0
SPLINE
  5
298
100
AcDbEntity
  8
0
100
AcDbSpline
 62
7
  6
BYLAYER
 70
0
 71
3
 72
15
 73
11
 74
0
 42
0.0000001
 43
0.0000001
 44
0.0000000001
 40
0.0
 40
0.0
 40
0.0
 40
0.0
 40
0.1080128009
 40
0.2180620984
 40
0.3319998672
 40
0.4513592489
 40
0.5772785455
 40
0.7104931115
 40
0.8514153353
 40
1.0
 40
1.0
 40
1.0
 40
1.0
 10
23.546314893
 20
23.8960546112
 30
0.0
 10
23.7488004573
 20
24.0129589497
 30
0.0
 10
24.138112929
 20
24.2846046201
 30
0.0
 10
24.6525106868
 20
24.7908520062
 30
0.0
 10
25.0949051755
 20
25.3917061352
 30
0.0
 10
25.4612114623
 20
26.0804043634
 30
0.0
 10
25.748566007
 20
26.8499124356
 30
0.0
 10
25.9547836208
 20
27.692819485
 30
0.0
 10
26.0782172438
 20
28.6009533326
 30
0.0
 10
26.1041542486
 20
29.2280658894
 30
0.0
 10
26.1041542486
 20
29.5496995496
 30
0.0
  0
SPLINE
  5
299
100
AcDbEntity
  8
0
100
AcDbSpline
 62
7
  6
BYLAYER
 70
0
 71
3
 72
29
 73
25
 74
0
 42
0.0000001
 43
0.0000001
 44
0.0000000001
 40
0.0
 40
0.0
 40
0.0
 40
0.0
 40
0.0306752207
 40
0.0624252419
 40
0.0951614273
 40
0.1288039556
 40
0.1984169613
 40
0.2704134597
 40
0.343808078
 40
0.417551949
 40
0.4905811084
 40
0.561863027
 40
0.6304449654
 40
0.6955061433
 40
0.756417069
 40
0.785206556
 40
0.8128473221
 40
0.8647002481
 40
0.8890645147
 40
0.912493196
 40
0.935120834
 40
0.9571135653
 40
0.9786675365
 40
1.0
 40
1.0
 40
1.0
 40
1.0
 10
27.4793359511
 20
28.8081873909
 30
0.0
 10
27.4793359511
 20
29.0987359036
 30
0.0
 10
27.4601101666
 20
29.6901462669
 30
0.0
 10
27.3775329468
 20
30.5881641144
 30
0.0
 10
27.2409609932
 20
31.5080078821
 30
0.0
 10
26.9851236718
 20
32.7709221125
 30
0.0
 10
26.5331994093
 20
34.3710708739
 30
0.0
 10
25.8021937848
 20
36.2745733273
 30
0.0
 10
24.8918678757
 20
38.1427345561
 30
0.0
 10
23.8217275652
 20
39.9354888191
 30
0.0
 10
22.6146299864
 20
41.614560064
 30
0.0
 10
21.2963620447
 20
43.1440690916
 30
0.0
 10
19.8948825508
 20
44.4914814019
 30
0.0
 10
18.4399678918
 20
45.6280236108
 30
0.0
 10
17.1849589293
 20
46.3935464177
 30
0.0
 10
16.1812155238
 20
46.8729857126
 30
0.0
 10
15.2255707744
 20
47.2468534296
 30
0.0
 10
14.2685748226
 20
47.4986783627
 30
0.0
 10
13.3296110727
 20
47.6065754333
 30
0.0
 10
12.6613842837
 20
47.6150466015
 30
0.0
 10
12.0184964285
 20
47.5526127934
 30
0.0
 10
11.404498649
 20
47.4192269542
 30
0.0
 10
10.8230459495
 20
47.2156892931
 30
0.0
 10
10.4585882816
 20
47.033368018
 30
0.0
 10
10.2840337526
 20
46.9315967791
 30
0.0
  0
SPLINE
  5
29A
100
AcDbEntity
  8
0
100
AcDbSpline
 62
7
  6
BYLAYER
 70
0
 71
3
 72
15
 73
11
 74
0
 42
0.0000001
 43
0.0000001
 44
0.0000000001
 40
0.0
 40
0.0
 40
0.0
 40
0.0
 40
0.1086789579
 40
0.2194102782
 40
0.3338895561
 40
0.4535309262
 40
0.5794042886
 40
0.7122183614
 40
0.8523968144
 40
1.0
 40
1.0
 40
1.0
 40
1.0
 10
23.6568016625
 20
23.7295215676
 30
0.0
 10
23.8518031533
 20
23.8462987259
 30
0.0
 10
24.2268233071
 20
24.1148521519
 30
0.0
 10
24.724307707
 20
24.6087427851
 30
0.0
 10
25.1550680392
 20
25.19044483
 30
0.0
 10
25.5154592659
 20
25.8540138619
 30
0.0
 10
25.8028147913
 20
26.593279358
 30
0.0
 10
26.0151179152
 20
27.4016899159
 30
0.0
 10
26.1508132787
 20
28.2721436837
 30
0.0
 10
26.1886336592
 20
28.8737223581
 30
0.0
 10
26.1955209244
 20
29.182346434
 30
0.0
  0
SPLINE
  5
29B
100
AcDbEntity
  8
0
100
AcDbSpline
 62
7
  6
BYLAYER
 70
0
 71
3
 72
16
 73
12
 74
0
 42
0.0000001
 43
0.0000001
 44
0.0000000001
 40
0.0
 40
0.0
 40
0.0
 40
0.0
 40
0.0539378845
 40
0.108122949
 40
0.218148598
 40
0.3320437834
 40
0.4513581076
 40
0.5772433742
 40
0.7104437749
 40
0.8513769445
 40
1.0
 40
1.0
 40
1.0
 40
1.0
 10
24.5144886116
 20
22.2835788209
 30
0.0
 10
24.6316109901
 20
22.3505361467
 30
0.0
 10
24.8607918806
 20
22.494868733
 30
0.0
 10
25.296545044
 20
22.8241329824
 30
0.0
 10
25.7965178765
 20
23.3127214084
 30
0.0
 10
26.3092182102
 20
24.0053884272
 30
0.0
 10
26.7339292437
 20
24.8001266629
 30
0.0
 10
27.0670675643
 20
25.6886332925
 30
0.0
 10
27.3061612411
 20
26.6623267992
 30
0.0
 10
27.4492702151
 20
27.711699341
 30
0.0
 10
27.4793359511
 20
28.4364475349
 30
0.0
 10
27.4793359511
 20
28.8081873909
 30
0.0
  0
SPLINE
  5
29C
100
AcDbEntity
  8
0
100
AcDbSpline
 62
7
  6
BYLAYER
 70
0
 71
3
 72
9
 73
5
 74
0
 42
0.0000001
 43
0.0000001
 44
0.0000000001
 40
0.0
 40
0.0
 40
0.0
 40
0.0
 40
0.5103877892
 40
1.0
 40
1.0
 40
1.0
 40
1.0
 10
31.0477168872
 20
28.4323402498
 30
0.0
 10
31.1082070199
 20
28.5294017667
 30
0.0
 10
31.2476958738
 20
28.7077269353
 30
0.0
 10
31.4276515223
 20
28.8459669527
 30
0.0
 10
31.5226653952
 20
28.9008229104
 30
0.0
  0
SPLINE
  5
29D
100
AcDbEntity
  8
0
100
AcDbSpline
 62
7
  6
BYLAYER
 70
0
 71
3
 72
15
 73
11
 74
0
 42
0.0000001
 43
0.0000001
 44
0.0000000001
 40
0.0
 40
0.0
 40
0.0
 40
0.0
 40
0.1080125436
 40
0.2180618663
 40
0.332006219
 40
0.451356913
 40
0.5772601256
 40
0.7105003496
 40
0.8514748396
 40
1.0
 40
1.0
 40
1.0
 40
1.0
 10
37.313155772
 20
25.3339958596
 30
0.0
 10
37.2508546314
 20
25.298026494
 30
0.0
 10
37.1185682971
 20
25.2361078463
 30
0.0
 10
36.9045443132
 20
25.1768812572
 30
0.0
 10
36.6763771568
 20
25.1514826
 30
0.0
 10
36.4365254401
 20
25.1597779913
 30
0.0
 10
36.1872745926
 20
25.2016048242
 30
0.0
 10
35.9309029174
 20
25.2763239833
 30
0.0
 10
35.6699383267
 20
25.3831913604
 30
0.0
 10
35.4988365108
 20
25.4727226066
 30
0.0
 10
35.4131675217
 20
25.5221825016
 30
0.0
  0
SPLINE
  5
29E
100
AcDbEntity
  8
0
100
AcDbSpline
 62
7
  6
BYLAYER
 70
0
 71
3
 72
11
 73
7
 74
0
 42
0.0000001
 43
0.0000001
 44
0.0000000001
 40
0.0
 40
0.0
 40
0.0
 40
0.0
 40
0.2444847404
 40
0.4912862068
 40
0.7424602588
 40
1.0
 40
1.0
 40
1.0
 40
1.0
 10
33.4389664764
 20
30.3581005564
 30
0.0
 10
33.3053279036
 20
30.2809614105
 30
0.0
 10
33.0272871023
 20
30.1417946441
 30
0.0
 10
32.5855379976
 20
29.9824277227
 30
0.0
 10
32.1204619302
 20
29.872839439
 30
0.0
 10
31.8010661692
 20
29.8337424448
 30
0.0
 10
31.6389295208
 20
29.8222491268
 30
0.0
  0
SPLINE
  5
29F
100
AcDbEntity
  8
0
100
AcDbSpline
 62
7
  6
BYLAYER
 70
0
 71
3
 72
15
 73
11
 74
0
 42
0.0000001
 43
0.0000001
 44
0.0000000001
 40
0.0
 40
0.0
 40
0.0
 40
0.0
 40
0.108013733
 40
0.2180613782
 40
0.331997099
 40
0.451358084
 40
0.5772718485
 40
0.7104887838
 40
0.8514265966
 40
1.0
 40
1.0
 40
1.0
 40
1.0
 10
33.1889720607
 20
30.791106154
 30
0.0
 10
33.3726040436
 20
30.897125604
 30
0.0
 10
33.7256423782
 20
31.1435055385
 30
0.0
 10
34.1921484878
 20
31.6025898209
 30
0.0
 10
34.5933691211
 20
32.1474773397
 30
0.0
 10
34.9255178252
 20
32.7720566256
 30
0.0
 10
35.1861552037
 20
33.4698884593
 30
0.0
 10
35.3731742869
 20
34.2343328037
 30
0.0
 10
35.4850860227
 20
35.0579187156
 30
0.0
 10
35.5086285122
 20
35.6266428428
 30
0.0
 10
35.5086285122
 20
35.9183044407
 30
0.0
  0
SPLINE
  5
2A0
100
AcDbEntity
  8
0
100
AcDbSpline
 62
7
  6
BYLAYER
 70
0
 71
3
 72
11
 73
7
 74
0
 42
0.0000001
 43
0.0000001
 44
0.0000000001
 40
0.0
 40
0.0
 40
0.0
 40
0.0
 40
0.217745073
 40
0.4508830113
 40
0.7104597664
 40
1.0
 40
1.0
 40
1.0
 40
1.0
 10
30.6320667197
 20
22.0333587052
 30
0.0
 10
30.6485567921
 20
22.0428792039
 30
0.0
 10
30.6794409243
 20
22.0687838748
 30
0.0
 10
30.7122941297
 20
22.1225244836
 30
0.0
 10
30.7317706952
 20
22.1887298818
 30
0.0
 10
30.7356366899
 20
22.2369081326
 30
0.0
 10
30.7356366899
 20
22.2622274477
 30
0.0
  0
SPLINE
  5
2A1
100
AcDbEntity
  8
0
100
AcDbSpline
 62
7
  6
BYLAYER
 70
0
 71
3
 72
11
 73
7
 74
0
 42
0.0000001
 43
0.0000001
 44
0.0000000001
 40
0.0
 40
0.0
 40
0.0
 40
0.0
 40
0.217745073
 40
0.4508830113
 40
0.7104597664
 40
1.0
 40
1.0
 40
1.0
 40
1.0
 10
36.2288401943
 20
27.2121080296
 30
0.0
 10
36.2453302666
 20
27.2216285283
 30
0.0
 10
36.2762143988
 20
27.2475331992
 30
0.0
 10
36.3090676042
 20
27.301273808
 30
0.0
 10
36.3285441697
 20
27.3674792062
 30
0.0
 10
36.3324101644
 20
27.415657457
 30
0.0
 10
36.3324101644
 20
27.4409767721
 30
0.0
  0
SPLINE
  5
2A2
100
AcDbEntity
  8
0
100
AcDbSpline
 62
7
  6
BYLAYER
 70
0
 71
3
 72
15
 73
11
 74
0
 42
0.0000001
 43
0.0000001
 44
0.0000000001
 40
0.0
 40
0.0
 40
0.0
 40
0.0
 40
0.1080120351
 40
0.2180609276
 40
0.3320049916
 40
0.4513555801
 40
0.5772588794
 40
0.7104993721
 40
0.8514742921
 40
1.0
 40
1.0
 40
1.0
 40
1.0
 10
35.9590053207
 20
23.1891552938
 30
0.0
 10
36.0213078406
 20
23.2251254482
 30
0.0
 10
36.1410771202
 20
23.3087309697
 30
0.0
 10
36.2993844738
 20
23.4644715584
 30
0.0
 10
36.4354666489
 20
23.6493757787
 30
0.0
 10
36.5482102175
 20
23.8612473091
 30
0.0
 10
36.6366132486
 20
24.0980254486
 30
0.0
 10
36.7000900508
 20
24.357417411
 30
0.0
 10
36.7380210657
 20
24.6368617267
 30
0.0
 10
36.746034026
 20
24.8298117702
 30
0.0
 10
36.746034026
 20
24.9287362538
 30
0.0
  0
SPLINE
  5
2A3
100
AcDbEntity
  8
0
100
AcDbSpline
 62
7
  6
BYLAYER
 70
0
 71
3
 72
15
 73
11
 74
0
 42
0.0000001
 43
0.0000001
 44
0.0000000001
 40
0.0
 40
0.0
 40
0.0
 40
0.0
 40
0.1080125436
 40
0.2180618663
 40
0.332006219
 40
0.451356913
 40
0.5772601256
 40
0.7105003496
 40
0.8514748396
 40
1.0
 40
1.0
 40
1.0
 40
1.0
 10
31.7163822974
 20
20.7396903706
 30
0.0
 10
31.6540811569
 20
20.703721005
 30
0.0
 10
31.5217948225
 20
20.6418023574
 30
0.0
 10
31.3077708387
 20
20.5825757682
 30
0.0
 10
31.0796036822
 20
20.557177111
 30
0.0
 10
30.8397519655
 20
20.5654725023
 30
0.0
 10
30.590501118
 20
20.6072993352
 30
0.0
 10
30.3341294429
 20
20.6820184943
 30
0.0
 10
30.0731648521
 20
20.7888858714
 30
0.0
 10
29.9020630363
 20
20.8784171176
 30
0.0
 10
29.8163940472
 20
20.9278770126
 30
0.0
  0
SPLINE
  5
2A4
100
AcDbEntity
  8
0
100
AcDbSpline
 62
7
  6
BYLAYER
 70
0
 71
3
 72
26
 73
22
 74
0
 42
0.0000001
 43
0.0000001
 44
0.0000000001
 40
0.0
 40
0.0
 40
0.0
 40
0.0
 40
0.0623792415
 40
0.1287164302
 40
0.1983048629
 40
0.2702775089
 40
0.3436513891
 40
0.4173804006
 40
0.4904017752
 40
0.5616851634
 40
0.6302791514
 40
0.695363507
 40
0.7563080649
 40
0.8127426235
 40
0.8392667673
 40
0.8646885934
 40
0.9124613334
 40
0.9351048557
 40
0.9571093337
 40
0.9786687718
 40
1.0
 40
1.0
 40
1.0
 40
1.0
 10
35.5086285122
 20
35.9183044407
 30
0.0
 10
35.5086285122
 20
36.3829419978
 30
0.0
 10
35.4456751998
 20
37.3423376291
 30
0.0
 10
35.186663017
 20
38.7990446876
 30
0.0
 10
34.7655247134
 20
40.2916990801
 30
0.0
 10
34.1913201425
 20
41.7883779524
 30
0.0
 10
33.4762251271
 20
43.2573643175
 30
0.0
 10
32.6355173892
 20
44.6673176346
 30
0.0
 10
31.6871208053
 20
45.9881528564
 30
0.0
 10
30.651244024
 20
47.1917212567
 30
0.0
 10
29.549883131
 20
48.252426193
 30
0.0
 10
28.4061432954
 20
49.147822994
 30
0.0
 10
27.2440251638
 20
49.8588131502
 30
0.0
 10
26.2598245258
 20
50.2938092722
 30
0.0
 10
25.4867553064
 20
50.5296046838
 30
0.0
 10
24.7598309572
 20
50.6849061724
 30
0.0
 10
24.0420273131
 20
50.7375941782
 30
0.0
 10
23.3553670584
 20
50.6731069787
 30
0.0
 10
22.8718492088
 20
50.5700263439
 30
0.0
 10
22.4138891709
 20
50.411669784
 30
0.0
 10
22.1266280136
 20
50.2695391482
 30
0.0
 10
21.9890271205
 20
50.1900956287
 30
0.0
  0
SPLINE
  5
2A5
100
AcDbEntity
  8
0
100
AcDbSpline
 62
7
  6
BYLAYER
 70
0
 71
3
 72
15
 73
11
 74
0
 42
0.0000001
 43
0.0000001
 44
0.0000000001
 40
0.0
 40
0.0
 40
0.0
 40
0.0
 40
0.148525705
 40
0.2895006365
 40
0.4227411389
 40
0.5486444378
 40
0.6679950214
 40
0.7819390827
 40
0.8919879708
 40
1.0
 40
1.0
 40
1.0
 40
1.0
 10
32.5034110027
 20
22.4792713305
 30
0.0
 10
32.5034110027
 20
22.380346849
 30
0.0
 10
32.4953980364
 20
22.1873968002
 30
0.0
 10
32.4574670229
 20
21.9079524725
 30
0.0
 10
32.3939902159
 20
21.648560497
 30
0.0
 10
32.3055871817
 20
21.4117823555
 30
0.0
 10
32.1928436061
 20
21.1999108352
 30
0.0
 10
32.0567614351
 20
21.0150066231
 30
0.0
 10
31.8984540892
 20
20.8592660378
 30
0.0
 10
31.7786848105
 20
20.7756605286
 30
0.0
 10
31.7163822974
 20
20.7396903706
 30
0.0
  0
SPLINE
  5
2A6
100
AcDbEntity
  8
0
100
AcDbSpline
 62
7
  6
BYLAYER
 70
0
 71
3
 72
11
 73
7
 74
0
 42
0.0000001
 43
0.0000001
 44
0.0000000001
 40
0.0
 40
0.0
 40
0.0
 40
0.0
 40
0.2895391946
 40
0.5491157945
 40
0.7822541179
 40
1.0
 40
1.0
 40
1.0
 40
1.0
 10
35.9788553018
 20
27.2368459408
 30
0.0
 10
36.0007819307
 20
27.2241868821
 30
0.0
 10
36.0444374598
 20
27.2034468526
 30
0.0
 10
36.1115095526
 20
27.187212319
 30
0.0
 10
36.1744752582
 20
27.1887940464
 30
0.0
 10
36.2123505018
 20
27.2025877501
 30
0.0
 10
36.2288401943
 20
27.2121080296
 30
0.0
  0
SPLINE
  5
2A7
100
AcDbEntity
  8
0
100
AcDbSpline
 62
7
  6
BYLAYER
 70
0
 71
3
 72
15
 73
11
 74
0
 42
0.0000001
 43
0.0000001
 44
0.0000000001
 40
0.0
 40
0.0
 40
0.0
 40
0.0
 40
0.148525705
 40
0.2895006365
 40
0.4227411389
 40
0.5486444378
 40
0.6679950214
 40
0.7819390827
 40
0.8919879708
 40
1.0
 40
1.0
 40
1.0
 40
1.0
 10
38.1001844773
 20
27.0735768195
 30
0.0
 10
38.1001844773
 20
26.974652338
 30
0.0
 10
38.0921715109
 20
26.7817022892
 30
0.0
 10
38.0542404974
 20
26.5022579615
 30
0.0
 10
37.9907636905
 20
26.242865986
 30
0.0
 10
37.9023606562
 20
26.0060878445
 30
0.0
 10
37.7896170807
 20
25.7942163242
 30
0.0
 10
37.6535349096
 20
25.609312112
 30
0.0
 10
37.4952275638
 20
25.4535715267
 30
0.0
 10
37.3754582851
 20
25.3699660176
 30
0.0
 10
37.313155772
 20
25.3339958596
 30
0.0
  0
SPLINE
  5
2A8
100
AcDbEntity
  8
0
100
AcDbSpline
 62
7
  6
BYLAYER
 70
0
 71
3
 72
9
 73
5
 74
0
 42
0.0000001
 43
0.0000001
 44
0.0000000001
 40
0.0
 40
0.0
 40
0.0
 40
0.0
 40
0.5056424412
 40
1.0
 40
1.0
 40
1.0
 40
1.0
 10
31.8545620382
 20
30.3229119486
 30
0.0
 10
32.0908814694
 20
30.3609077442
 30
0.0
 10
32.5529694143
 20
30.4758922013
 30
0.0
 10
32.9863109867
 20
30.6741003076
 30
0.0
 10
33.1889720607
 20
30.791106154
 30
0.0
  0
SPLINE
  5
2A9
100
AcDbEntity
  8
0
100
AcDbSpline
 62
7
  6
BYLAYER
 70
0
 71
3
 72
9
 73
5
 74
0
 42
0.0000001
 43
0.0000001
 44
0.0000000001
 40
0.0
 40
0.0
 40
0.0
 40
0.0
 40
0.4938591522
 40
1.0
 40
1.0
 40
1.0
 40
1.0
 10
21.9890271205
 20
50.1900956287
 30
0.0
 10
21.7771162557
 20
50.0677494396
 30
0.0
 10
21.3716736199
 20
49.7767213156
 30
0.0
 10
21.0299615846
 20
49.4135502559
 30
0.0
 10
20.8747218915
 20
49.2165972053
 30
0.0
  0
SPLINE
  5
2AA
100
AcDbEntity
  8
0
100
AcDbSpline
 62
7
  6
BYLAYER
 70
0
 71
3
 72
11
 73
7
 74
0
 42
0.0000001
 43
0.0000001
 44
0.0000000001
 40
0.0
 40
0.0
 40
0.0
 40
0.0
 40
0.2200625142
 40
0.4576836033
 40
0.7171949095
 40
1.0
 40
1.0
 40
1.0
 40
1.0
 10
41.8466898966
 20
28.0131635774
 30
0.0
 10
41.9289507402
 20
28.099446886
 30
0.0
 10
42.0767694845
 20
28.3020236903
 30
0.0
 10
42.2315518643
 20
28.6611479663
 30
0.0
 10
42.3240329063
 20
29.0754976485
 30
0.0
 10
42.3428075006
 20
29.3698400755
 30
0.0
 10
42.3428075006
 20
29.5230417427
 30
0.0
  0
SPLINE
  5
2AB
100
AcDbEntity
  8
0
100
AcDbSpline
 62
7
  6
BYLAYER
 70
0
 71
3
 72
15
 73
11
 74
0
 42
0.0000001
 43
0.0000001
 44
0.0000000001
 40
0.0
 40
0.0
 40
0.0
 40
0.0
 40
0.1080125436
 40
0.2180618663
 40
0.332006219
 40
0.451356913
 40
0.5772601256
 40
0.7105003496
 40
0.8514748396
 40
1.0
 40
1.0
 40
1.0
 40
1.0
 10
31.5226653952
 20
28.9008229104
 30
0.0
 10
31.5849665357
 20
28.936792276
 30
0.0
 10
31.7172528701
 20
28.9987109237
 30
0.0
 10
31.9312768539
 20
29.0579375128
 30
0.0
 10
32.1594440104
 20
29.08333617
 30
0.0
 10
32.3992957271
 20
29.0750407787
 30
0.0
 10
32.6485465746
 20
29.0332139458
 30
0.0
 10
32.9049182498
 20
28.9584947867
 30
0.0
 10
33.1658828405
 20
28.8516274096
 30
0.0
 10
33.3369846564
 20
28.7620961634
 30
0.0
 10
33.4226536454
 20
28.7126362684
 30
0.0
  0
SPLINE
  5
2AC
100
AcDbEntity
  8
0
100
AcDbSpline
 62
7
  6
BYLAYER
 70
0
 71
3
 72
11
 73
7
 74
0
 42
0.0000001
 43
0.0000001
 44
0.0000000001
 40
0.0
 40
0.0
 40
0.0
 40
0.0
 40
0.2895391946
 40
0.5491157945
 40
0.7822541179
 40
1.0
 40
1.0
 40
1.0
 40
1.0
 10
30.3820818273
 20
22.0580966164
 30
0.0
 10
30.4040084562
 20
22.0454375577
 30
0.0
 10
30.4476639853
 20
22.0246975282
 30
0.0
 10
30.5147360781
 20
22.0084629946
 30
0.0
 10
30.5777017837
 20
22.010044722
 30
0.0
 10
30.6155770272
 20
22.0238384257
 30
0.0
 10
30.6320667197
 20
22.0333587052
 30
0.0
  0
ENDSEC
  0
SECTION
  2
OBJECTS
  0
DICTIONARY
  5
C
100
AcDbDictionary
280
0
281
1
  3
ACAD_GROUP
350
D
  3
ACAD_MLINESTYLE
350
17
  3
ACAD_LAYOUT
350
1A
  3
ACAD_PLOTSETTINGS
350
19
  3
ACAD_PLOTSTYLENAME
350
E
  0
DICTIONARY
  5
D
102
{ACAD_REACTORS
330
C
102
}
100
AcDbDictionary
280
0
281
1
  0
ACDBDICTIONARYWDFLT
  5
E
102
{ACAD_REACTORS
330
C
102
}
100
AcDbDictionary
281
1
  3
Normal
350
F
100
AcDbDictionaryWithDefault
340
F
  0
DICTIONARY
  5
17
102
{ACAD_REACTORS
330
C
102
}
100
AcDbDictionary
280
0
281
1
  3
Standard
350
18
  0
DICTIONARY
  5
19
102
{ACAD_REACTORS
330
C
102
}
100
AcDbDictionary
281
1
  0
DICTIONARY
  5
1A
102
{ACAD_REACTORS
330
C
102
}
100
AcDbDictionary
281
1
  3
Model
350
2AD
  3
Layout1
350
2AE
  0
ACDBPLACEHOLDER
  5
F
102
{ACAD_REACTORS
330
E
102
}
  0
MLINESTYLE
  5
18
102
{ACAD_REACTORS
330
17
102
}
100
AcDbMlineStyle
  2
STANDARD
 70
0
  3

 62
256
 51
90.0
 52
90.0
 71
2
 49
0.5
 62
256
  6
BYLAYER
 49
-0.5
 62
256
  6
BYLAYER
  0
LAYOUT
  5
2AD
102
{ACAD_REACTORS
330
1A
102
}
100
AcDbPlotSettings
  1

  2
none_device
  4

  6

 40
0.0
 41
0.0
 42
0.0
 43
0.0
 44
210.0
 45
297.0
 46
0.0
 47
0.0
 48
0.0
 49
0.0
140
0.0
141
0.0
142
1.0
143
1.0
 70
1024
 72
1
 73
0
 74
0
  7

 75
0
147
1.0
148
0.0
149
0.0
100
AcDbLayout
  1
Model
 70
0
 71
0
 10
0.0
 20
0.0
 11
210.0
 21
297.0
 12
0.0
 22
0.0
 32
0.0
 14
0.0
 24
0.0
 34
0.0
 15
0.0
 25
0.0
 35
0.0
146
0.0
 13
0.0
 23
0.0
 33
0.0
 16
1.0
 26
0.0
 36
0.0
 17
0.0
 27
1.0
 37
0.0
 76
0
330
210
345
0
346
0
  0
LAYOUT
  5
2AE
102
{ACAD_REACTORS
330
1A
102
}
100
AcDbPlotSettings
  1

  2
none_device
  4

  6

 40
0.0
 41
0.0
 42
0.0
 43
0.0
 44
210.0
 45
297.0
 46
0.0
 47
0.0
 48
0.0
 49
0.0
140
0.0
141
0.0
142
1.0
143
1.0
 70
0
 72
1
 73
0
 74
0
  7

 75
0
147
1.0
148
0.0
149
0.0
100
AcDbLayout
  1
Layout1
 70
0
 71
1
 10
0.0
 20
0.0
 11
210.0
 21
297.0
 12
0.0
 22
0.0
 32
0.0
 14
0.0
 24
0.0
 34
0.0
 15
0.0
 25
0.0
 35
0.0
146
0.0
 13
0.0
 23
0.0
 33
0.0
 16
1.0
 26
0.0
 36
0.0
 17
0.0
 27
1.0
 37
0.0
 76
0
330
211
345
0
346
0
  0
ENDSEC
  0
EOF
