999
DXF file: C:\Users\sesa63760\Dev\_Creo\CAD\MCADID0000487_3D-CAD\drw0001_2.dxf
999
Pro/ENGINEER 2019471 by Parametric Technology Corporation
  0
SECTION
  2
HEADER
  9
$ACADVER
  1
AC1024
  9
$DWGCODEPAGE
  3
ANSI_1252
  9
$EXTMAX
 10
388.1924090244
 20
549.0149784774
 30
0.0
  9
$EXTMIN
 10
0.0
 20
0.0
 30
0.0
  9
$LIMMIN
 10
0.0
 20
0.0
  9
$LIMMAX
 10
388.1924090244
 20
549.0149784774
  9
$VIEWCTR
 10
194.0962045122
 20
274.5074892387
  9
$VIEWSIZE
 40
549.0149784774
  9
$CLAYER
  8
0
  9
$LTSCALE
 40
35.7876430415
  9
$CELTYPE
  6
BYLAYER
  9
$DIMSCALE
 40
1.0
  9
$DIMASZ
 40
4.6213382027
  9
$DIMEXO
 40
1.0
  9
$DIMDLI
 40
24.7260079196
  9
$DIMEXE
 40
1.0
  9
$DIMCEN
 40
5.8561597704
  9
$DIMLFAC
 40
1.0
  9
$DIMBLK
  1
_FILLED
  9
$DIMALT
 70
0
  9
$DIMALTF
 40
0.0393700787
  9
$DIMTXT
 40
6.4698734837
  9
$DIMTOL
 70
1
  9
$DIMLIM
 70
0
  9
$DIMTFAC
 40
1.0
  9
$DIMTP
 40
0.01
  9
$DIMTM
 40
0.01
  9
$DIMGAP
 40
0.625
  9
$DIMDSEP
 70
46
  9
$AUNITS
 70
0
  9
$PDMODE
 70
3
  9
$PDSIZE
 40
0.3125
  9
$HANDSEED
  5
4FC
  9
$TILEMODE
 70
1
  9
$MEASUREMENT
 70
1
  9
$INSUNITS
 70
4
  0
ENDSEC
  0
SECTION
  2
CLASSES
  0
CLASS
  1
ACDBDICTIONARYWDFLT
  2
AcDbDictionaryWithDefault
  3
AutoCAD 2000
 90
0
 91
1
280
0
281
0
  0
CLASS
  1
ACDBPLACEHOLDER
  2
AcDbPlaceHolder
  3
AutoCAD 2000
 90
0
 91
1
280
0
281
0
  0
CLASS
  1
LAYOUT
  2
AcDbLayout
  3
AutoCAD 2000
 90
0
 91
0
280
0
281
0
  0
ENDSEC
  0
SECTION
  2
TABLES
  0
TABLE
  2
VPORT
  5
8
100
AcDbSymbolTable
 70
2
  0
VPORT
  5
1F4
100
AcDbSymbolTableRecord
100
AcDbViewportTableRecord
  2
*ACTIVE
 70
0
 10
0.0
 20
0.0
 11
1.0
 21
1.0
 12
194.0962045122
 22
274.5074892387
 13
0.0
 23
0.0
 14
1.0
 24
1.0
 15
0.0
 25
0.0
 16
0.0
 26
0.0
 36
1.0
 17
0.0
 27
0.0
 37
0.0
 40
549.0149784774
 41
0.7070707071
 42
50.0
 43
0.0
 44
0.0
 50
0.0
 51
0.0
 71
0
 72
100
 73
1
 74
1
 75
0
 76
0
 77
0
 78
0
  0
ENDTAB
  0
TABLE
  2
LTYPE
  5
5
100
AcDbSymbolTable
 70
6
  0
LTYPE
  5
14
100
AcDbSymbolTableRecord
100
AcDbLinetypeTableRecord
  2
BYBLOCK
 70
0
  3

 72
65
 73
0
 40
0.0
  0
LTYPE
  5
15
100
AcDbSymbolTableRecord
100
AcDbLinetypeTableRecord
  2
BYLAYER
 70
0
  3

 72
65
 73
0
 40
0.0
  0
LTYPE
  5
16
100
AcDbSymbolTableRecord
100
AcDbLinetypeTableRecord
  2
CONTINUOUS
 70
64
  3
Solid line
 72
65
 73
0
 40
0.0
  0
LTYPE
  5
1F5
100
AcDbSymbolTableRecord
100
AcDbLinetypeTableRecord
  2
CENTER
 70
64
  3
____ _ ____ _ ____ _ ____ _ ____ _ ____ _ ____
 72
65
 73
4
 40
0.6
 49
0.375
 74
0
 49
-0.075
 74
0
 49
0.075
 74
0
 49
-0.075
 74
0
  0
LTYPE
  5
1F6
100
AcDbSymbolTableRecord
100
AcDbLinetypeTableRecord
  2
HIDDEN
 70
64
  3
- - - - - - - - - - - - - - - - - - - -
 72
65
 73
2
 40
0.2
 49
0.1
 74
0
 49
-0.1
 74
0
  0
LTYPE
  5
1F7
100
AcDbSymbolTableRecord
100
AcDbLinetypeTableRecord
  2
PHANTOM
 70
64
  3
_____ _ _ _____ _ _ _____ _ _ _____
 72
65
 73
6
 40
0.8
 49
0.45
 74
0
 49
-0.05
 74
0
 49
0.1
 74
0
 49
-0.05
 74
0
 49
0.1
 74
0
 49
-0.05
 74
0
  0
LTYPE
  5
1F8
100
AcDbSymbolTableRecord
100
AcDbLinetypeTableRecord
  2
DOT
 70
64
  3
. . . . . . . . . . . . . . . . . . . .
 72
65
 73
2
 40
0.2
 49
0.1
 74
0
 49
-0.1
 74
0
  0
LTYPE
  5
1F9
100
AcDbSymbolTableRecord
100
AcDbLinetypeTableRecord
  2
DASHED
 70
64
  3
- - - - - - - - - - - - - - - - - - - -
 72
65
 73
2
 40
0.2
 49
0.1
 74
0
 49
-0.1
 74
0
  0
ENDTAB
  0
TABLE
  2
LAYER
  5
2
100
AcDbSymbolTable
 70
36
  0
LAYER
  5
10
100
AcDbSymbolTableRecord
100
AcDbLayerTableRecord
  2
0
 70
0
 62
7
  6
CONTINUOUS
370
-3
390
F
  0
LAYER
  5
1FA
100
AcDbSymbolTableRecord
100
AcDbLayerTableRecord
  2
DEFAULT_1
 70
0
 62
7
  6
CENTER
370
-3
390
F
  0
LAYER
  5
1FB
100
AcDbSymbolTableRecord
100
AcDbLayerTableRecord
  2
DEFAULT_2
 70
0
 62
8
  6
HIDDEN
370
-3
390
F
  0
LAYER
  5
1FC
100
AcDbSymbolTableRecord
100
AcDbLayerTableRecord
  2
DEFAULT_3
 70
0
 62
7
  6
PHANTOM
370
-3
390
F
  0
LAYER
  5
1FD
100
AcDbSymbolTableRecord
100
AcDbLayerTableRecord
  2
00_COMPONENTS
 70
0
 62
7
  6
CONTINUOUS
370
-3
390
F
  0
LAYER
  5
1FE
100
AcDbSymbolTableRecord
100
AcDbLayerTableRecord
  2
01_1_DEFAULT_DATUMS
 70
0
 62
7
  6
CONTINUOUS
370
-3
390
F
  0
LAYER
  5
1FF
100
AcDbSymbolTableRecord
100
AcDbLayerTableRecord
  2
01_PLANES
 70
0
 62
7
  6
CONTINUOUS
370
-3
390
F
  0
LAYER
  5
200
100
AcDbSymbolTableRecord
100
AcDbLayerTableRecord
  2
02_COORD_SYS
 70
0
 62
7
  6
CONTINUOUS
370
-3
390
F
  0
LAYER
  5
201
100
AcDbSymbolTableRecord
100
AcDbLayerTableRecord
  2
03_AXES
 70
0
 62
7
  6
CONTINUOUS
370
-3
390
F
  0
LAYER
  5
202
100
AcDbSymbolTableRecord
100
AcDbLayerTableRecord
  2
04_POINTS
 70
0
 62
7
  6
CONTINUOUS
370
-3
390
F
  0
LAYER
  5
203
100
AcDbSymbolTableRecord
100
AcDbLayerTableRecord
  2
05_CURVES
 70
0
 62
7
  6
CONTINUOUS
370
-3
390
F
  0
LAYER
  5
204
100
AcDbSymbolTableRecord
100
AcDbLayerTableRecord
  2
06_SURFS
 70
0
 62
7
  6
CONTINUOUS
370
-3
390
F
  0
LAYER
  5
205
100
AcDbSymbolTableRecord
100
AcDbLayerTableRecord
  2
07_COSMETICS
 70
0
 62
7
  6
CONTINUOUS
370
-3
390
F
  0
LAYER
  5
206
100
AcDbSymbolTableRecord
100
AcDbLayerTableRecord
  2
10_NOTES
 70
0
 62
7
  6
CONTINUOUS
370
-3
390
F
  0
LAYER
  5
207
100
AcDbSymbolTableRecord
100
AcDbLayerTableRecord
  2
11_NOTES_PUB
 70
0
 62
7
  6
CONTINUOUS
370
-3
390
F
  0
LAYER
  5
208
100
AcDbSymbolTableRecord
100
AcDbLayerTableRecord
  2
13_REF_GTOL
 70
0
 62
7
  6
CONTINUOUS
370
-3
390
F
  0
LAYER
  5
209
100
AcDbSymbolTableRecord
100
AcDbLayerTableRecord
  2
16_MISC
 70
0
 62
7
  6
CONTINUOUS
370
-3
390
F
  0
LAYER
  5
20A
100
AcDbSymbolTableRecord
100
AcDbLayerTableRecord
  2
17_NO_PRINT
 70
0
 62
7
  6
CONTINUOUS
370
-3
390
F
  0
LAYER
  5
20B
100
AcDbSymbolTableRecord
100
AcDbLayerTableRecord
  2
18_DATUM_CAMS_JOINTS
 70
0
 62
7
  6
CONTINUOUS
370
-3
390
F
  0
LAYER
  5
20C
100
AcDbSymbolTableRecord
100
AcDbLayerTableRecord
  2
19_DATUM_FUNCTIONAL
 70
0
 62
7
  6
CONTINUOUS
370
-3
390
F
  0
LAYER
  5
20D
100
AcDbSymbolTableRecord
100
AcDbLayerTableRecord
  2
20_DATUM_KINEMATIC_SCHEME
 70
0
 62
7
  6
CONTINUOUS
370
-3
390
F
  0
ENDTAB
  0
TABLE
  2
STYLE
  5
3
100
AcDbSymbolTable
 70
1
  0
STYLE
  5
11
100
AcDbSymbolTableRecord
100
AcDbTextStyleTableRecord
  2
STANDARD
 70
0
 40
0.0
 41
0.8
 50
0.0
 71
0
 42
0.2
  3
txt
  4

  0
STYLE
  5
20E
100
AcDbSymbolTableRecord
100
AcDbTextStyleTableRecord
  2
TEXTSTYLE_1
 70
0
 40
0.0
 41
0.8
 50
0.0
 71
0
 42
0.2
  3
gdt
  4

  0
ENDTAB
  0
TABLE
  2
VIEW
  5
6
100
AcDbSymbolTable
 70
0
  0
ENDTAB
  0
TABLE
  2
UCS
  5
7
100
AcDbSymbolTable
 70
0
  0
ENDTAB
  0
TABLE
  2
APPID
  5
9
100
AcDbSymbolTable
 70
1
  0
APPID
  5
20F
100
AcDbSymbolTableRecord
100
AcDbRegAppTableRecord
  2
ACAD
 70
0
  0
ENDTAB
  0
TABLE
  2
BLOCK_RECORD
  5
1
100
AcDbSymbolTable
 70
0
  0
BLOCK_RECORD
  5
210
100
AcDbSymbolTableRecord
100
AcDbBlockTableRecord
  2
*Model_Space
  0
BLOCK_RECORD
  5
211
100
AcDbSymbolTableRecord
100
AcDbBlockTableRecord
  2
*Paper_Space
  0
BLOCK_RECORD
  5
212
100
AcDbSymbolTableRecord
100
AcDbBlockTableRecord
  2
_FILLED
  0
ENDTAB
  0
TABLE
  2
DIMSTYLE
  5
A
100
AcDbSymbolTable
 70
1
100
AcDbDimStyleTable
 71
0
  0
DIMSTYLE
105
213
100
AcDbSymbolTableRecord
100
AcDbDimStyleTableRecord
  2
STANDARD
 70
0
  3

  4

 40
1.0
 41
4.6213382027
 42
1.0
 43
0.38
 44
1.0
 45
0.0
 46
0.0
 47
0.01
 48
0.01
140
6.4698734837
141
0.09
142
0.0
143
25.4
144
1.0
145
0.0
146
1.0
147
0.625
 71
1
 72
0
 73
0
 74
0
 75
0
 76
0
 77
1
 78
8
 79
2
170
0
171
1
172
0
173
0
174
0
175
0
176
0
177
0
178
0
270
2
179
2
271
2
272
2
273
2
274
2
275
0
280
0
281
0
282
0
283
1
284
8
285
0
286
0
287
3
288
0
340
11
278
46
341
212
342
212
343
212
344
212
  0
ENDTAB
  0
ENDSEC
  0
SECTION
  2
BLOCKS
  0
BLOCK
  5
20
100
AcDbEntity
  8
0
100
AcDbBlockBegin
  2
*Model_Space
 70
0
 10
0.0
 20
0.0
 30
0.0
  3
*Model_Space
  1

  0
ENDBLK
  5
21
100
AcDbEntity
  8
0
100
AcDbBlockEnd
  0
BLOCK
  5
1C
100
AcDbEntity
  8
0
100
AcDbBlockBegin
  2
*Paper_Space
 70
0
 10
0.0
 20
0.0
 30
0.0
  3
*Paper_Space
  1

  0
ENDBLK
  5
1D
100
AcDbEntity
  8
0
100
AcDbBlockEnd
  0
BLOCK
  5
214
100
AcDbEntity
  8
0
100
AcDbBlockBegin
  2
_FILLED
 70
64
 10
0.0
 20
0.0
  3
_FILLED
  1

  0
SOLID
  5
215
100
AcDbEntity
  8
0
  6
BYBLOCK
 62
0
100
AcDbTrace
 10
0.0
 20
0.0
 11
-1.0
 21
0.25
 12
-1.0
 22
-0.25
 13
-1.0
 23
-0.25
  0
ENDBLK
  5
216
100
AcDbEntity
  8
0
  6
BYBLOCK
 62
0
100
AcDbBlockEnd
  0
ENDSEC
  0
SECTION
  2
ENTITIES
  0
LINE
  5
217
100
AcDbEntity
  8
0
100
AcDbLine
 62
7
  6
CONTINUOUS
 10
42.5626945408
 20
381.2739715496
 11
42.5626945544
 21
165.7248668746
  0
LINE
  5
218
100
AcDbEntity
  8
0
100
AcDbLine
 62
7
  6
CONTINUOUS
 10
44.0900651546
 20
381.749505806
 11
44.0900652324
 21
165.249492227
  0
LINE
  5
219
100
AcDbEntity
  8
0
100
AcDbLine
 62
7
  6
CONTINUOUS
 10
44.2741923903
 20
381.7499122034
 11
44.2741924679
 21
165.2490826738
  0
LINE
  5
21A
100
AcDbEntity
  8
0
100
AcDbLine
 62
7
  6
CONTINUOUS
 10
44.7722896567
 20
168.149505801
 11
44.7722896564
 21
378.849505803
  0
LINE
  5
21B
100
AcDbEntity
  8
0
100
AcDbLine
 62
7
  6
CONTINUOUS
 10
46.9105787646
 20
378.849505803
 11
46.9105787646
 21
168.149505801
  0
LINE
  5
21C
100
AcDbEntity
  8
0
100
AcDbLine
 62
7
  6
CONTINUOUS
 10
47.4167294583
 20
378.849505803
 11
47.4167294583
 21
168.149505801
  0
LINE
  5
21D
100
AcDbEntity
  8
0
100
AcDbLine
 62
7
  6
CONTINUOUS
 10
47.7167180347
 20
168.1495058008
 11
47.7167180344
 21
378.8495058014
  0
LINE
  5
21E
100
AcDbEntity
  8
0
100
AcDbLine
 62
7
  6
CONTINUOUS
 10
49.5341603466
 20
387.0094737432
 11
49.5341603466
 21
387.1936011169
  0
LINE
  5
21F
100
AcDbEntity
  8
0
100
AcDbLine
 62
7
  6
CONTINUOUS
 10
49.5341474466
 20
159.9895378607
 11
49.5341469866
 21
159.8054104872
  0
LINE
  5
220
100
AcDbEntity
  8
0
100
AcDbLine
 62
7
  6
CONTINUOUS
 10
49.6841603466
 20
168.9235820579
 11
49.6841603466
 21
378.0755412913
  0
LINE
  5
221
100
AcDbEntity
  8
0
100
AcDbLine
 62
7
  6
CONTINUOUS
 10
50.6219801556
 20
377.3682399362
 11
50.6219801556
 21
372.1974452628
  0
LINE
  5
222
100
AcDbEntity
  8
0
100
AcDbLine
 62
7
  6
CONTINUOUS
 10
50.6219801556
 20
169.630771649
 11
50.6219801556
 21
174.8015663489
  0
LINE
  5
223
100
AcDbEntity
  8
0
100
AcDbLine
 62
7
  6
CONTINUOUS
 10
50.9345867587
 20
174.9243610895
 11
50.9345867587
 21
372.0746505001
  0
LINE
  5
224
100
AcDbEntity
  8
0
100
AcDbLine
 62
7
  6
CONTINUOUS
 10
52.4341603456
 20
159.989537763
 11
52.4341603456
 21
160.487635112
  0
LINE
  5
225
100
AcDbEntity
  8
0
100
AcDbLine
 62
7
  6
CONTINUOUS
 10
52.4341603456
 20
162.62592422
 11
52.4341603456
 21
163.1259051816
  0
LINE
  5
226
100
AcDbEntity
  8
0
100
AcDbLine
 62
7
  6
CONTINUOUS
 10
52.4341603456
 20
163.1320749131
 11
52.4341603456
 21
163.43206349
  0
LINE
  5
227
100
AcDbEntity
  8
0
100
AcDbLine
 62
7
  6
CONTINUOUS
 10
52.4341603456
 20
383.5669481138
 11
52.4341603456
 21
383.8669366908
  0
LINE
  5
228
100
AcDbEntity
  8
0
100
AcDbLine
 62
7
  6
CONTINUOUS
 10
52.4341603456
 20
383.8731064223
 11
52.4341603456
 21
384.3730873838
  0
LINE
  5
229
100
AcDbEntity
  8
0
100
AcDbLine
 62
7
  6
CONTINUOUS
 10
52.4341603456
 20
386.5113764918
 11
52.4341603456
 21
387.0094738409
  0
LINE
  5
22A
100
AcDbEntity
  8
0
100
AcDbLine
 62
7
  6
CONTINUOUS
 10
55.0341603468
 20
174.8015663426
 11
55.0341603584
 21
174.9243610837
  0
LINE
  5
22B
100
AcDbEntity
  8
0
100
AcDbLine
 62
7
  6
CONTINUOUS
 10
55.0341603584
 20
372.0746505105
 11
55.0341603448
 21
372.197445274
  0
LINE
  5
22C
100
AcDbEntity
  8
0
100
AcDbLine
 62
7
  6
CONTINUOUS
 10
58.7841603466
 20
381.3868107937
 11
58.7841603466
 21
380.8457765478
  0
LINE
  5
22D
100
AcDbEntity
  8
0
100
AcDbLine
 62
7
  6
CONTINUOUS
 10
59.0862208955
 20
380.6616859925
 11
59.0862208821
 21
376.2495057982
  0
LINE
  5
22E
100
AcDbEntity
  8
0
100
AcDbLine
 62
7
  6
CONTINUOUS
 10
59.0862208924
 20
166.337325611
 11
59.0862208848
 21
170.749926388
  0
LINE
  5
22F
100
AcDbEntity
  8
0
100
AcDbLine
 62
7
  6
CONTINUOUS
 10
59.1841603466
 20
380.939894005
 11
59.1841603466
 21
381.049502119
  0
LINE
  5
230
100
AcDbEntity
  8
0
100
AcDbLine
 62
7
  6
CONTINUOUS
 10
59.2090156448
 20
380.34907939
 11
59.2090156324
 21
376.2490371304
  0
LINE
  5
231
100
AcDbEntity
  8
0
100
AcDbLine
 62
7
  6
CONTINUOUS
 10
59.209015635
 20
166.6499322146
 11
59.2090156279
 21
170.7495058222
  0
LINE
  5
232
100
AcDbEntity
  8
0
100
AcDbLine
 62
7
  6
CONTINUOUS
 10
62.7841603466
 20
166.1532350559
 11
62.7841603466
 21
165.767686912
  0
LINE
  5
233
100
AcDbEntity
  8
0
100
AcDbLine
 62
7
  6
CONTINUOUS
 10
63.4841603456
 20
380.7311541266
 11
63.4841603456
 21
378.449505802
  0
LINE
  5
234
100
AcDbEntity
  8
0
100
AcDbLine
 62
7
  6
CONTINUOUS
 10
63.4841603456
 20
166.2678574775
 11
63.4841603456
 21
168.549505797
  0
LINE
  5
235
100
AcDbEntity
  8
0
100
AcDbLine
 62
7
  6
CONTINUOUS
 10
64.7841603466
 20
380.8457765476
 11
64.7841603466
 21
380.7311541265
  0
LINE
  5
236
100
AcDbEntity
  8
0
100
AcDbLine
 62
7
  6
CONTINUOUS
 10
64.7841603466
 20
166.2678574776
 11
64.7841603466
 21
166.1532350565
  0
LINE
  5
237
100
AcDbEntity
  8
0
100
AcDbLine
 62
7
  6
CONTINUOUS
 10
68.7841603466
 20
166.1532350565
 11
68.7841603466
 21
166.2678574776
  0
LINE
  5
238
100
AcDbEntity
  8
0
100
AcDbLine
 62
7
  6
CONTINUOUS
 10
68.7841603466
 20
380.7311541265
 11
68.7841603466
 21
380.8457765476
  0
LINE
  5
239
100
AcDbEntity
  8
0
100
AcDbLine
 62
7
  6
CONTINUOUS
 10
70.0841603466
 20
166.2678574775
 11
70.0841603466
 21
168.549505802
  0
LINE
  5
23A
100
AcDbEntity
  8
0
100
AcDbLine
 62
7
  6
CONTINUOUS
 10
70.0841603466
 20
378.4495058015
 11
70.0841603466
 21
380.7311541266
  0
LINE
  5
23B
100
AcDbEntity
  8
0
100
AcDbLine
 62
7
  6
CONTINUOUS
 10
82.270691493
 20
353.699505802
 11
80.2841603466
 21
351.7129746556
  0
LINE
  5
23C
100
AcDbEntity
  8
0
100
AcDbLine
 62
7
  6
CONTINUOUS
 10
70.7841603466
 20
380.8457765476
 11
70.7841603466
 21
381.2313246915
  0
LINE
  5
23D
100
AcDbEntity
  8
0
100
AcDbLine
 62
7
  6
CONTINUOUS
 10
74.3054953286
 20
372.215137183
 11
74.3054953286
 21
171.0838743316
  0
LINE
  5
23E
100
AcDbEntity
  8
0
100
AcDbLine
 62
7
  6
CONTINUOUS
 10
74.3841603466
 20
165.949505802
 11
74.3841603466
 21
166.059117599
  0
LINE
  5
23F
100
AcDbEntity
  8
0
100
AcDbLine
 62
7
  6
CONTINUOUS
 10
74.7841603466
 20
165.6122008099
 11
74.7841603466
 21
166.1532350558
  0
LINE
  5
240
100
AcDbEntity
  8
0
100
AcDbLine
 62
7
  6
CONTINUOUS
 10
75.5687676506
 20
358.3338744396
 11
75.5687676506
 21
184.2870876877
  0
LINE
  5
241
100
AcDbEntity
  8
0
100
AcDbLine
 62
7
  6
CONTINUOUS
 10
80.2841603466
 20
351.7129746556
 11
80.2841603466
 21
340.6802215963
  0
LINE
  5
242
100
AcDbEntity
  8
0
100
AcDbLine
 62
7
  6
CONTINUOUS
 10
80.7841603466
 20
214.6744272545
 11
80.7841603466
 21
191.4131788844
  0
LINE
  5
243
100
AcDbEntity
  8
0
100
AcDbLine
 62
7
  6
CONTINUOUS
 10
81.0841603466
 20
191.4506998972
 11
81.0841603466
 21
214.4489987266
  0
LINE
  5
244
100
AcDbEntity
  8
0
100
AcDbLine
 62
7
  6
CONTINUOUS
 10
50.0095214706
 20
158.278040003
 11
343.5586261456
 21
158.278040003
  0
LINE
  5
245
100
AcDbEntity
  8
0
100
AcDbLine
 62
7
  6
CONTINUOUS
 10
114.702121363
 20
173.5910403042
 11
114.939327862
 21
173.5001990712
  0
LINE
  5
246
100
AcDbEntity
  8
0
100
AcDbLine
 62
7
  6
CONTINUOUS
 10
74.3054953286
 20
372.215137183
 11
75.5687676506
 21
358.3338744396
  0
LINE
  5
247
100
AcDbEntity
  8
0
100
AcDbLine
 62
7
  6
CONTINUOUS
 10
74.3054953286
 20
171.0838743316
 11
75.5687676506
 21
184.2870877143
  0
LINE
  5
248
100
AcDbEntity
  8
0
100
AcDbLine
 62
7
  6
CONTINUOUS
 10
303.2224999293
 20
166.4762618791
 11
298.6236966718
 21
166.1995906866
  0
LINE
  5
249
100
AcDbEntity
  8
0
100
AcDbLine
 62
7
  6
CONTINUOUS
 10
49.5341469866
 20
159.8054104872
 11
344.0341603469
 21
159.8054104874
  0
LINE
  5
24A
100
AcDbEntity
  8
0
100
AcDbLine
 62
7
  6
CONTINUOUS
 10
49.5334937888
 20
159.98953786
 11
344.0348090668
 21
159.989537861
  0
LINE
  5
24B
100
AcDbEntity
  8
0
100
AcDbLine
 62
7
  6
CONTINUOUS
 10
341.1341603466
 20
160.487635112
 11
52.4341603456
 21
160.487635112
  0
LINE
  5
24C
100
AcDbEntity
  8
0
100
AcDbLine
 62
7
  6
CONTINUOUS
 10
52.4341603456
 20
162.62592422
 11
341.1341603466
 21
162.62592422
  0
LINE
  5
24D
100
AcDbEntity
  8
0
100
AcDbLine
 62
7
  6
CONTINUOUS
 10
341.1341603466
 20
163.1320749134
 11
52.4341603456
 21
163.1320749137
  0
LINE
  5
24E
100
AcDbEntity
  8
0
100
AcDbLine
 62
7
  6
CONTINUOUS
 10
341.1341603485
 20
163.43206349
 11
52.4341603463
 21
163.43206349
  0
LINE
  5
24F
100
AcDbEntity
  8
0
100
AcDbLine
 62
7
  6
CONTINUOUS
 10
349.2941282877
 20
165.249505791
 11
349.4782556615
 21
165.249505798
  0
LINE
  5
250
100
AcDbEntity
  8
0
100
AcDbLine
 62
7
  6
CONTINUOUS
 10
44.2741924684
 20
165.249492774
 11
44.0900652324
 21
165.249492227
  0
LINE
  5
251
100
AcDbEntity
  8
0
100
AcDbLine
 62
7
  6
CONTINUOUS
 10
340.3600865478
 20
165.399505802
 11
53.2081835399
 21
165.399505802
  0
LINE
  5
252
100
AcDbEntity
  8
0
100
AcDbLine
 62
7
  6
CONTINUOUS
 10
66.7841603466
 20
165.449505802
 11
73.8841603466
 21
165.449505802
  0
LINE
  5
253
100
AcDbEntity
  8
0
100
AcDbLine
 62
7
  6
CONTINUOUS
 10
326.7841603466
 20
165.449505802
 11
333.8841566628
 21
165.449505802
  0
LINE
  5
254
100
AcDbEntity
  8
0
100
AcDbLine
 62
7
  6
CONTINUOUS
 10
74.2301961327
 20
165.6122008101
 11
74.7841603466
 21
165.6122008101
  0
LINE
  5
255
100
AcDbEntity
  8
0
100
AcDbLine
 62
7
  6
CONTINUOUS
 10
334.2301937997
 20
165.6122008101
 11
334.7841603466
 21
165.6122008101
  0
LINE
  5
256
100
AcDbEntity
  8
0
100
AcDbLine
 62
7
  6
CONTINUOUS
 10
325.9506237981
 20
165.7676869122
 11
322.7841603466
 21
165.7676869122
  0
LINE
  5
257
100
AcDbEntity
  8
0
100
AcDbLine
 62
7
  6
CONTINUOUS
 10
65.9506237981
 20
165.7676869122
 11
62.7841603466
 21
165.7676869122
  0
LINE
  5
258
100
AcDbEntity
  8
0
100
AcDbLine
 62
7
  6
CONTINUOUS
 10
74.7841603466
 20
166.153235056
 11
68.7841603466
 21
166.153235056
  0
LINE
  5
259
100
AcDbEntity
  8
0
100
AcDbLine
 62
7
  6
CONTINUOUS
 10
64.7841603466
 20
166.153235056
 11
62.7841603466
 21
166.153235056
  0
LINE
  5
25A
100
AcDbEntity
  8
0
100
AcDbLine
 62
7
  6
CONTINUOUS
 10
322.7841603466
 20
166.153235056
 11
324.7841603466
 21
166.153235056
  0
LINE
  5
25B
100
AcDbEntity
  8
0
100
AcDbLine
 62
7
  6
CONTINUOUS
 10
328.7841603466
 20
166.153235056
 11
334.7841603466
 21
166.153235056
  0
LINE
  5
25C
100
AcDbEntity
  8
0
100
AcDbLine
 62
7
  6
CONTINUOUS
 10
174.9446242952
 20
166.1995906856
 11
298.6236966718
 21
166.1995906866
  0
LINE
  5
25D
100
AcDbEntity
  8
0
100
AcDbLine
 62
7
  6
CONTINUOUS
 10
330.0841603466
 20
166.2678574771
 11
328.7841603466
 21
166.2678574771
  0
LINE
  5
25E
100
AcDbEntity
  8
0
100
AcDbLine
 62
7
  6
CONTINUOUS
 10
324.7841603466
 20
166.2678574771
 11
323.4841603456
 21
166.2678574771
  0
LINE
  5
25F
100
AcDbEntity
  8
0
100
AcDbLine
 62
7
  6
CONTINUOUS
 10
70.0841603466
 20
166.2678574771
 11
68.7841603466
 21
166.2678574771
  0
LINE
  5
260
100
AcDbEntity
  8
0
100
AcDbLine
 62
7
  6
CONTINUOUS
 10
64.7841603466
 20
166.2678574771
 11
63.4841603456
 21
166.2678574771
  0
LINE
  5
261
100
AcDbEntity
  8
0
100
AcDbLine
 62
7
  6
CONTINUOUS
 10
53.9154261906
 20
166.337325611
 11
59.0862208924
 21
166.337325611
  0
LINE
  5
262
100
AcDbEntity
  8
0
100
AcDbLine
 62
7
  6
CONTINUOUS
 10
339.6980964186
 20
166.4762618791
 11
330.0841603466
 21
166.4762618791
  0
LINE
  5
263
100
AcDbEntity
  8
0
100
AcDbLine
 62
7
  6
CONTINUOUS
 10
323.4841603456
 20
166.4762618791
 11
303.2224999293
 21
166.4762618791
  0
LINE
  5
264
100
AcDbEntity
  8
0
100
AcDbLine
 62
7
  6
CONTINUOUS
 10
167.4590880168
 20
166.6499322141
 11
70.0841603466
 21
166.6499322141
  0
LINE
  5
265
100
AcDbEntity
  8
0
100
AcDbLine
 62
7
  6
CONTINUOUS
 10
63.4841603456
 20
166.6499322141
 11
59.2090156348
 21
166.6499322141
  0
LINE
  5
266
100
AcDbEntity
  8
0
100
AcDbLine
 62
7
  6
CONTINUOUS
 10
349.2941283858
 20
168.149505802
 11
348.7960310367
 21
168.149505802
  0
LINE
  5
267
100
AcDbEntity
  8
0
100
AcDbLine
 62
7
  6
CONTINUOUS
 10
346.1515912357
 20
168.149505802
 11
345.8516026587
 21
168.149505802
  0
LINE
  5
268
100
AcDbEntity
  8
0
100
AcDbLine
 62
7
  6
CONTINUOUS
 10
346.6577419287
 20
168.149505802
 11
346.1577609672
 21
168.149505802
  0
LINE
  5
269
100
AcDbEntity
  8
0
100
AcDbLine
 62
7
  6
CONTINUOUS
 10
47.7167180347
 20
168.149505801
 11
47.4167294578
 21
168.149505801
  0
LINE
  5
26A
100
AcDbEntity
  8
0
100
AcDbLine
 62
7
  6
CONTINUOUS
 10
47.4105597263
 20
168.149505801
 11
46.9105787647
 21
168.149505801
  0
LINE
  5
26B
100
AcDbEntity
  8
0
100
AcDbLine
 62
7
  6
CONTINUOUS
 10
44.7722896567
 20
168.149505801
 11
44.2741923077
 21
168.149505801
  0
LINE
  5
26C
100
AcDbEntity
  8
0
100
AcDbLine
 62
7
  6
CONTINUOUS
 10
59.0862208849
 20
170.7495058018
 11
59.2090156279
 21
170.7495058222
  0
LINE
  5
26D
100
AcDbEntity
  8
0
100
AcDbLine
 62
7
  6
CONTINUOUS
 10
74.3054953291
 20
171.0838743618
 11
114.7021214507
 21
171.083874436
  0
LINE
  5
26E
100
AcDbEntity
  8
0
100
AcDbLine
 62
7
  6
CONTINUOUS
 10
145.383399044
 20
171.4995075414
 11
116.793570141
 21
171.4995063727
  0
LINE
  5
26F
100
AcDbEntity
  8
0
100
AcDbLine
 62
7
  6
CONTINUOUS
 10
174.9446242952
 20
166.1995906856
 11
167.4590880168
 21
166.6499322141
  0
LINE
  5
270
100
AcDbEntity
  8
0
100
AcDbLine
 62
7
  6
CONTINUOUS
 10
114.9393280364
 20
202.5249766099
 11
114.7021215374
 21
202.748318884
  0
LINE
  5
271
100
AcDbEntity
  8
0
100
AcDbLine
 62
7
  6
CONTINUOUS
 10
114.7021254236
 20
202.8341242017
 11
113.3891841568
 21
205.834174424
  0
LINE
  5
272
100
AcDbEntity
  8
0
100
AcDbLine
 62
7
  6
CONTINUOUS
 10
114.7021214507
 20
171.083874436
 11
113.3891841568
 21
184.2870877411
  0
LINE
  5
273
100
AcDbEntity
  8
0
100
AcDbLine
 62
7
  6
CONTINUOUS
 10
103.9841603466
 20
315.499505802
 11
103.9841603466
 21
221.499505802
  0
LINE
  5
274
100
AcDbEntity
  8
0
100
AcDbLine
 62
7
  6
CONTINUOUS
 10
104.5841603466
 20
315.899505802
 11
104.5841603466
 21
221.099505802
  0
LINE
  5
275
100
AcDbEntity
  8
0
100
AcDbLine
 62
7
  6
CONTINUOUS
 10
59.0862208925
 20
166.3373256115
 11
59.209015635
 21
166.6499322146
  0
LINE
  5
276
100
AcDbEntity
  8
0
100
AcDbLine
 62
7
  6
CONTINUOUS
 10
55.0345809706
 20
174.8015663426
 11
50.6219801556
 21
174.8015663489
  0
LINE
  5
277
100
AcDbEntity
  8
0
100
AcDbLine
 62
7
  6
CONTINUOUS
 10
55.0341603584
 20
174.9243610837
 11
50.9345867592
 21
174.9243610895
  0
LINE
  5
278
100
AcDbEntity
  8
0
100
AcDbLine
 62
7
  6
CONTINUOUS
 10
143.9907598378
 20
176.6995058013
 11
117.9668731969
 21
176.6995058013
  0
LINE
  5
279
100
AcDbEntity
  8
0
100
AcDbLine
 62
7
  6
CONTINUOUS
 10
143.9765286858
 20
176.999505802
 11
117.9821214778
 21
176.999505802
  0
LINE
  5
27A
100
AcDbEntity
  8
0
100
AcDbLine
 62
7
  6
CONTINUOUS
 10
75.5687676506
 20
184.2870876877
 11
113.3891841569
 21
184.287087741
  0
LINE
  5
27B
100
AcDbEntity
  8
0
100
AcDbLine
 62
7
  6
CONTINUOUS
 10
147.1986214134
 20
173.5023643941
 11
147.386157889
 21
173.5022951913
  0
LINE
  5
27C
100
AcDbEntity
  8
0
100
AcDbLine
 62
7
  6
CONTINUOUS
 10
136.9641603463
 20
201.2995058027
 11
138.9641603463
 21
199.2995058027
  0
LINE
  5
27D
100
AcDbEntity
  8
0
100
AcDbLine
 62
7
  6
CONTINUOUS
 10
115.7530160578
 20
208.1980063156
 11
116.9814286782
 21
205.1133987254
  0
LINE
  5
27E
100
AcDbEntity
  8
0
100
AcDbLine
 62
7
  6
CONTINUOUS
 10
59.2090156449
 20
380.3490793894
 11
59.0862208955
 21
380.6616859925
  0
LINE
  5
27F
100
AcDbEntity
  8
0
100
AcDbLine
 62
7
  6
CONTINUOUS
 10
110.5841603466
 20
215.4258956413
 11
110.5841603466
 21
191.3696376402
  0
LINE
  5
280
100
AcDbEntity
  8
0
100
AcDbLine
 62
7
  6
CONTINUOUS
 10
110.8841603462
 20
191.4076052324
 11
110.8841603462
 21
215.4080428604
  0
LINE
  5
281
100
AcDbEntity
  8
0
100
AcDbLine
 62
7
  6
CONTINUOUS
 10
113.3891841569
 20
184.287087741
 11
113.3891841569
 21
205.834302176
  0
LINE
  5
282
100
AcDbEntity
  8
0
100
AcDbLine
 62
7
  6
CONTINUOUS
 10
114.7021214502
 20
171.0838744346
 11
114.7021214233
 21
202.7483188843
  0
LINE
  5
283
100
AcDbEntity
  8
0
100
AcDbLine
 62
7
  6
CONTINUOUS
 10
114.7021214233
 20
202.7483188843
 11
114.7021254236
 21
202.8341242017
  0
LINE
  5
284
100
AcDbEntity
  8
0
100
AcDbLine
 62
7
  6
CONTINUOUS
 10
114.939327862
 20
173.5001990712
 11
114.9393280364
 21
202.5249766099
  0
LINE
  5
285
100
AcDbEntity
  8
0
100
AcDbLine
 62
7
  6
CONTINUOUS
 10
116.6641603474
 20
185.2500883834
 11
116.6641603474
 21
178.0022186512
  0
LINE
  5
286
100
AcDbEntity
  8
0
100
AcDbLine
 62
7
  6
CONTINUOUS
 10
116.9641603463
 20
178.0174669332
 11
116.9641603463
 21
185.0141970111
  0
LINE
  5
287
100
AcDbEntity
  8
0
100
AcDbLine
 62
7
  6
CONTINUOUS
 10
116.9641603463
 20
189.3213745668
 11
116.9641603463
 21
198.2792407896
  0
LINE
  5
288
100
AcDbEntity
  8
0
100
AcDbLine
 62
7
  6
CONTINUOUS
 10
118.2841603466
 20
189.4995058016
 11
118.2841603466
 21
198.0995058027
  0
LINE
  5
289
100
AcDbEntity
  8
0
100
AcDbLine
 62
7
  6
CONTINUOUS
 10
118.9494691375
 20
186.999505802
 11
143.9256212894
 21
186.999505802
  0
LINE
  5
28A
100
AcDbEntity
  8
0
100
AcDbLine
 62
7
  6
CONTINUOUS
 10
118.7135777667
 20
187.2995058027
 11
143.9426336389
 21
187.2995058027
  0
LINE
  5
28B
100
AcDbEntity
  8
0
100
AcDbLine
 62
7
  6
CONTINUOUS
 10
144.0462485656
 20
188.2995058027
 11
117.9860291103
 21
188.2995058027
  0
LINE
  5
28C
100
AcDbEntity
  8
0
100
AcDbLine
 62
7
  6
CONTINUOUS
 10
118.2841603466
 20
189.4995058016
 11
143.6841603466
 21
189.4995058016
  0
LINE
  5
28D
100
AcDbEntity
  8
0
100
AcDbLine
 62
7
  6
CONTINUOUS
 10
109.5760609152
 20
190.0995058016
 11
82.09783343
 21
190.0995058016
  0
LINE
  5
28E
100
AcDbEntity
  8
0
100
AcDbLine
 62
7
  6
CONTINUOUS
 10
109.6140285084
 20
190.399505802
 11
82.1353544416
 21
190.399505802
  0
LINE
  5
28F
100
AcDbEntity
  8
0
100
AcDbLine
 62
7
  6
CONTINUOUS
 10
138.6041603458
 20
191.169505802
 11
138.1037681523
 21
191.169505802
  0
LINE
  5
290
100
AcDbEntity
  8
0
100
AcDbLine
 62
7
  6
CONTINUOUS
 10
134.0245525409
 20
191.169505802
 11
133.0237681523
 21
191.169505802
  0
LINE
  5
291
100
AcDbEntity
  8
0
100
AcDbLine
 62
7
  6
CONTINUOUS
 10
128.9445525409
 20
191.169505802
 11
127.9437681523
 21
191.169505802
  0
LINE
  5
292
100
AcDbEntity
  8
0
100
AcDbLine
 62
7
  6
CONTINUOUS
 10
123.8645525409
 20
191.169505802
 11
123.3641603474
 21
191.169505802
  0
LINE
  5
293
100
AcDbEntity
  8
0
100
AcDbLine
 62
7
  6
CONTINUOUS
 10
136.5641603466
 20
192.869505802
 11
135.5641603468
 21
192.869505802
  0
LINE
  5
294
100
AcDbEntity
  8
0
100
AcDbLine
 62
7
  6
CONTINUOUS
 10
131.4841603466
 20
192.869505802
 11
130.4841603468
 21
192.869505802
  0
LINE
  5
295
100
AcDbEntity
  8
0
100
AcDbLine
 62
7
  6
CONTINUOUS
 10
126.4041603466
 20
192.869505802
 11
125.4041603466
 21
192.869505802
  0
LINE
  5
296
100
AcDbEntity
  8
0
100
AcDbLine
 62
7
  6
CONTINUOUS
 10
125.4041603466
 20
193.869505802
 11
126.4041603466
 21
193.869505802
  0
LINE
  5
297
100
AcDbEntity
  8
0
100
AcDbLine
 62
7
  6
CONTINUOUS
 10
130.4841603468
 20
193.869505802
 11
131.4841603466
 21
193.869505802
  0
LINE
  5
298
100
AcDbEntity
  8
0
100
AcDbLine
 62
7
  6
CONTINUOUS
 10
135.5641603468
 20
193.869505802
 11
136.5641603466
 21
193.869505802
  0
LINE
  5
299
100
AcDbEntity
  8
0
100
AcDbLine
 62
7
  6
CONTINUOUS
 10
123.3641603474
 20
196.4628986591
 11
138.6041603458
 21
196.4628986591
  0
LINE
  5
29A
100
AcDbEntity
  8
0
100
AcDbLine
 62
7
  6
CONTINUOUS
 10
118.2841603466
 20
197.5995058027
 11
143.6841603466
 21
197.5995058027
  0
LINE
  5
29B
100
AcDbEntity
  8
0
100
AcDbLine
 62
7
  6
CONTINUOUS
 10
118.2841603466
 20
198.0995058027
 11
143.6841603466
 21
198.0995058027
  0
LINE
  5
29C
100
AcDbEntity
  8
0
100
AcDbLine
 62
7
  6
CONTINUOUS
 10
134.9628280214
 20
205.1134200838
 11
133.6995545467
 21
208.1980063044
  0
LINE
  5
29D
100
AcDbEntity
  8
0
100
AcDbLine
 62
7
  6
CONTINUOUS
 10
123.3641603474
 20
191.169505802
 11
123.3641603474
 21
196.4628986591
  0
LINE
  5
29E
100
AcDbEntity
  8
0
100
AcDbLine
 62
7
  6
CONTINUOUS
 10
124.2841603466
 20
340.7500761445
 11
124.2841603466
 21
352.7063484981
  0
LINE
  5
29F
100
AcDbEntity
  8
0
100
AcDbLine
 62
7
  6
CONTINUOUS
 10
125.2041603466
 20
194.5819413673
 11
125.2041603466
 21
192.1570702367
  0
LINE
  5
2A0
100
AcDbEntity
  8
0
100
AcDbLine
 62
7
  6
CONTINUOUS
 10
125.4041603466
 20
192.869505802
 11
125.4041603466
 21
193.869505802
  0
LINE
  5
2A1
100
AcDbEntity
  8
0
100
AcDbLine
 62
7
  6
CONTINUOUS
 10
126.4041603466
 20
193.8695058025
 11
126.4041603466
 21
192.869505802
  0
LINE
  5
2A2
100
AcDbEntity
  8
0
100
AcDbLine
 62
7
  6
CONTINUOUS
 10
130.4841603468
 20
192.869505802
 11
130.4841603468
 21
193.869505802
  0
LINE
  5
2A3
100
AcDbEntity
  8
0
100
AcDbLine
 62
7
  6
CONTINUOUS
 10
131.4841603466
 20
193.869505802
 11
131.4841603466
 21
192.869505802
  0
LINE
  5
2A4
100
AcDbEntity
  8
0
100
AcDbLine
 62
7
  6
CONTINUOUS
 10
132.4316263519
 20
316.899505802
 11
132.4316263519
 21
220.099505802
  0
LINE
  5
2A5
100
AcDbEntity
  8
0
100
AcDbLine
 62
7
  6
CONTINUOUS
 10
132.7009235049
 20
219.499505802
 11
132.7009235049
 21
220.099505802
  0
LINE
  5
2A6
100
AcDbEntity
  8
0
100
AcDbLine
 62
7
  6
CONTINUOUS
 10
132.7009235049
 20
316.899505802
 11
132.7009235049
 21
317.499505802
  0
LINE
  5
2A7
100
AcDbEntity
  8
0
100
AcDbLine
 62
7
  6
CONTINUOUS
 10
133.4304450998
 20
220.099505802
 11
133.4304450998
 21
316.899505802
  0
LINE
  5
2A8
100
AcDbEntity
  8
0
100
AcDbLine
 62
7
  6
CONTINUOUS
 10
133.6995545432
 20
208.1980063043
 11
133.6995543168
 21
219.499505802
  0
LINE
  5
2A9
100
AcDbEntity
  8
0
100
AcDbLine
 62
7
  6
CONTINUOUS
 10
133.6995523541
 20
317.499505802
 11
133.6995515363
 21
358.3338744399
  0
LINE
  5
2AA
100
AcDbEntity
  8
0
100
AcDbLine
 62
7
  6
CONTINUOUS
 10
134.9628211783
 20
372.2151372184
 11
133.6995515327
 21
358.3338744011
  0
LINE
  5
2AB
100
AcDbEntity
  8
0
100
AcDbLine
 62
7
  6
CONTINUOUS
 10
117.0666172499
 20
205.1128146845
 11
116.9677677821
 21
204.5534162444
  0
LINE
  5
2AC
100
AcDbEntity
  8
0
100
AcDbLine
 62
7
  6
CONTINUOUS
 10
176.9533318901
 20
335.3730893982
 11
177.1830604225
 21
335.4877233363
  0
LINE
  5
2AD
100
AcDbEntity
  8
0
100
AcDbLine
 62
7
  6
CONTINUOUS
 10
117.9844253594
 20
199.2995058027
 11
122.9641603463
 21
199.2995058027
  0
LINE
  5
2AE
100
AcDbEntity
  8
0
100
AcDbLine
 62
7
  6
CONTINUOUS
 10
138.9641603463
 20
199.2995058027
 11
144.0062752479
 21
199.2995058027
  0
LINE
  5
2AF
100
AcDbEntity
  8
0
100
AcDbLine
 62
7
  6
CONTINUOUS
 10
124.9641603463
 20
201.2995058027
 11
136.9641603463
 21
201.2995058027
  0
LINE
  5
2B0
100
AcDbEntity
  8
0
100
AcDbLine
 62
7
  6
CONTINUOUS
 10
160.2841603466
 20
204.399505802
 11
319.3841603466
 21
204.399505802
  0
LINE
  5
2B1
100
AcDbEntity
  8
0
100
AcDbLine
 62
7
  6
CONTINUOUS
 10
116.9677677821
 20
204.5534162444
 11
145.2434285045
 21
204.5534162428
  0
LINE
  5
2B2
100
AcDbEntity
  8
0
100
AcDbLine
 62
7
  6
CONTINUOUS
 10
134.9628245362
 20
205.1128146835
 11
145.2442416369
 21
205.112814683
  0
LINE
  5
2B3
100
AcDbEntity
  8
0
100
AcDbLine
 62
7
  6
CONTINUOUS
 10
116.9814286782
 20
205.1133987254
 11
134.9628280214
 21
205.1134200838
  0
LINE
  5
2B4
100
AcDbEntity
  8
0
100
AcDbLine
 62
7
  6
CONTINUOUS
 10
115.7528829542
 20
208.1980063158
 11
133.6995545432
 21
208.1980063043
  0
LINE
  5
2B5
100
AcDbEntity
  8
0
100
AcDbLine
 62
7
  6
CONTINUOUS
 10
299.0106135978
 20
209.3995058024
 11
225.9609831871
 21
209.3995058024
  0
LINE
  5
2B6
100
AcDbEntity
  8
0
100
AcDbLine
 62
7
  6
CONTINUOUS
 10
299.0355855986
 20
209.699505802
 11
225.9673743028
 21
209.699505802
  0
LINE
  5
2B7
100
AcDbEntity
  8
0
100
AcDbLine
 62
7
  6
CONTINUOUS
 10
137.6613283053
 20
322.7066122533
 11
137.7841603357
 21
318.9995076829
  0
LINE
  5
2B8
100
AcDbEntity
  8
0
100
AcDbLine
 62
7
  6
CONTINUOUS
 10
134.4827880006
 20
219.499505802
 11
134.4827880006
 21
220.099505802
  0
LINE
  5
2B9
100
AcDbEntity
  8
0
100
AcDbLine
 62
7
  6
CONTINUOUS
 10
134.4827880006
 20
316.899505802
 11
134.4827880006
 21
317.499505802
  0
LINE
  5
2BA
100
AcDbEntity
  8
0
100
AcDbLine
 62
7
  6
CONTINUOUS
 10
134.6346738608
 20
372.2151371835
 11
134.6346738608
 21
380.5227497246
  0
LINE
  5
2BB
100
AcDbEntity
  8
0
100
AcDbLine
 62
7
  6
CONTINUOUS
 10
134.962824533
 20
205.1134286154
 11
134.9628242442
 21
219.499505802
  0
LINE
  5
2BC
100
AcDbEntity
  8
0
100
AcDbLine
 62
7
  6
CONTINUOUS
 10
134.9628222767
 20
317.499505802
 11
134.9628211783
 21
372.2151372184
  0
LINE
  5
2BD
100
AcDbEntity
  8
0
100
AcDbLine
 62
7
  6
CONTINUOUS
 10
135.0722684547
 20
316.899505802
 11
135.0722684547
 21
220.099505802
  0
LINE
  5
2BE
100
AcDbEntity
  8
0
100
AcDbLine
 62
7
  6
CONTINUOUS
 10
135.1695657516
 20
317.499505802
 11
135.1695657516
 21
318.999503936
  0
LINE
  5
2BF
100
AcDbEntity
  8
0
100
AcDbLine
 62
7
  6
CONTINUOUS
 10
135.5641603468
 20
192.869505802
 11
135.5641603468
 21
193.869505802
  0
LINE
  5
2C0
100
AcDbEntity
  8
0
100
AcDbLine
 62
7
  6
CONTINUOUS
 10
136.5641603466
 20
193.869505802
 11
136.5641603466
 21
192.869505802
  0
LINE
  5
2C1
100
AcDbEntity
  8
0
100
AcDbLine
 62
7
  6
CONTINUOUS
 10
137.6613283053
 20
322.7066130048
 11
137.6613283235
 21
329.1225065862
  0
LINE
  5
2C2
100
AcDbEntity
  8
0
100
AcDbLine
 62
7
  6
CONTINUOUS
 10
137.7841603357
 20
318.9995076829
 11
137.7841603643
 21
329.1223378123
  0
LINE
  5
2C3
100
AcDbEntity
  8
0
100
AcDbLine
 62
7
  6
CONTINUOUS
 10
138.6041603458
 20
196.4628986591
 11
138.6041603458
 21
191.169505802
  0
LINE
  5
2C4
100
AcDbEntity
  8
0
100
AcDbLine
 62
7
  6
CONTINUOUS
 10
141.8154115324
 20
233.9923990214
 11
141.8154115324
 21
219.499505802
  0
LINE
  5
2C5
100
AcDbEntity
  8
0
100
AcDbLine
 62
7
  6
CONTINUOUS
 10
143.6841603466
 20
198.0995058027
 11
143.6841603466
 21
189.4995058017
  0
LINE
  5
2C6
100
AcDbEntity
  8
0
100
AcDbLine
 62
7
  6
CONTINUOUS
 10
144.9641603463
 20
198.3416207044
 11
144.9641603463
 21
189.2174175835
  0
LINE
  5
2C7
100
AcDbEntity
  8
0
100
AcDbLine
 62
7
  6
CONTINUOUS
 10
144.9641603463
 20
185.9609667448
 11
144.9641603463
 21
177.9871374628
  0
LINE
  5
2C8
100
AcDbEntity
  8
0
100
AcDbLine
 62
7
  6
CONTINUOUS
 10
145.264160347
 20
177.9729063109
 11
145.264160347
 21
185.9779790942
  0
LINE
  5
2C9
100
AcDbEntity
  8
0
100
AcDbLine
 62
7
  6
CONTINUOUS
 10
146.7841603466
 20
278.7810538676
 11
146.7841603466
 21
309.9792688194
  0
LINE
  5
2CA
100
AcDbEntity
  8
0
100
AcDbLine
 62
7
  6
CONTINUOUS
 10
146.8969594944
 20
279.1647660349
 11
146.8969594944
 21
309.9112440257
  0
LINE
  5
2CB
100
AcDbEntity
  8
0
100
AcDbLine
 62
7
  6
CONTINUOUS
 10
145.2434285045
 20
204.5534162428
 11
145.2441455832
 21
205.1128146829
  0
LINE
  5
2CC
100
AcDbEntity
  8
0
100
AcDbLine
 62
7
  6
CONTINUOUS
 10
141.8154115324
 20
233.9923990214
 11
142.2868195071
 21
242.6995058012
  0
LINE
  5
2CD
100
AcDbEntity
  8
0
100
AcDbLine
 62
7
  6
CONTINUOUS
 10
176.8515614414
 20
335.2478943968
 11
176.9533318901
 21
335.3730893982
  0
LINE
  5
2CE
100
AcDbEntity
  8
0
100
AcDbLine
 62
7
  6
CONTINUOUS
 10
176.7873629381
 20
335.0052956469
 11
176.7850243957
 21
335.0027612339
  0
LWPOLYLINE
  5
2CF
100
AcDbEntity
  8
0
100
AcDbPolyline
 62
7
  6
CONTINUOUS
 90
4
 70
0
 10
176.8785981985
 20
335.2896701143
 10
176.9846983256
 20
335.3982569556
 10
177.1068180444
 20
335.4657225128
 10
177.2223462064
 20
335.4948188537
  0
LINE
  5
2D0
100
AcDbEntity
  8
0
100
AcDbLine
 62
7
  6
CONTINUOUS
 10
342.9577575829
 20
372.1619258412
 11
343.0772934234
 21
372.197445252
  0
LINE
  5
2D1
100
AcDbEntity
  8
0
100
AcDbLine
 62
7
  6
CONTINUOUS
 10
154.7841603466
 20
212.399505802
 11
160.2841603466
 21
212.399505802
  0
LINE
  5
2D2
100
AcDbEntity
  8
0
100
AcDbLine
 62
7
  6
CONTINUOUS
 10
83.0346674216
 20
216.399505802
 11
109.6105501859
 21
216.399505802
  0
LINE
  5
2D3
100
AcDbEntity
  8
0
100
AcDbLine
 62
7
  6
CONTINUOUS
 10
82.809238893
 20
216.6995058013
 11
109.592697405
 21
216.6995058013
  0
LINE
  5
2D4
100
AcDbEntity
  8
0
100
AcDbLine
 62
7
  6
CONTINUOUS
 10
105.9841603466
 20
219.499505802
 11
141.8154115324
 21
219.499505802
  0
LINE
  5
2D5
100
AcDbEntity
  8
0
100
AcDbLine
 62
7
  6
CONTINUOUS
 10
135.0722684547
 20
220.099505802
 11
105.5841603466
 21
220.099505802
  0
LINE
  5
2D6
100
AcDbEntity
  8
0
100
AcDbLine
 62
7
  6
CONTINUOUS
 10
154.7841603466
 20
221.199505802
 11
160.2841603466
 21
221.199505802
  0
LINE
  5
2D7
100
AcDbEntity
  8
0
100
AcDbLine
 62
7
  6
CONTINUOUS
 10
154.7841603466
 20
223.199505802
 11
160.2841603466
 21
223.199505802
  0
LINE
  5
2D8
100
AcDbEntity
  8
0
100
AcDbLine
 62
7
  6
CONTINUOUS
 10
134.9628222179
 20
320.4323540337
 11
135.1695658191
 21
318.9995043234
  0
LINE
  5
2D9
100
AcDbEntity
  8
0
100
AcDbLine
 62
7
  6
CONTINUOUS
 10
147.1986263598
 20
202.5982208742
 11
147.1986214134
 21
173.5023643941
  0
LINE
  5
2DA
100
AcDbEntity
  8
0
100
AcDbLine
 62
7
  6
CONTINUOUS
 10
147.3861629094
 20
202.9708994436
 11
147.3861578856
 21
173.5022485536
  0
LINE
  5
2DB
100
AcDbEntity
  8
0
100
AcDbLine
 62
7
  6
CONTINUOUS
 10
148.9306069577
 20
332.1223378544
 11
148.9306069699
 21
344.7645693111
  0
LINE
  5
2DC
100
AcDbEntity
  8
0
100
AcDbLine
 62
7
  6
CONTINUOUS
 10
152.7841603437
 20
332.1223378771
 11
152.7841603495
 21
342.5995058011
  0
LINE
  5
2DD
100
AcDbEntity
  8
0
100
AcDbLine
 62
7
  6
CONTINUOUS
 10
154.7841603466
 20
212.399505802
 11
154.7841603466
 21
242.6995058013
  0
LINE
  5
2DE
100
AcDbEntity
  8
0
100
AcDbLine
 62
7
  6
CONTINUOUS
 10
146.7841603466
 20
278.7810088959
 11
146.8969594944
 21
279.1647660349
  0
LINE
  5
2DF
100
AcDbEntity
  8
0
100
AcDbLine
 62
7
  6
CONTINUOUS
 10
176.7933381291
 20
335.0868204062
 11
176.8515614414
 21
335.2478943968
  0
LINE
  5
2E0
100
AcDbEntity
  8
0
100
AcDbLine
 62
7
  6
CONTINUOUS
 10
176.8063228727
 20
335.1428235172
 11
176.8785981985
 21
335.2896701143
  0
LINE
  5
2E1
100
AcDbEntity
  8
0
100
AcDbLine
 62
7
  6
CONTINUOUS
 10
53.915426193
 20
166.3373256111
 11
53.2083232142
 21
165.399505802
  0
LINE
  5
2E2
100
AcDbEntity
  8
0
100
AcDbLine
 62
7
  6
CONTINUOUS
 10
80.7841603466
 20
214.6744272549
 11
82.809238893
 21
216.6995058013
  0
LINE
  5
2E3
100
AcDbEntity
  8
0
100
AcDbLine
 62
7
  6
CONTINUOUS
 10
83.0346674223
 20
216.399505802
 11
81.0841603466
 21
214.4489987263
  0
LINE
  5
2E4
100
AcDbEntity
  8
0
100
AcDbLine
 62
7
  6
CONTINUOUS
 10
214.5200222059
 20
323.3867066543
 11
214.7535824236
 21
323.499505802
  0
LINE
  5
2E5
100
AcDbEntity
  8
0
100
AcDbLine
 62
7
  6
CONTINUOUS
 10
214.7598363871
 20
229.499505881
 11
163.4992495096
 21
229.4995057231
  0
LINE
  5
2E6
100
AcDbEntity
  8
0
100
AcDbLine
 62
7
  6
CONTINUOUS
 10
227.0381656875
 20
229.699505802
 11
298.9692872446
 21
229.699505802
  0
LINE
  5
2E7
100
AcDbEntity
  8
0
100
AcDbLine
 62
7
  6
CONTINUOUS
 10
226.7133671948
 20
229.999505802
 11
298.9854933446
 21
229.999505802
  0
LINE
  5
2E8
100
AcDbEntity
  8
0
100
AcDbLine
 62
7
  6
CONTINUOUS
 10
214.7521370803
 20
232.3066137731
 11
163.7543181252
 21
232.3066133571
  0
LINE
  5
2E9
100
AcDbEntity
  8
0
100
AcDbLine
 62
7
  6
CONTINUOUS
 10
141.8154115324
 20
233.9923990215
 11
154.7841603466
 21
233.9923990215
  0
LINE
  5
2EA
100
AcDbEntity
  8
0
100
AcDbLine
 62
7
  6
CONTINUOUS
 10
342.9577575822
 20
235.9137108657
 11
343.0771440029
 21
235.9137170532
  0
LINE
  5
2EB
100
AcDbEntity
  8
0
100
AcDbLine
 62
7
  6
CONTINUOUS
 10
319.3841603468
 20
235.9137177779
 11
342.9577575822
 21
235.9137108657
  0
LINE
  5
2EC
100
AcDbEntity
  8
0
100
AcDbLine
 62
7
  6
CONTINUOUS
 10
53.2083232146
 20
381.5995058021
 11
53.9154261976
 21
380.661685993
  0
LINE
  5
2ED
100
AcDbEntity
  8
0
100
AcDbLine
 62
7
  6
CONTINUOUS
 10
160.2841603466
 20
204.399505802
 11
160.2841603466
 21
223.199505802
  0
LINE
  5
2EE
100
AcDbEntity
  8
0
100
AcDbLine
 62
7
  6
CONTINUOUS
 10
161.7841603499
 20
231.2146154908
 11
161.7841603495
 21
274.8806557747
  0
LINE
  5
2EF
100
AcDbEntity
  8
0
100
AcDbLine
 62
7
  6
CONTINUOUS
 10
161.7841603364
 20
314.0702368835
 11
161.784160363
 21
321.5812869166
  0
LINE
  5
2F0
100
AcDbEntity
  8
0
100
AcDbLine
 62
7
  6
CONTINUOUS
 10
161.8969594937
 20
234.1639718881
 11
161.8969594933
 21
275.1115144925
  0
LINE
  5
2F1
100
AcDbEntity
  8
0
100
AcDbLine
 62
7
  6
CONTINUOUS
 10
161.8969594551
 20
313.9653165767
 11
161.8969594818
 21
321.4977035259
  0
LINE
  5
2F2
100
AcDbEntity
  8
0
100
AcDbLine
 62
7
  6
CONTINUOUS
 10
171.7841603466
 20
334.999505802
 11
171.7841603466
 21
329.999505802
  0
LINE
  5
2F3
100
AcDbEntity
  8
0
100
AcDbLine
 62
7
  6
CONTINUOUS
 10
171.987485297
 20
334.999505802
 11
171.987485297
 21
329.999505802
  0
LINE
  5
2F4
100
AcDbEntity
  8
0
100
AcDbLine
 62
7
  6
CONTINUOUS
 10
161.7841603499
 20
231.2146487924
 11
161.8969594937
 21
234.1639718881
  0
LINE
  5
2F5
100
AcDbEntity
  8
0
100
AcDbLine
 62
7
  6
CONTINUOUS
 10
163.7543181252
 20
232.3066133571
 11
163.4993033368
 21
229.4995056875
  0
LINE
  5
2F6
100
AcDbEntity
  8
0
100
AcDbLine
 62
7
  6
CONTINUOUS
 10
176.7847464563
 20
334.9979213972
 11
176.8063228727
 21
335.1428235172
  0
LINE
  5
2F7
100
AcDbEntity
  8
0
100
AcDbLine
 62
7
  6
CONTINUOUS
 10
176.786793294
 20
335.0072129871
 11
176.7864703244
 21
335.0050953253
  0
LINE
  5
2F8
100
AcDbEntity
  8
0
100
AcDbLine
 62
7
  6
CONTINUOUS
 10
176.7864703244
 20
335.0050953253
 11
176.7861208653
 21
335.0029011229
  0
LINE
  5
2F9
100
AcDbEntity
  8
0
100
AcDbLine
 62
7
  6
CONTINUOUS
 10
176.7930605601
 20
335.0851960882
 11
176.7934061226
 21
335.0873087519
  0
LWPOLYLINE
  5
2FA
100
AcDbEntity
  8
0
100
AcDbPolyline
 62
7
  6
CONTINUOUS
 90
3
 70
0
 10
176.792714584
 20
335.0831913943
 10
176.7926265781
 20
335.0826564506
 10
176.7933381291
 20
335.0868204062
  0
LINE
  5
2FB
100
AcDbEntity
  8
0
100
AcDbLine
 62
7
  6
CONTINUOUS
 10
161.8969594933
 20
275.1115144925
 11
161.7841603495
 21
274.880564804
  0
LWPOLYLINE
  5
2FC
100
AcDbEntity
  8
0
100
AcDbPolyline
 62
7
  6
CONTINUOUS
 90
8
 70
0
 10
264.0163516296
 20
335.4172893294
 10
264.1567037027
 20
335.4802404524
 10
264.1801272539
 20
335.4861225445
 10
264.1851877731
 20
335.4872348246
 10
264.1864289655
 20
335.487498119
 10
264.189030429
 20
335.4880361379
 10
264.194155016
 20
335.4890484608
 10
264.2040017121
 20
335.4908269109
  0
LINE
  5
2FD
100
AcDbEntity
  8
0
100
AcDbLine
 62
7
  6
CONTINUOUS
 10
298.9525946776
 20
238.999505802
 11
225.9831507604
 21
238.999505802
  0
LINE
  5
2FE
100
AcDbEntity
  8
0
100
AcDbLine
 62
7
  6
CONTINUOUS
 10
298.9873493736
 20
239.299505802
 11
225.9983039438
 21
239.299505802
  0
LINE
  5
2FF
100
AcDbEntity
  8
0
100
AcDbLine
 62
7
  6
CONTINUOUS
 10
142.286819507
 20
242.6995058013
 11
154.7841603466
 21
242.6995058013
  0
LINE
  5
300
100
AcDbEntity
  8
0
100
AcDbLine
 62
7
  6
CONTINUOUS
 10
172.9534111235
 20
329.999505802
 11
172.9534111235
 21
334.999505802
  0
LINE
  5
301
100
AcDbEntity
  8
0
100
AcDbLine
 62
7
  6
CONTINUOUS
 10
173.3699467841
 20
334.999505802
 11
173.3699467841
 21
329.999505802
  0
LINE
  5
302
100
AcDbEntity
  8
0
100
AcDbLine
 62
7
  6
CONTINUOUS
 10
174.0770535657
 20
329.999505802
 11
174.0770535657
 21
334.999505802
  0
LINE
  5
303
100
AcDbEntity
  8
0
100
AcDbLine
 62
7
  6
CONTINUOUS
 10
175.2841603466
 20
336.5787050793
 11
175.2841603466
 21
329.999505802
  0
LINE
  5
304
100
AcDbEntity
  8
0
100
AcDbLine
 62
7
  6
CONTINUOUS
 10
176.7876042752
 20
329.9995058021
 11
176.7873629381
 21
335.0052956469
  0
LINE
  5
305
100
AcDbEntity
  8
0
100
AcDbLine
 62
7
  6
CONTINUOUS
 10
176.7919161162
 20
329.999505802
 11
176.7916752347
 21
334.9958475689
  0
LWPOLYLINE
  5
306
100
AcDbEntity
  8
0
100
AcDbPolyline
 62
7
  6
CONTINUOUS
 90
3
 70
0
 10
176.7878715728
 20
335.018908942
 10
176.7910762512
 20
335.0715682977
 10
176.7930605601
 20
335.0851960882
  0
LINE
  5
307
100
AcDbEntity
  8
0
100
AcDbLine
 62
7
  6
CONTINUOUS
 10
147.3861629058
 20
202.9707948963
 11
147.1986263598
 21
202.5982208742
  0
LINE
  5
308
100
AcDbEntity
  8
0
100
AcDbLine
 62
7
  6
CONTINUOUS
 10
159.6652193517
 20
276.9995057888
 11
159.8961690985
 21
277.11230491
  0
LINE
  5
309
100
AcDbEntity
  8
0
100
AcDbLine
 62
7
  6
CONTINUOUS
 10
148.9494205698
 20
277.1123049361
 11
148.5656634404
 21
276.9995058153
  0
LINE
  5
30A
100
AcDbEntity
  8
0
100
AcDbLine
 62
7
  6
CONTINUOUS
 10
148.8044873212
 20
311.999505802
 11
148.872422123
 21
311.8867066543
  0
LINE
  5
30B
100
AcDbEntity
  8
0
100
AcDbLine
 62
7
  6
CONTINUOUS
 10
191.7841603465
 20
330.5340503033
 11
191.7841603465
 21
336.432671857
  0
LINE
  5
30C
100
AcDbEntity
  8
0
100
AcDbLine
 62
7
  6
CONTINUOUS
 10
216.7841604039
 20
321.4689278793
 11
216.6713611393
 21
321.2353676561
  0
LINE
  5
30D
100
AcDbEntity
  8
0
100
AcDbLine
 62
7
  6
CONTINUOUS
 10
122.9641603463
 20
199.2995058027
 11
124.9641603463
 21
201.2995058027
  0
LINE
  5
30E
100
AcDbEntity
  8
0
100
AcDbLine
 62
7
  6
CONTINUOUS
 10
263.9043504877
 20
335.3188071602
 11
264.0163516296
 21
335.4172893294
  0
LINE
  5
30F
100
AcDbEntity
  8
0
100
AcDbLine
 62
7
  6
CONTINUOUS
 10
49.6841603465
 20
168.92366867
 11
50.6219801556
 21
169.630771649
  0
LWPOLYLINE
  5
310
100
AcDbEntity
  8
0
100
AcDbPolyline
 62
7
  6
CONTINUOUS
 90
3
 70
0
 10
263.9443384937
 20
335.360876605
 10
264.0402602336
 20
335.4318590468
 10
264.1428699858
 20
335.4764492672
  0
LINE
  5
311
100
AcDbEntity
  8
0
100
AcDbLine
 62
7
  6
CONTINUOUS
 10
310.6377135688
 20
344.7645693113
 11
306.7841603466
 21
342.5995058018
  0
LINE
  5
312
100
AcDbEntity
  8
0
100
AcDbLine
 62
7
  6
CONTINUOUS
 10
227.0004456785
 20
274.299505802
 11
298.9590656116
 21
274.299505802
  0
LINE
  5
313
100
AcDbEntity
  8
0
100
AcDbLine
 62
7
  6
CONTINUOUS
 10
226.7268899743
 20
274.5995058017
 11
299.0527675996
 21
274.5995058017
  0
LINE
  5
314
100
AcDbEntity
  8
0
100
AcDbLine
 62
7
  6
CONTINUOUS
 10
50.6219801556
 20
377.3682399556
 11
49.6841603465
 21
378.0753429345
  0
LINE
  5
315
100
AcDbEntity
  8
0
100
AcDbLine
 62
7
  6
CONTINUOUS
 10
159.8183495046
 20
311.8867066543
 11
159.7133638406
 21
311.999505802
  0
LINE
  5
316
100
AcDbEntity
  8
0
100
AcDbLine
 62
7
  6
CONTINUOUS
 10
263.8674703522
 20
335.2690714922
 11
263.9443384937
 21
335.360876605
  0
LINE
  5
317
100
AcDbEntity
  8
0
100
AcDbLine
 62
7
  6
CONTINUOUS
 10
116.6641603474
 20
185.2500883834
 11
118.7135777667
 21
187.2995058027
  0
LINE
  5
318
100
AcDbEntity
  8
0
100
AcDbLine
 62
7
  6
CONTINUOUS
 10
118.9494691376
 20
186.999505802
 11
116.9641603463
 21
185.0141970107
  0
LINE
  5
319
100
AcDbEntity
  8
0
100
AcDbLine
 62
7
  6
CONTINUOUS
 10
159.6653141824
 20
276.9995057889
 11
148.5655453942
 21
276.9995058152
  0
LINE
  5
31A
100
AcDbEntity
  8
0
100
AcDbLine
 62
7
  6
CONTINUOUS
 10
159.8961690985
 20
277.11230491
 11
148.9494205698
 21
277.1123049361
  0
LINE
  5
31B
100
AcDbEntity
  8
0
100
AcDbLine
 62
7
  6
CONTINUOUS
 10
267.7481153042
 20
277.499505802
 11
255.813260558
 21
277.499505802
  0
LINE
  5
31C
100
AcDbEntity
  8
0
100
AcDbLine
 62
7
  6
CONTINUOUS
 10
264.6958213039
 20
280.549505802
 11
257.8841603462
 21
280.549505802
  0
LINE
  5
31D
100
AcDbEntity
  8
0
100
AcDbLine
 62
7
  6
CONTINUOUS
 10
263.559160347
 20
282.024505802
 11
260.0091603466
 21
282.024505802
  0
LINE
  5
31E
100
AcDbEntity
  8
0
100
AcDbLine
 62
7
  6
CONTINUOUS
 10
263.559160347
 20
283.024505802
 11
260.0091603466
 21
283.024505802
  0
LINE
  5
31F
100
AcDbEntity
  8
0
100
AcDbLine
 62
7
  6
CONTINUOUS
 10
265.684160347
 20
286.3995058024
 11
264.6841603466
 21
286.3995058024
  0
LINE
  5
320
100
AcDbEntity
  8
0
100
AcDbLine
 62
7
  6
CONTINUOUS
 10
258.8841603466
 20
286.3995058024
 11
257.8841603462
 21
286.3995058024
  0
LINE
  5
321
100
AcDbEntity
  8
0
100
AcDbLine
 62
7
  6
CONTINUOUS
 10
146.7841603466
 20
309.9791788274
 11
146.8969594944
 21
309.9112440257
  0
LINE
  5
322
100
AcDbEntity
  8
0
100
AcDbLine
 62
7
  6
CONTINUOUS
 10
161.7841603364
 20
314.0703023112
 11
161.8969594551
 21
313.9653165767
  0
LINE
  5
323
100
AcDbEntity
  8
0
100
AcDbLine
 62
7
  6
CONTINUOUS
 10
163.702464778
 20
323.499505802
 11
163.7859626369
 21
323.3867066543
  0
LINE
  5
324
100
AcDbEntity
  8
0
100
AcDbLine
 62
7
  6
CONTINUOUS
 10
216.6713610283
 20
234.2258377577
 11
216.7841602893
 21
231.5238694075
  0
LINE
  5
325
100
AcDbEntity
  8
0
100
AcDbLine
 62
7
  6
CONTINUOUS
 10
214.7597967429
 20
229.4995059165
 11
214.7521370803
 21
232.3066137731
  0
LINE
  5
326
100
AcDbEntity
  8
0
100
AcDbLine
 62
7
  6
CONTINUOUS
 10
215.7841603466
 20
381.13591465
 11
215.7841603466
 21
380.6338752518
  0
LINE
  5
327
100
AcDbEntity
  8
0
100
AcDbLine
 62
7
  6
CONTINUOUS
 10
216.2841603466
 20
380.6166779136
 11
216.2841603466
 21
384.799505802
  0
LINE
  5
328
100
AcDbEntity
  8
0
100
AcDbLine
 62
7
  6
CONTINUOUS
 10
216.6713611393
 20
321.2353676561
 11
216.6713610283
 21
234.2258377577
  0
LINE
  5
329
100
AcDbEntity
  8
0
100
AcDbLine
 62
7
  6
CONTINUOUS
 10
216.7841604038
 20
321.4690147869
 11
216.7841602894
 21
231.5238053718
  0
LINE
  5
32A
100
AcDbEntity
  8
0
100
AcDbLine
 62
7
  6
CONTINUOUS
 10
218.2841603466
 20
384.799505802
 11
218.2841603466
 21
380.616677899
  0
LINE
  5
32B
100
AcDbEntity
  8
0
100
AcDbLine
 62
7
  6
CONTINUOUS
 10
218.3118804042
 20
380.6166778987
 11
218.3118804042
 21
381.1551004845
  0
LINE
  5
32C
100
AcDbEntity
  8
0
100
AcDbLine
 62
7
  6
CONTINUOUS
 10
218.7841603466
 20
380.63264747
 11
218.7841603466
 21
381.138706242
  0
LINE
  5
32D
100
AcDbEntity
  8
0
100
AcDbLine
 62
7
  6
CONTINUOUS
 10
221.2841505806
 20
380.9220617052
 11
221.2841602502
 21
381.1446919898
  0
LINE
  5
32E
100
AcDbEntity
  8
0
100
AcDbLine
 62
7
  6
CONTINUOUS
 10
221.8609217556
 20
380.9041635429
 11
221.8609217556
 21
381.1647131399
  0
LINE
  5
32F
100
AcDbEntity
  8
0
100
AcDbLine
 62
7
  6
CONTINUOUS
 10
222.2841603466
 20
380.9041635266
 11
222.2841603466
 21
381.199505802
  0
LINE
  5
330
100
AcDbEntity
  8
0
100
AcDbLine
 62
7
  6
CONTINUOUS
 10
224.684160347
 20
272.5567761744
 11
226.7268899743
 21
274.5995058017
  0
LINE
  5
331
100
AcDbEntity
  8
0
100
AcDbLine
 62
7
  6
CONTINUOUS
 10
227.0004456785
 20
274.299505802
 11
224.9841603466
 21
272.2832204701
  0
LINE
  5
332
100
AcDbEntity
  8
0
100
AcDbLine
 62
7
  6
CONTINUOUS
 10
343.8841603469
 20
378.07534542
 11
343.0772934235
 21
377.367895899
  0
LINE
  5
333
100
AcDbEntity
  8
0
100
AcDbLine
 62
7
  6
CONTINUOUS
 10
319.5263944674
 20
331.7495057884
 11
319.6993934837
 21
331.8723378326
  0
LINE
  5
334
100
AcDbEntity
  8
0
100
AcDbLine
 62
7
  6
CONTINUOUS
 10
161.8969594818
 20
321.4977035259
 11
161.7841603631
 21
321.5812013737
  0
LINE
  5
335
100
AcDbEntity
  8
0
100
AcDbLine
 62
7
  6
CONTINUOUS
 10
342.957757583
 20
169.735923043
 11
343.8841603469
 21
168.923666184
  0
LINE
  5
336
100
AcDbEntity
  8
0
100
AcDbLine
 62
7
  6
CONTINUOUS
 10
176.786131366
 20
335.0072221241
 11
176.7873629381
 21
335.0052956469
  0
LINE
  5
337
100
AcDbEntity
  8
0
100
AcDbLine
 62
7
  6
CONTINUOUS
 10
224.684160347
 20
272.5567761743
 11
224.684160347
 21
240.2984962156
  0
LINE
  5
338
100
AcDbEntity
  8
0
100
AcDbLine
 62
7
  6
CONTINUOUS
 10
224.684160347
 20
227.9702989542
 11
224.684160347
 21
210.6763286425
  0
LINE
  5
339
100
AcDbEntity
  8
0
100
AcDbLine
 62
7
  6
CONTINUOUS
 10
224.9841603466
 20
210.6827197582
 11
224.9841603466
 21
227.6455004611
  0
LINE
  5
33A
100
AcDbEntity
  8
0
100
AcDbLine
 62
7
  6
CONTINUOUS
 10
224.9841603466
 20
240.3136493992
 11
224.9841603466
 21
272.2832204701
  0
LINE
  5
33B
100
AcDbEntity
  8
0
100
AcDbLine
 62
7
  6
CONTINUOUS
 10
231.2841603466
 20
381.199505802
 11
231.2841603466
 21
380.9041632252
  0
LINE
  5
33C
100
AcDbEntity
  8
0
100
AcDbLine
 62
7
  6
CONTINUOUS
 10
231.8370430726
 20
381.1647128102
 11
231.8370430726
 21
380.9041632105
  0
LINE
  5
33D
100
AcDbEntity
  8
0
100
AcDbLine
 62
7
  6
CONTINUOUS
 10
232.2841604174
 20
380.9235988435
 11
232.2841702081
 21
381.1491915716
  0
LINE
  5
33E
100
AcDbEntity
  8
0
100
AcDbLine
 62
7
  6
CONTINUOUS
 10
234.7841603466
 20
381.1384390877
 11
234.7841603466
 21
380.6339414761
  0
LINE
  5
33F
100
AcDbEntity
  8
0
100
AcDbLine
 62
7
  6
CONTINUOUS
 10
235.264122966
 20
380.6166779217
 11
235.264122966
 21
381.1551001686
  0
LINE
  5
340
100
AcDbEntity
  8
0
100
AcDbLine
 62
7
  6
CONTINUOUS
 10
235.2841603466
 20
380.6166779217
 11
235.2841603466
 21
384.799505802
  0
LINE
  5
341
100
AcDbEntity
  8
0
100
AcDbLine
 62
7
  6
CONTINUOUS
 10
50.6219801556
 20
174.8015663489
 11
50.9345867587
 21
174.9243610895
  0
LINE
  5
342
100
AcDbEntity
  8
0
100
AcDbLine
 62
7
  6
CONTINUOUS
 10
282.2079949863
 20
335.4966515318
 11
282.203342364
 21
335.4954815074
  0
LINE
  5
343
100
AcDbEntity
  8
0
100
AcDbLine
 62
7
  6
CONTINUOUS
 10
148.872422123
 20
311.8867066543
 11
159.8183495046
 21
311.8867066543
  0
LINE
  5
344
100
AcDbEntity
  8
0
100
AcDbLine
 62
7
  6
CONTINUOUS
 10
148.8044009161
 20
311.999505802
 11
159.7134041519
 21
311.999505802
  0
LINE
  5
345
100
AcDbEntity
  8
0
100
AcDbLine
 62
7
  6
CONTINUOUS
 10
50.9345867587
 20
372.0746505001
 11
50.6219801556
 21
372.1974452628
  0
LINE
  5
346
100
AcDbEntity
  8
0
100
AcDbLine
 62
7
  6
CONTINUOUS
 10
148.9306069687
 20
344.7645693111
 11
152.78416035
 21
342.5995058015
  0
LINE
  5
347
100
AcDbEntity
  8
0
100
AcDbLine
 62
7
  6
CONTINUOUS
 10
237.2841603466
 20
384.799505802
 11
237.2841603466
 21
380.616677899
  0
LINE
  5
348
100
AcDbEntity
  8
0
100
AcDbLine
 62
7
  6
CONTINUOUS
 10
237.2911349806
 20
380.6166778988
 11
237.2911349806
 21
381.1551004815
  0
LINE
  5
349
100
AcDbEntity
  8
0
100
AcDbLine
 62
7
  6
CONTINUOUS
 10
237.7841603466
 20
380.6336388287
 11
237.7841603466
 21
381.1379861031
  0
LINE
  5
34A
100
AcDbEntity
  8
0
100
AcDbLine
 62
7
  6
CONTINUOUS
 10
264.695821304
 20
280.549505802
 11
265.684160347
 21
281.5378448451
  0
LINE
  5
34B
100
AcDbEntity
  8
0
100
AcDbLine
 62
7
  6
CONTINUOUS
 10
306.6134496684
 20
321.3287951238
 11
303.8548710245
 21
318.5702164799
  0
LINE
  5
34C
100
AcDbEntity
  8
0
100
AcDbLine
 62
7
  6
CONTINUOUS
 10
313.7134496697
 20
321.428795125
 11
310.9548710228
 21
318.6702164781
  0
LINE
  5
34D
100
AcDbEntity
  8
0
100
AcDbLine
 62
7
  6
CONTINUOUS
 10
224.684160347
 20
227.9702989542
 11
226.7133671948
 21
229.999505802
  0
LINE
  5
34E
100
AcDbEntity
  8
0
100
AcDbLine
 62
7
  6
CONTINUOUS
 10
227.0381656874
 20
229.699505802
 11
224.9841603466
 21
227.6455004612
  0
LINE
  5
34F
100
AcDbEntity
  8
0
100
AcDbLine
 62
7
  6
CONTINUOUS
 10
264.1428699858
 20
335.4764492672
 11
264.2350516226
 21
335.4959207723
  0
LINE
  5
350
100
AcDbEntity
  8
0
100
AcDbLine
 62
7
  6
CONTINUOUS
 10
317.2712747386
 20
314.499505802
 11
303.3052288957
 21
314.499505802
  0
LINE
  5
351
100
AcDbEntity
  8
0
100
AcDbLine
 62
7
  6
CONTINUOUS
 10
315.1841603466
 20
315.499505802
 11
312.3841603466
 21
315.499505802
  0
LINE
  5
352
100
AcDbEntity
  8
0
100
AcDbLine
 62
7
  6
CONTINUOUS
 10
105.5841603466
 20
316.899505802
 11
135.0722684547
 21
316.899505802
  0
LINE
  5
353
100
AcDbEntity
  8
0
100
AcDbLine
 62
7
  6
CONTINUOUS
 10
309.6841603466
 20
316.999505802
 11
306.7841603466
 21
316.999505802
  0
LINE
  5
354
100
AcDbEntity
  8
0
100
AcDbLine
 62
7
  6
CONTINUOUS
 10
135.1695657516
 20
317.499505802
 11
105.9841603466
 21
317.499505802
  0
LINE
  5
355
100
AcDbEntity
  8
0
100
AcDbLine
 62
7
  6
CONTINUOUS
 10
316.5427389896
 20
318.499505802
 11
315.2841603466
 21
318.499505802
  0
LINE
  5
356
100
AcDbEntity
  8
0
100
AcDbLine
 62
7
  6
CONTINUOUS
 10
312.2841603466
 20
318.499505802
 11
311.0255817036
 21
318.499505802
  0
LINE
  5
357
100
AcDbEntity
  8
0
100
AcDbLine
 62
7
  6
CONTINUOUS
 10
321.7841603353
 20
318.585290201
 11
343.0771440029
 21
318.585301495
  0
LINE
  5
358
100
AcDbEntity
  8
0
100
AcDbLine
 62
7
  6
CONTINUOUS
 10
257.8841603462
 20
318.599505802
 11
258.8841603466
 21
318.599505802
  0
LINE
  5
359
100
AcDbEntity
  8
0
100
AcDbLine
 62
7
  6
CONTINUOUS
 10
264.6841603466
 20
318.599505802
 11
265.684160347
 21
318.599505802
  0
LINE
  5
35A
100
AcDbEntity
  8
0
100
AcDbLine
 62
7
  6
CONTINUOUS
 10
135.1695658191
 20
318.9995043234
 11
137.7841603305
 21
318.9995072807
  0
LINE
  5
35B
100
AcDbEntity
  8
0
100
AcDbLine
 62
7
  6
CONTINUOUS
 10
306.7841603466
 20
319.999505802
 11
309.6841603466
 21
319.999505802
  0
LINE
  5
35C
100
AcDbEntity
  8
0
100
AcDbLine
 62
7
  6
CONTINUOUS
 10
260.0091603466
 20
321.974505802
 11
263.559160347
 21
321.974505802
  0
LINE
  5
35D
100
AcDbEntity
  8
0
100
AcDbLine
 62
7
  6
CONTINUOUS
 10
303.3043496656
 20
322.499505802
 11
317.2642285984
 21
322.499505802
  0
LINE
  5
35E
100
AcDbEntity
  8
0
100
AcDbLine
 62
7
  6
CONTINUOUS
 10
134.9628221722
 20
322.7066077805
 11
137.6613283053
 21
322.7066130048
  0
LINE
  5
35F
100
AcDbEntity
  8
0
100
AcDbLine
 62
7
  6
CONTINUOUS
 10
260.0091603466
 20
322.974505802
 11
263.559160347
 21
322.974505802
  0
LINE
  5
360
100
AcDbEntity
  8
0
100
AcDbLine
 62
7
  6
CONTINUOUS
 10
163.7859626369
 20
323.3867066543
 11
214.5200222059
 21
323.3867066543
  0
LINE
  5
361
100
AcDbEntity
  8
0
100
AcDbLine
 62
7
  6
CONTINUOUS
 10
163.7023827071
 20
323.499505802
 11
214.7536732202
 21
323.499505802
  0
LINE
  5
362
100
AcDbEntity
  8
0
100
AcDbLine
 62
7
  6
CONTINUOUS
 10
257.8841603462
 20
324.449505802
 11
264.6866727062
 21
324.449505802
  0
LINE
  5
363
100
AcDbEntity
  8
0
100
AcDbLine
 62
7
  6
CONTINUOUS
 10
255.2841603466
 20
278.0286060136
 11
255.2841603466
 21
327.0196676715
  0
LINE
  5
364
100
AcDbEntity
  8
0
100
AcDbLine
 62
7
  6
CONTINUOUS
 10
257.8841603462
 20
280.549505802
 11
257.8841603462
 21
286.3995058024
  0
LINE
  5
365
100
AcDbEntity
  8
0
100
AcDbLine
 62
7
  6
CONTINUOUS
 10
257.8841603462
 20
318.599505802
 11
257.8841603462
 21
324.449505802
  0
LINE
  5
366
100
AcDbEntity
  8
0
100
AcDbLine
 62
7
  6
CONTINUOUS
 10
258.8841603466
 20
318.599505802
 11
258.8841603466
 21
286.3995058024
  0
LINE
  5
367
100
AcDbEntity
  8
0
100
AcDbLine
 62
7
  6
CONTINUOUS
 10
260.0091603466
 20
282.024505802
 11
260.0091603466
 21
322.974505802
  0
LINE
  5
368
100
AcDbEntity
  8
0
100
AcDbLine
 62
7
  6
CONTINUOUS
 10
339.7835033246
 20
380.661685993
 11
340.3599999646
 21
381.5995058021
  0
LINE
  5
369
100
AcDbEntity
  8
0
100
AcDbLine
 62
7
  6
CONTINUOUS
 10
177.1830604225
 20
335.4877233363
 11
177.2020058695
 21
335.4912336314
  0
LWPOLYLINE
  5
36A
100
AcDbEntity
  8
0
100
AcDbPolyline
 62
7
  6
CONTINUOUS
 90
3
 70
0
 10
177.197849609
 20
335.4905493551
 10
177.2098104175
 20
335.4923278856
 10
177.2134789953
 20
335.4925856026
  0
LINE
  5
36B
100
AcDbEntity
  8
0
100
AcDbLine
 62
7
  6
CONTINUOUS
 10
264.2040017121
 20
335.4908269109
 11
264.2550029429
 21
335.4968035104
  0
LINE
  5
36C
100
AcDbEntity
  8
0
100
AcDbLine
 62
7
  6
CONTINUOUS
 10
177.2223462064
 20
335.4948188537
 11
177.2456398915
 21
335.4972757365
  0
LINE
  5
36D
100
AcDbEntity
  8
0
100
AcDbLine
 62
7
  6
CONTINUOUS
 10
310.6377135684
 20
331.8723378468
 11
306.7841603467
 21
331.7495058084
  0
LINE
  5
36E
100
AcDbEntity
  8
0
100
AcDbLine
 62
7
  6
CONTINUOUS
 10
255.7639984771
 20
327.499505802
 11
267.8537186121
 21
327.499505802
  0
LINE
  5
36F
100
AcDbEntity
  8
0
100
AcDbLine
 62
7
  6
CONTINUOUS
 10
137.6613283234
 20
329.1223378328
 11
137.7841603643
 21
329.1223378123
  0
LINE
  5
370
100
AcDbEntity
  8
0
100
AcDbLine
 62
7
  6
CONTINUOUS
 10
287.7841603466
 20
329.999505802
 11
268.0024001412
 21
329.999505802
  0
LINE
  5
371
100
AcDbEntity
  8
0
100
AcDbLine
 62
7
  6
CONTINUOUS
 10
191.2495790349
 20
329.999505802
 11
171.7841603466
 21
329.999505802
  0
LINE
  5
372
100
AcDbEntity
  8
0
100
AcDbLine
 62
7
  6
CONTINUOUS
 10
306.7841603467
 20
331.7495058084
 11
319.5263944674
 21
331.7495057884
  0
LINE
  5
373
100
AcDbEntity
  8
0
100
AcDbLine
 62
7
  6
CONTINUOUS
 10
310.6377135684
 20
331.8723378468
 11
319.6995178195
 21
331.8723378325
  0
LINE
  5
374
100
AcDbEntity
  8
0
100
AcDbLine
 62
7
  6
CONTINUOUS
 10
140.6611661638
 20
332.1223378085
 11
152.7841603466
 21
332.1223378771
  0
LINE
  5
375
100
AcDbEntity
  8
0
100
AcDbLine
 62
7
  6
CONTINUOUS
 10
265.259384494
 20
332.2995058027
 11
264.2908389191
 21
332.2995058027
  0
LINE
  5
376
100
AcDbEntity
  8
0
100
AcDbLine
 62
7
  6
CONTINUOUS
 10
171.7841603466
 20
334.999505802
 11
175.2841603466
 21
334.999505802
  0
LINE
  5
377
100
AcDbEntity
  8
0
100
AcDbLine
 62
7
  6
CONTINUOUS
 10
284.2841603466
 20
334.999505802
 11
287.7841603466
 21
334.999505802
  0
LINE
  5
378
100
AcDbEntity
  8
0
100
AcDbLine
 62
7
  6
CONTINUOUS
 10
177.2910516399
 20
335.4919020323
 11
191.2368990678
 21
335.4921378722
  0
LINE
  5
379
100
AcDbEntity
  8
0
100
AcDbLine
 62
7
  6
CONTINUOUS
 10
264.2897862039
 20
335.4951835852
 11
282.203342364
 21
335.4954815074
  0
LINE
  5
37A
100
AcDbEntity
  8
0
100
AcDbLine
 62
7
  6
CONTINUOUS
 10
177.2781774111
 20
335.4938198804
 11
191.2233703373
 21
335.4940557092
  0
LINE
  5
37B
100
AcDbEntity
  8
0
100
AcDbLine
 62
7
  6
CONTINUOUS
 10
264.2931598127
 20
335.4957818663
 11
282.1869240658
 21
335.4960794594
  0
LINE
  5
37C
100
AcDbEntity
  8
0
100
AcDbLine
 62
7
  6
CONTINUOUS
 10
283.9948302328
 20
336.999505802
 11
264.3862554764
 21
336.999505802
  0
LINE
  5
37D
100
AcDbEntity
  8
0
100
AcDbLine
 62
7
  6
CONTINUOUS
 10
191.217280101
 20
336.999505802
 11
175.7049560361
 21
336.999505802
  0
LINE
  5
37E
100
AcDbEntity
  8
0
100
AcDbLine
 62
7
  6
CONTINUOUS
 10
176.7861188494
 20
334.9942002571
 11
176.7866277152
 21
334.9941964281
  0
LWPOLYLINE
  5
37F
100
AcDbEntity
  8
0
100
AcDbPolyline
 62
7
  6
CONTINUOUS
 90
11
 70
0
 10
191.2143395181
 20
335.4936748829
 10
191.2357133136
 20
335.4932570503
 10
191.3124007766
 20
335.4850099028
 10
191.3972954881
 20
335.4632143369
 10
191.4712448044
 20
335.4320288886
 10
191.5308165404
 20
335.3970152741
 10
191.5787918798
 20
335.3608899958
 10
191.6182789516
 20
335.3243709784
 10
191.6526196593
 20
335.2860724059
 10
191.6845281629
 20
335.2431536854
 10
191.6900683543
 20
335.234778724
  0
LINE
  5
380
100
AcDbEntity
  8
0
100
AcDbLine
 62
7
  6
CONTINUOUS
 10
339.6980964186
 20
166.4762618791
 11
340.3599999646
 21
165.399505802
  0
LINE
  5
381
100
AcDbEntity
  8
0
100
AcDbLine
 62
7
  6
CONTINUOUS
 10
263.559160347
 20
282.024505802
 11
263.559160347
 21
322.974505802
  0
LINE
  5
382
100
AcDbEntity
  8
0
100
AcDbLine
 62
7
  6
CONTINUOUS
 10
263.7841603466
 20
332.8061783149
 11
263.7841603466
 21
336.3974034703
  0
LINE
  5
383
100
AcDbEntity
  8
0
100
AcDbLine
 62
7
  6
CONTINUOUS
 10
264.6841603466
 20
318.599505802
 11
264.6841603466
 21
286.3995058024
  0
LINE
  5
384
100
AcDbEntity
  8
0
100
AcDbLine
 62
7
  6
CONTINUOUS
 10
265.684160347
 20
323.4520181612
 11
265.684160347
 21
318.599505802
  0
LINE
  5
385
100
AcDbEntity
  8
0
100
AcDbLine
 62
7
  6
CONTINUOUS
 10
265.684160347
 20
286.3995058024
 11
265.684160347
 21
281.5378448451
  0
LINE
  5
386
100
AcDbEntity
  8
0
100
AcDbLine
 62
7
  6
CONTINUOUS
 10
268.2841603466
 20
327.0690640676
 11
268.2841603466
 21
278.0355508444
  0
LINE
  5
387
100
AcDbEntity
  8
0
100
AcDbLine
 62
7
  6
CONTINUOUS
 10
321.9069923738
 20
329.6647389711
 11
321.784160321
 21
329.4917399109
  0
LINE
  5
388
100
AcDbEntity
  8
0
100
AcDbLine
 62
7
  6
CONTINUOUS
 10
81.2648761428
 20
339.699505802
 11
123.2335900041
 21
339.699505802
  0
LINE
  5
389
100
AcDbEntity
  8
0
100
AcDbLine
 62
7
  6
CONTINUOUS
 10
152.78416035
 20
342.5995058015
 11
306.7841603465
 21
342.5995058018
  0
LINE
  5
38A
100
AcDbEntity
  8
0
100
AcDbLine
 62
7
  6
CONTINUOUS
 10
148.9306069699
 20
344.7645693111
 11
310.6377135687
 21
344.7645693114
  0
LINE
  5
38B
100
AcDbEntity
  8
0
100
AcDbLine
 62
7
  6
CONTINUOUS
 10
282.2141982631
 20
335.4946861611
 11
282.2861436268
 21
335.4897976036
  0
LINE
  5
38C
100
AcDbEntity
  8
0
100
AcDbLine
 62
7
  6
CONTINUOUS
 10
282.2861436268
 20
335.4897976036
 11
282.2919684103
 21
335.489018548
  0
LINE
  5
38D
100
AcDbEntity
  8
0
100
AcDbLine
 62
7
  6
CONTINUOUS
 10
282.2080954402
 20
335.4951566161
 11
282.2032616344
 21
335.49583363
  0
LWPOLYLINE
  5
38E
100
AcDbEntity
  8
0
100
AcDbPolyline
 62
7
  6
CONTINUOUS
 90
4
 70
0
 10
282.2835121473
 20
335.4902911997
 10
282.2827129811
 20
335.4904073432
 10
282.3158717154
 20
335.4845139361
 10
282.4904978812
 20
335.4174927514
  0
LINE
  5
38F
100
AcDbEntity
  8
0
100
AcDbLine
 62
7
  6
CONTINUOUS
 10
282.7771422285
 20
334.9776886476
 11
282.7793406328
 21
334.9295238054
  0
LINE
  5
390
100
AcDbEntity
  8
0
100
AcDbLine
 62
7
  6
CONTINUOUS
 10
284.2841603466
 20
329.999505802
 11
284.2841603466
 21
336.7101809974
  0
LINE
  5
391
100
AcDbEntity
  8
0
100
AcDbLine
 62
7
  6
CONTINUOUS
 10
285.4912671278
 20
334.999505802
 11
285.4912671278
 21
329.999505802
  0
LINE
  5
392
100
AcDbEntity
  8
0
100
AcDbLine
 62
7
  6
CONTINUOUS
 10
286.198373909
 20
329.999505802
 11
286.198373909
 21
334.999505802
  0
LINE
  5
393
100
AcDbEntity
  8
0
100
AcDbLine
 62
7
  6
CONTINUOUS
 10
286.6149095697
 20
334.999505802
 11
286.6149095697
 21
329.999505802
  0
LINE
  5
394
100
AcDbEntity
  8
0
100
AcDbLine
 62
7
  6
CONTINUOUS
 10
287.5808353962
 20
329.999505802
 11
287.5808353962
 21
334.999505802
  0
LINE
  5
395
100
AcDbEntity
  8
0
100
AcDbLine
 62
7
  6
CONTINUOUS
 10
287.7841603466
 20
334.999505802
 11
287.7841603466
 21
329.999505802
  0
LINE
  5
396
100
AcDbEntity
  8
0
100
AcDbLine
 62
7
  6
CONTINUOUS
 10
282.7808307071
 20
334.9185648233
 11
282.7804047521
 21
329.999505802
  0
LINE
  5
397
100
AcDbEntity
  8
0
100
AcDbLine
 62
7
  6
CONTINUOUS
 10
123.2910030427
 20
353.699505802
 11
82.270691493
 21
353.699505802
  0
LINE
  5
398
100
AcDbEntity
  8
0
100
AcDbLine
 62
7
  6
CONTINUOUS
 10
133.6995515363
 20
358.3338744399
 11
75.5687676506
 21
358.3338744396
  0
LINE
  5
399
100
AcDbEntity
  8
0
100
AcDbLine
 62
7
  6
CONTINUOUS
 10
282.1940823637
 20
335.4972817481
 11
282.1932750886
 21
335.4975319251
  0
LINE
  5
39A
100
AcDbEntity
  8
0
100
AcDbLine
 62
7
  6
CONTINUOUS
 10
282.19420695
 20
335.5040978147
 11
282.1933440111
 21
335.5044102771
  0
LINE
  5
39B
100
AcDbEntity
  8
0
100
AcDbLine
 62
7
  6
CONTINUOUS
 10
265.684160347
 20
323.4520181612
 11
264.6866727062
 21
324.449505802
  0
LINE
  5
39C
100
AcDbEntity
  8
0
100
AcDbLine
 62
7
  6
CONTINUOUS
 10
267.6298415079
 20
330.1538246407
 11
265.643100875
 21
332.1405652736
  0
LINE
  5
39D
100
AcDbEntity
  8
0
100
AcDbLine
 62
7
  6
CONTINUOUS
 10
299.9841603466
 20
273.2744110669
 11
299.9841603466
 21
240.2963167755
  0
LINE
  5
39E
100
AcDbEntity
  8
0
100
AcDbLine
 62
7
  6
CONTINUOUS
 10
299.9841603466
 20
228.6846327002
 11
299.9841603466
 21
210.6480805499
  0
LINE
  5
39F
100
AcDbEntity
  8
0
100
AcDbLine
 62
7
  6
CONTINUOUS
 10
300.2841603466
 20
210.6730525511
 11
300.2841603466
 21
228.7008387999
  0
LINE
  5
3A0
100
AcDbEntity
  8
0
100
AcDbLine
 62
7
  6
CONTINUOUS
 10
300.2841603466
 20
240.3310714713
 11
300.2841603466
 21
273.3681130544
  0
LINE
  5
3A1
100
AcDbEntity
  8
0
100
AcDbLine
 62
7
  6
CONTINUOUS
 10
55.0346290267
 20
372.0746505106
 11
50.9345867586
 21
372.0746505001
  0
LINE
  5
3A2
100
AcDbEntity
  8
0
100
AcDbLine
 62
7
  6
CONTINUOUS
 10
342.9577575826
 20
372.1619258412
 11
338.5337013936
 21
372.1619258457
  0
LINE
  5
3A3
100
AcDbEntity
  8
0
100
AcDbLine
 62
7
  6
CONTINUOUS
 10
55.0341603448
 20
372.197445274
 11
50.6219801561
 21
372.1974452628
  0
LINE
  5
3A4
100
AcDbEntity
  8
0
100
AcDbLine
 62
7
  6
CONTINUOUS
 10
134.9628198243
 20
372.2151371836
 11
74.3054953286
 21
372.215137183
  0
LINE
  5
3A5
100
AcDbEntity
  8
0
100
AcDbLine
 62
7
  6
CONTINUOUS
 10
59.2090156324
 20
376.2495057819
 11
59.0862208821
 21
376.2495057982
  0
LINE
  5
3A6
100
AcDbEntity
  8
0
100
AcDbLine
 62
7
  6
CONTINUOUS
 10
282.5252495437
 20
335.3959048322
 11
282.6070981464
 21
335.3286917226
  0
LINE
  5
3A7
100
AcDbEntity
  8
0
100
AcDbLine
 62
7
  6
CONTINUOUS
 10
282.7682396498
 20
335.0354129927
 11
282.7740561601
 21
335.0044362676
  0
LINE
  5
3A8
100
AcDbEntity
  8
0
100
AcDbLine
 62
7
  6
CONTINUOUS
 10
282.7736133606
 20
335.0074248809
 11
282.77390371
 21
335.005248164
  0
LINE
  5
3A9
100
AcDbEntity
  8
0
100
AcDbLine
 62
7
  6
CONTINUOUS
 10
282.77390371
 20
335.005248164
 11
282.7771422285
 21
334.9776886476
  0
LINE
  5
3AA
100
AcDbEntity
  8
0
100
AcDbLine
 62
7
  6
CONTINUOUS
 10
302.7841603466
 20
321.9793164828
 11
302.7841603466
 21
315.0205743508
  0
LINE
  5
3AB
100
AcDbEntity
  8
0
100
AcDbLine
 62
7
  6
CONTINUOUS
 10
306.7841603466
 20
342.5995058018
 11
306.7841603465
 21
331.7495058025
  0
LINE
  5
3AC
100
AcDbEntity
  8
0
100
AcDbLine
 62
7
  6
CONTINUOUS
 10
306.7841603466
 20
321.2580844457
 11
306.7841603466
 21
319.999505802
  0
LINE
  5
3AD
100
AcDbEntity
  8
0
100
AcDbLine
 62
7
  6
CONTINUOUS
 10
306.7841603466
 20
316.999505802
 11
306.7841603466
 21
315.7409271583
  0
LINE
  5
3AE
100
AcDbEntity
  8
0
100
AcDbLine
 62
7
  6
CONTINUOUS
 10
309.7841603466
 20
319.899505802
 11
309.7841603466
 21
317.099505802
  0
LINE
  5
3AF
100
AcDbEntity
  8
0
100
AcDbLine
 62
7
  6
CONTINUOUS
 10
310.6377135687
 20
344.7645693114
 11
310.6377135684
 21
331.8723378468
  0
LINE
  5
3B0
100
AcDbEntity
  8
0
100
AcDbLine
 62
7
  6
CONTINUOUS
 10
312.2841603466
 20
315.5995058016
 11
312.2841603466
 21
318.499505802
  0
LINE
  5
3B1
100
AcDbEntity
  8
0
100
AcDbLine
 62
7
  6
CONTINUOUS
 10
334.4820998
 20
380.6616859931
 11
334.4465803835
 21
380.522749725
  0
LINE
  5
3B2
100
AcDbEntity
  8
0
100
AcDbLine
 62
7
  6
CONTINUOUS
 10
44.2741923074
 20
378.849505803
 11
44.7722896564
 21
378.849505803
  0
LINE
  5
3B3
100
AcDbEntity
  8
0
100
AcDbLine
 62
7
  6
CONTINUOUS
 10
46.9105787644
 20
378.849505803
 11
47.410559726
 21
378.849505803
  0
LINE
  5
3B4
100
AcDbEntity
  8
0
100
AcDbLine
 62
7
  6
CONTINUOUS
 10
47.4167294575
 20
378.849505803
 11
47.7167180344
 21
378.849505803
  0
LINE
  5
3B5
100
AcDbEntity
  8
0
100
AcDbLine
 62
7
  6
CONTINUOUS
 10
345.8516026584
 20
378.849505802
 11
346.1515912354
 21
378.849505802
  0
LINE
  5
3B6
100
AcDbEntity
  8
0
100
AcDbLine
 62
7
  6
CONTINUOUS
 10
346.1577609669
 20
378.849505802
 11
346.6577419284
 21
378.849505802
  0
LINE
  5
3B7
100
AcDbEntity
  8
0
100
AcDbLine
 62
7
  6
CONTINUOUS
 10
348.7960310364
 20
378.849505802
 11
349.2941283855
 21
378.849505802
  0
LINE
  5
3B8
100
AcDbEntity
  8
0
100
AcDbLine
 62
7
  6
CONTINUOUS
 10
59.2090156443
 20
380.34907939
 11
63.4841603456
 21
380.34907939
  0
LINE
  5
3B9
100
AcDbEntity
  8
0
100
AcDbLine
 62
7
  6
CONTINUOUS
 10
70.0841603466
 20
380.34907939
 11
134.6346738608
 21
380.34907939
  0
LINE
  5
3BA
100
AcDbEntity
  8
0
100
AcDbLine
 62
7
  6
CONTINUOUS
 10
334.4465803835
 20
380.522749725
 11
330.0841603466
 21
380.522749725
  0
LINE
  5
3BB
100
AcDbEntity
  8
0
100
AcDbLine
 62
7
  6
CONTINUOUS
 10
323.4841603456
 20
380.522749725
 11
134.6346738608
 21
380.522749725
  0
LINE
  5
3BC
100
AcDbEntity
  8
0
100
AcDbLine
 62
7
  6
CONTINUOUS
 10
237.2955576524
 20
380.6166778988
 11
235.2814809051
 21
380.6166779217
  0
LINE
  5
3BD
100
AcDbEntity
  8
0
100
AcDbLine
 62
7
  6
CONTINUOUS
 10
218.3241161668
 20
380.6166778987
 11
216.2795733541
 21
380.6166779136
  0
LINE
  5
3BE
100
AcDbEntity
  8
0
100
AcDbLine
 62
7
  6
CONTINUOUS
 10
339.7835033339
 20
380.661685993
 11
334.4820998003
 21
380.661685993
  0
LINE
  5
3BF
100
AcDbEntity
  8
0
100
AcDbLine
 62
7
  6
CONTINUOUS
 10
53.9154261976
 20
380.661685993
 11
59.0862208949
 21
380.661685993
  0
LINE
  5
3C0
100
AcDbEntity
  8
0
100
AcDbLine
 62
7
  6
CONTINUOUS
 10
330.0841603466
 20
380.731154127
 11
328.7841603466
 21
380.731154127
  0
LINE
  5
3C1
100
AcDbEntity
  8
0
100
AcDbLine
 62
7
  6
CONTINUOUS
 10
324.7841603466
 20
380.731154127
 11
323.4841603456
 21
380.731154127
  0
LINE
  5
3C2
100
AcDbEntity
  8
0
100
AcDbLine
 62
7
  6
CONTINUOUS
 10
70.0841603466
 20
380.731154127
 11
68.7841603466
 21
380.731154127
  0
LINE
  5
3C3
100
AcDbEntity
  8
0
100
AcDbLine
 62
7
  6
CONTINUOUS
 10
64.7841603466
 20
380.731154127
 11
63.4841603456
 21
380.731154127
  0
LINE
  5
3C4
100
AcDbEntity
  8
0
100
AcDbLine
 62
7
  6
CONTINUOUS
 10
330.7841603466
 20
380.8457765481
 11
328.7841603466
 21
380.8457765481
  0
LINE
  5
3C5
100
AcDbEntity
  8
0
100
AcDbLine
 62
7
  6
CONTINUOUS
 10
324.7841603466
 20
380.8457765481
 11
318.7841603466
 21
380.8457765481
  0
LINE
  5
3C6
100
AcDbEntity
  8
0
100
AcDbLine
 62
7
  6
CONTINUOUS
 10
58.7841603466
 20
380.845776548
 11
64.7841603466
 21
380.845776548
  0
LINE
  5
3C7
100
AcDbEntity
  8
0
100
AcDbLine
 62
7
  6
CONTINUOUS
 10
68.7841603466
 20
380.845776548
 11
70.7841603466
 21
380.845776548
  0
LINE
  5
3C8
100
AcDbEntity
  8
0
100
AcDbLine
 62
7
  6
CONTINUOUS
 10
231.7242676135
 20
380.9041632105
 11
221.7997526181
 21
380.9041635429
  0
LINE
  5
3C9
100
AcDbEntity
  8
0
100
AcDbLine
 62
7
  6
CONTINUOUS
 10
221.8609203369
 20
381.1647131396
 11
222.2841603454
 21
381.1647131256
  0
LINE
  5
3CA
100
AcDbEntity
  8
0
100
AcDbLine
 62
7
  6
CONTINUOUS
 10
231.2841603454
 20
381.1647128281
 11
231.8370430725
 21
381.1647128098
  0
LINE
  5
3CB
100
AcDbEntity
  8
0
100
AcDbLine
 62
7
  6
CONTINUOUS
 10
231.2841603466
 20
381.199505802
 11
222.2841603466
 21
381.199505802
  0
LINE
  5
3CC
100
AcDbEntity
  8
0
100
AcDbLine
 62
7
  6
CONTINUOUS
 10
330.7841603466
 20
381.231324692
 11
327.6040644164
 21
381.231324692
  0
LINE
  5
3CD
100
AcDbEntity
  8
0
100
AcDbLine
 62
7
  6
CONTINUOUS
 10
70.7841603466
 20
381.231324692
 11
67.6040644164
 21
381.231324692
  0
LINE
  5
3CE
100
AcDbEntity
  8
0
100
AcDbLine
 62
7
  6
CONTINUOUS
 10
58.7841603466
 20
381.386810794
 11
59.3381268935
 21
381.386810794
  0
LINE
  5
3CF
100
AcDbEntity
  8
0
100
AcDbLine
 62
7
  6
CONTINUOUS
 10
318.7841603466
 20
381.386810794
 11
319.3381268935
 21
381.386810794
  0
LINE
  5
3D0
100
AcDbEntity
  8
0
100
AcDbLine
 62
7
  6
CONTINUOUS
 10
326.7841603466
 20
381.549505802
 11
319.6841640304
 21
381.549505802
  0
LINE
  5
3D1
100
AcDbEntity
  8
0
100
AcDbLine
 62
7
  6
CONTINUOUS
 10
66.7841603466
 20
381.549505802
 11
59.6841640304
 21
381.549505802
  0
LINE
  5
3D2
100
AcDbEntity
  8
0
100
AcDbLine
 62
7
  6
CONTINUOUS
 10
53.20813273
 20
381.599505802
 11
216.2841603466
 21
381.599505802
  0
LINE
  5
3D3
100
AcDbEntity
  8
0
100
AcDbLine
 62
7
  6
CONTINUOUS
 10
218.2841603466
 20
381.599505802
 11
235.2841603466
 21
381.599505802
  0
LINE
  5
3D4
100
AcDbEntity
  8
0
100
AcDbLine
 62
7
  6
CONTINUOUS
 10
237.2841603466
 20
381.599505802
 11
340.3601983227
 21
381.599505802
  0
LINE
  5
3D5
100
AcDbEntity
  8
0
100
AcDbLine
 62
7
  6
CONTINUOUS
 10
44.274192391
 20
381.749505806
 11
44.0900651546
 21
381.749505806
  0
LINE
  5
3D6
100
AcDbEntity
  8
0
100
AcDbLine
 62
7
  6
CONTINUOUS
 10
349.2941282877
 20
381.749505802
 11
349.4782556615
 21
381.749505802
  0
LINE
  5
3D7
100
AcDbEntity
  8
0
100
AcDbLine
 62
7
  6
CONTINUOUS
 10
52.434160345
 20
383.5669481138
 11
216.2841603466
 21
383.5669481141
  0
LINE
  5
3D8
100
AcDbEntity
  8
0
100
AcDbLine
 62
7
  6
CONTINUOUS
 10
218.2841603466
 20
383.5669481141
 11
235.2841603466
 21
383.5669481141
  0
LINE
  5
3D9
100
AcDbEntity
  8
0
100
AcDbLine
 62
7
  6
CONTINUOUS
 10
237.2841603466
 20
383.5669481141
 11
341.1341603472
 21
383.5669481142
  0
LINE
  5
3DA
100
AcDbEntity
  8
0
100
AcDbLine
 62
7
  6
CONTINUOUS
 10
341.1341603466
 20
383.8669366913
 11
237.2841603466
 21
383.8669366913
  0
LINE
  5
3DB
100
AcDbEntity
  8
0
100
AcDbLine
 62
7
  6
CONTINUOUS
 10
235.2841603466
 20
383.8669366913
 11
218.2841603466
 21
383.8669366913
  0
LINE
  5
3DC
100
AcDbEntity
  8
0
100
AcDbLine
 62
7
  6
CONTINUOUS
 10
216.2841603466
 20
383.8669366913
 11
52.4341603456
 21
383.8669366913
  0
LINE
  5
3DD
100
AcDbEntity
  8
0
100
AcDbLine
 62
7
  6
CONTINUOUS
 10
341.1341603466
 20
384.3730873842
 11
237.2841603466
 21
384.3730873841
  0
LINE
  5
3DE
100
AcDbEntity
  8
0
100
AcDbLine
 62
7
  6
CONTINUOUS
 10
235.2841603466
 20
384.3730873841
 11
218.2841603466
 21
384.3730873841
  0
LINE
  5
3DF
100
AcDbEntity
  8
0
100
AcDbLine
 62
7
  6
CONTINUOUS
 10
216.2841603466
 20
384.3730873841
 11
52.4341603456
 21
384.3730873838
  0
LINE
  5
3E0
100
AcDbEntity
  8
0
100
AcDbLine
 62
7
  6
CONTINUOUS
 10
216.2841603466
 20
384.6963089834
 11
218.2841603466
 21
384.6963089834
  0
LINE
  5
3E1
100
AcDbEntity
  8
0
100
AcDbLine
 62
7
  6
CONTINUOUS
 10
235.2841603466
 20
384.6963089834
 11
237.2841603466
 21
384.6963089834
  0
LINE
  5
3E2
100
AcDbEntity
  8
0
100
AcDbLine
 62
7
  6
CONTINUOUS
 10
237.2841603466
 20
384.799505802
 11
235.2841603466
 21
384.799505802
  0
LINE
  5
3E3
100
AcDbEntity
  8
0
100
AcDbLine
 62
7
  6
CONTINUOUS
 10
218.2841603466
 20
384.799505802
 11
216.2841603466
 21
384.799505802
  0
LINE
  5
3E4
100
AcDbEntity
  8
0
100
AcDbLine
 62
7
  6
CONTINUOUS
 10
52.4341603456
 20
386.5113764918
 11
341.1341603466
 21
386.5113764922
  0
LINE
  5
3E5
100
AcDbEntity
  8
0
100
AcDbLine
 62
7
  6
CONTINUOUS
 10
344.0348090119
 20
387.009473743
 11
49.5335103978
 21
387.009473743
  0
LINE
  5
3E6
100
AcDbEntity
  8
0
100
AcDbLine
 62
7
  6
CONTINUOUS
 10
344.0341603506
 20
387.1936011169
 11
49.5341603466
 21
387.1936011169
  0
LINE
  5
3E7
100
AcDbEntity
  8
0
100
AcDbLine
 62
7
  6
CONTINUOUS
 10
343.5586261461
 20
388.720971601
 11
50.0096945481
 21
388.7209716011
  0
LINE
  5
3E8
100
AcDbEntity
  8
0
100
AcDbLine
 62
7
  6
CONTINUOUS
 10
303.8548710243
 20
318.4287951244
 11
306.6134496686
 21
315.6702164801
  0
LINE
  5
3E9
100
AcDbEntity
  8
0
100
AcDbLine
 62
7
  6
CONTINUOUS
 10
316.6134496704
 20
318.6702164781
 11
313.8548710234
 21
321.4287951251
  0
LWPOLYLINE
  5
3EA
100
AcDbEntity
  8
0
100
AcDbPolyline
 62
7
  6
CONTINUOUS
 90
3
 70
0
 10
282.4904978812
 20
335.4174927514
 10
282.7066325712
 20
335.1979386794
 10
282.7682396498
 20
335.0354129927
  0
LINE
  5
3EB
100
AcDbEntity
  8
0
100
AcDbLine
 62
7
  6
CONTINUOUS
 10
315.2841603466
 20
318.499505802
 11
315.2841603466
 21
315.5995058016
  0
LINE
  5
3EC
100
AcDbEntity
  8
0
100
AcDbLine
 62
7
  6
CONTINUOUS
 10
317.7841603466
 20
315.0123914097
 11
317.7841603466
 21
321.9795740543
  0
LINE
  5
3ED
100
AcDbEntity
  8
0
100
AcDbLine
 62
7
  6
CONTINUOUS
 10
318.7841603466
 20
381.3868107942
 11
318.7841603466
 21
380.8457765483
  0
LINE
  5
3EE
100
AcDbEntity
  8
0
100
AcDbLine
 62
7
  6
CONTINUOUS
 10
319.1841603466
 20
381.0495021182
 11
319.1841603466
 21
380.939894005
  0
LINE
  5
3EF
100
AcDbEntity
  8
0
100
AcDbLine
 62
7
  6
CONTINUOUS
 10
319.3841603466
 20
235.9137177779
 11
319.3841603466
 21
204.399505802
  0
LINE
  5
3F0
100
AcDbEntity
  8
0
100
AcDbLine
 62
7
  6
CONTINUOUS
 10
321.784160321
 20
329.4917399109
 11
321.784160361
 21
318.585290201
  0
LINE
  5
3F1
100
AcDbEntity
  8
0
100
AcDbLine
 62
7
  6
CONTINUOUS
 10
321.9069923742
 20
329.6648582669
 11
321.906992415
 21
318.5852902661
  0
LINE
  5
3F2
100
AcDbEntity
  8
0
100
AcDbLine
 62
7
  6
CONTINUOUS
 10
322.7841603466
 20
166.1532350565
 11
322.7841603466
 21
165.7676869126
  0
LINE
  5
3F3
100
AcDbEntity
  8
0
100
AcDbLine
 62
7
  6
CONTINUOUS
 10
323.4841603456
 20
380.7311541271
 11
323.4841603456
 21
378.449505802
  0
LINE
  5
3F4
100
AcDbEntity
  8
0
100
AcDbLine
 62
7
  6
CONTINUOUS
 10
323.4841603456
 20
166.267857477
 11
323.4841603456
 21
168.5495057967
  0
LINE
  5
3F5
100
AcDbEntity
  8
0
100
AcDbLine
 62
7
  6
CONTINUOUS
 10
324.7841603466
 20
380.8457765476
 11
324.7841603466
 21
380.7311541265
  0
LINE
  5
3F6
100
AcDbEntity
  8
0
100
AcDbLine
 62
7
  6
CONTINUOUS
 10
324.7841603466
 20
166.2678574776
 11
324.7841603466
 21
166.1532350565
  0
LINE
  5
3F7
100
AcDbEntity
  8
0
100
AcDbLine
 62
7
  6
CONTINUOUS
 10
328.7841603466
 20
166.1532350565
 11
328.7841603466
 21
166.2678574776
  0
LINE
  5
3F8
100
AcDbEntity
  8
0
100
AcDbLine
 62
7
  6
CONTINUOUS
 10
328.7841603466
 20
380.7311541265
 11
328.7841603466
 21
380.8457765476
  0
LINE
  5
3F9
100
AcDbEntity
  8
0
100
AcDbLine
 62
7
  6
CONTINUOUS
 10
330.0841603466
 20
166.267857477
 11
330.0841603466
 21
168.549505802
  0
LINE
  5
3FA
100
AcDbEntity
  8
0
100
AcDbLine
 62
7
  6
CONTINUOUS
 10
330.0841603466
 20
378.4495058
 11
330.0841603466
 21
380.7311541271
  0
LINE
  5
3FB
100
AcDbEntity
  8
0
100
AcDbLine
 62
7
  6
CONTINUOUS
 10
330.7841603466
 20
380.8457765476
 11
330.7841603466
 21
381.2313246915
  0
LINE
  5
3FC
100
AcDbEntity
  8
0
100
AcDbLine
 62
7
  6
CONTINUOUS
 10
334.3841603466
 20
165.9495094859
 11
334.3841603466
 21
166.0591175991
  0
LINE
  5
3FD
100
AcDbEntity
  8
0
100
AcDbLine
 62
7
  6
CONTINUOUS
 10
334.4465803937
 20
376.2492292935
 11
334.4465803835
 21
380.522749725
  0
LINE
  5
3FE
100
AcDbEntity
  8
0
100
AcDbLine
 62
7
  6
CONTINUOUS
 10
334.7841603466
 20
165.6122008104
 11
334.7841603466
 21
166.1532350563
  0
LINE
  5
3FF
100
AcDbEntity
  8
0
100
AcDbLine
 62
7
  6
CONTINUOUS
 10
341.1341603466
 20
387.0094738413
 11
341.1341603466
 21
386.5113764922
  0
LINE
  5
400
100
AcDbEntity
  8
0
100
AcDbLine
 62
7
  6
CONTINUOUS
 10
341.1341603466
 20
384.3730873842
 11
341.1341603466
 21
383.8731064227
  0
LINE
  5
401
100
AcDbEntity
  8
0
100
AcDbLine
 62
7
  6
CONTINUOUS
 10
341.1341603466
 20
383.8669366912
 11
341.1341603466
 21
383.5669481142
  0
LINE
  5
402
100
AcDbEntity
  8
0
100
AcDbLine
 62
7
  6
CONTINUOUS
 10
341.1341603466
 20
163.43206349
 11
341.1341603466
 21
163.1320749131
  0
LINE
  5
403
100
AcDbEntity
  8
0
100
AcDbLine
 62
7
  6
CONTINUOUS
 10
341.1341603466
 20
163.1259051816
 11
341.1341603466
 21
162.62592422
  0
LINE
  5
404
100
AcDbEntity
  8
0
100
AcDbLine
 62
7
  6
CONTINUOUS
 10
341.1341603466
 20
160.487635112
 11
341.1341603466
 21
159.989537763
  0
LINE
  5
405
100
AcDbEntity
  8
0
100
AcDbLine
 62
7
  6
CONTINUOUS
 10
342.957757583
 20
372.1619258412
 11
342.957757583
 21
318.5853014316
  0
LINE
  5
406
100
AcDbEntity
  8
0
100
AcDbLine
 62
7
  6
CONTINUOUS
 10
342.957757583
 20
235.9137108657
 11
342.957757583
 21
169.735923043
  0
LINE
  5
407
100
AcDbEntity
  8
0
100
AcDbLine
 62
7
  6
CONTINUOUS
 10
343.0771440037
 20
318.5853014949
 11
343.0771440037
 21
235.9137170532
  0
LINE
  5
408
100
AcDbEntity
  8
0
100
AcDbLine
 62
7
  6
CONTINUOUS
 10
343.0772934235
 20
377.367895899
 11
343.0772934235
 21
372.197445252
  0
LINE
  5
409
100
AcDbEntity
  8
0
100
AcDbLine
 62
7
  6
CONTINUOUS
 10
343.8841603466
 20
378.0755359055
 11
343.8841603466
 21
168.9235257985
  0
LINE
  5
40A
100
AcDbEntity
  8
0
100
AcDbLine
 62
7
  6
CONTINUOUS
 10
344.0341603506
 20
387.1936011169
 11
344.0341603506
 21
387.0094737431
  0
LINE
  5
40B
100
AcDbEntity
  8
0
100
AcDbLine
 62
7
  6
CONTINUOUS
 10
344.0341603503
 20
159.9895378609
 11
344.0341603469
 21
159.8054104874
  0
LINE
  5
40C
100
AcDbEntity
  8
0
100
AcDbLine
 62
7
  6
CONTINUOUS
 10
345.8516026584
 20
378.8495058048
 11
345.8516026587
 21
168.1495058011
  0
LINE
  5
40D
100
AcDbEntity
  8
0
100
AcDbLine
 62
7
  6
CONTINUOUS
 10
346.1515912359
 20
168.149505802
 11
346.1515912359
 21
378.849505802
  0
LINE
  5
40E
100
AcDbEntity
  8
0
100
AcDbLine
 62
7
  6
CONTINUOUS
 10
346.6577419287
 20
168.149505802
 11
346.6577419284
 21
378.849505802
  0
LINE
  5
40F
100
AcDbEntity
  8
0
100
AcDbLine
 62
7
  6
CONTINUOUS
 10
348.7960310364
 20
378.849505802
 11
348.7960310367
 21
168.149505802
  0
LINE
  5
410
100
AcDbEntity
  8
0
100
AcDbLine
 62
7
  6
CONTINUOUS
 10
349.2941282876
 20
165.2488571271
 11
349.2941282876
 21
381.7501545166
  0
LINE
  5
411
100
AcDbEntity
  8
0
100
AcDbLine
 62
7
  6
CONTINUOUS
 10
349.4782556615
 20
165.249505798
 11
349.4782556615
 21
381.749505802
  0
LINE
  5
412
100
AcDbEntity
  8
0
100
AcDbLine
 62
7
  6
CONTINUOUS
 10
351.0056261456
 20
165.725040003
 11
351.0056261456
 21
381.273971601
  0
ARC
  5
413
100
AcDbEntity
  8
0
100
AcDbCircle
 62
7
  6
CONTINUOUS
 10
-1584.9644722943
 20
194.279746556
 40
1888.3916637797
100
AcDbArc
 50
359.1563826937
 51
0.3070455567
  0
ARC
  5
414
100
AcDbEntity
  8
0
100
AcDbCircle
 62
7
  6
CONTINUOUS
 10
50.0100413599
 20
165.7253868154
 40
7.4473468305
100
AcDbArc
 50
180.004000138
 51
269.9960002581
  0
ARC
  5
415
100
AcDbEntity
  8
0
100
AcDbCircle
 62
7
  6
CONTINUOUS
 10
49.5343902096
 20
165.24973545
 40
5.4444221368
100
AcDbArc
 50
180.007655797
 51
269.9897858478
  0
ARC
  5
416
100
AcDbEntity
  8
0
100
AcDbCircle
 62
7
  6
CONTINUOUS
 10
49.5343902096
 20
165.24973545
 40
5.2602839192
100
AcDbArc
 50
180.0071102509
 51
269.9902358937
  0
ARC
  5
417
100
AcDbEntity
  8
0
100
AcDbCircle
 62
7
  6
CONTINUOUS
 10
52.4341603456
 20
168.149505801
 40
8.2512692708
100
AcDbArc
 50
188.5313395303
 51
261.4686633984
  0
ARC
  5
418
100
AcDbEntity
  8
0
100
AcDbCircle
 62
7
  6
CONTINUOUS
 10
52.4341603456
 20
168.149505801
 40
8.1599680375
100
AcDbArc
 50
180.0
 51
270.0
  0
ARC
  5
419
100
AcDbEntity
  8
0
100
AcDbCircle
 62
7
  6
CONTINUOUS
 10
52.4341603456
 20
168.149505801
 40
7.6618706885
100
AcDbArc
 50
180.0
 51
270.0
  0
ARC
  5
41A
100
AcDbEntity
  8
0
100
AcDbCircle
 62
7
  6
CONTINUOUS
 10
52.4341603456
 20
168.149505801
 40
5.523581581
100
AcDbArc
 50
180.0
 51
270.0
  0
ARC
  5
41B
100
AcDbEntity
  8
0
100
AcDbCircle
 62
7
  6
CONTINUOUS
 10
52.4341603456
 20
168.149505801
 40
5.0236006195
100
AcDbArc
 50
180.0
 51
269.9999999999
  0
ARC
  5
41C
100
AcDbEntity
  8
0
100
AcDbCircle
 62
7
  6
CONTINUOUS
 10
52.4341603456
 20
168.149505801
 40
5.0174308878
100
AcDbArc
 50
180.0
 51
269.9999999999
  0
ARC
  5
41D
100
AcDbEntity
  8
0
100
AcDbCircle
 62
7
  6
CONTINUOUS
 10
52.4341603456
 20
168.149505801
 40
4.7174423109
100
AcDbArc
 50
180.0000000026
 51
270.0000000084
  0
ARC
  5
41E
100
AcDbEntity
  8
0
100
AcDbCircle
 62
7
  6
CONTINUOUS
 10
55.0339738326
 20
170.749319288
 40
4.1751163169
100
AcDbArc
 50
0.0089925325
 51
89.991008389
  0
ARC
  5
41F
100
AcDbEntity
  8
0
100
AcDbCircle
 62
7
  6
CONTINUOUS
 10
55.0339738326
 20
170.749319288
 40
4.0523139155
100
AcDbArc
 50
0.0085839447
 51
89.9914155169
  0
ARC
  5
420
100
AcDbEntity
  8
0
100
AcDbCircle
 62
7
  6
CONTINUOUS
 10
53.2085692481
 20
168.9239147035
 40
3.5244089101
100
AcDbArc
 50
180.0054077696
 51
269.9937296016
  0
CIRCLE
  5
421
100
AcDbEntity
  8
0
100
AcDbCircle
 62
7
  6
CONTINUOUS
 10
54.7341582446
 20
170.4495037
 40
2.8
  0
CIRCLE
  5
422
100
AcDbEntity
  8
0
100
AcDbCircle
 62
7
  6
CONTINUOUS
 10
54.7341582446
 20
170.4495037
 40
2.6542941204
  0
CIRCLE
  5
423
100
AcDbEntity
  8
0
100
AcDbCircle
 62
7
  6
CONTINUOUS
 10
54.7341582446
 20
170.449505802
 40
1.409836295
  0
ARC
  5
424
100
AcDbEntity
  8
0
100
AcDbCircle
 62
7
  6
CONTINUOUS
 10
73.8841603466
 20
166.059117599
 40
0.5
100
AcDbArc
 50
0.0
 51
11.4763860058
  0
ARC
  5
425
100
AcDbEntity
  8
0
100
AcDbCircle
 62
7
  6
CONTINUOUS
 10
73.8841603466
 20
165.949505802
 40
0.5
100
AcDbArc
 50
270.0
 51
360.0
  0
ARC
  5
426
100
AcDbEntity
  8
0
100
AcDbCircle
 62
7
  6
CONTINUOUS
 10
66.7841603466
 20
168.549505802
 40
3.3000000001
100
AcDbArc
 50
0.0000000098
 51
180.0000000882
  0
ARC
  5
427
100
AcDbEntity
  8
0
100
AcDbCircle
 62
7
  6
CONTINUOUS
 10
66.7841603466
 20
168.549505802
 40
3.1
100
AcDbArc
 50
232.4868725198
 51
270.0
  0
CIRCLE
  5
428
100
AcDbEntity
  8
0
100
AcDbCircle
 62
7
  6
CONTINUOUS
 10
66.7841603466
 20
168.549505802
 40
3.0
  0
CIRCLE
  5
429
100
AcDbEntity
  8
0
100
AcDbCircle
 62
7
  6
CONTINUOUS
 10
66.7841603466
 20
168.549505802
 40
2.0
  0
ARC
  5
42A
100
AcDbEntity
  8
0
100
AcDbCircle
 62
7
  6
CONTINUOUS
 10
82.0978334296
 20
191.4131788844
 40
1.3136730827
100
AcDbArc
 50
179.9999999391
 51
270.0000000174
  0
ARC
  5
42B
100
AcDbEntity
  8
0
100
AcDbCircle
 62
7
  6
CONTINUOUS
 10
82.1353544416
 20
191.4506998972
 40
1.0511940952
100
AcDbArc
 50
180.0000000435
 51
270.0000000109
  0
ARC
  5
42C
100
AcDbEntity
  8
0
100
AcDbCircle
 62
7
  6
CONTINUOUS
 10
116.79380197
 20
173.5911863218
 40
2.0916805249
100
AcDbArc
 50
180.0053966295
 51
269.9936496866
  0
ARC
  5
42D
100
AcDbEntity
  8
0
100
AcDbCircle
 62
7
  6
CONTINUOUS
 10
145.3832472315
 20
173.5024181969
 40
2.0029106613
100
AcDbArc
 50
270.0043427853
 51
359.99514714
  0
ARC
  5
42E
100
AcDbEntity
  8
0
100
AcDbCircle
 62
7
  6
CONTINUOUS
 10
145.1957350538
 20
173.5025027271
 40
2.0028658874
100
AcDbArc
 50
274.7303084898
 51
359.995685522
  0
ARC
  5
42F
100
AcDbEntity
  8
0
100
AcDbCircle
 62
7
  6
CONTINUOUS
 10
116.9401607662
 20
173.5003386779
 40
2.0008329968
100
AcDbArc
 50
180.004010285
 51
265.8163666277
  0
ARC
  5
430
100
AcDbEntity
  8
0
100
AcDbCircle
 62
7
  6
CONTINUOUS
 10
117.9668731974
 20
178.0022186512
 40
1.30271285
100
AcDbArc
 50
179.9999999978
 51
269.9999999803
  0
ARC
  5
431
100
AcDbEntity
  8
0
100
AcDbCircle
 62
7
  6
CONTINUOUS
 10
143.9907598374
 20
177.9729063109
 40
1.2734005097
100
AcDbArc
 50
270.0000000202
 51
359.9999999798
  0
ARC
  5
432
100
AcDbEntity
  8
0
100
AcDbCircle
 62
7
  6
CONTINUOUS
 10
117.9821214778
 20
178.0174669332
 40
1.0179611312
100
AcDbArc
 50
179.9999999102
 51
270.0000000056
  0
ARC
  5
433
100
AcDbEntity
  8
0
100
AcDbCircle
 62
7
  6
CONTINUOUS
 10
143.9765286858
 20
177.9871374628
 40
0.9876316608
100
AcDbArc
 50
269.9999999939
 51
359.9999999193
  0
ARC
  5
434
100
AcDbEntity
  8
0
100
AcDbCircle
 62
7
  6
CONTINUOUS
 10
130.9841603466
 20
193.369505802
 40
3.0000000002
100
AcDbArc
 50
227.1665719304
 51
312.8334280696
  0
ARC
  5
435
100
AcDbEntity
  8
0
100
AcDbCircle
 62
7
  6
CONTINUOUS
 10
125.9041603466
 20
193.369505802
 40
3.0000000002
100
AcDbArc
 50
227.1665719304
 51
312.8334280696
  0
ARC
  5
436
100
AcDbEntity
  8
0
100
AcDbCircle
 62
7
  6
CONTINUOUS
 10
136.0641603466
 20
193.369505802
 40
3.0000000002
100
AcDbArc
 50
227.1665719304
 51
312.8334280696
  0
ARC
  5
437
100
AcDbEntity
  8
0
100
AcDbCircle
 62
7
  6
CONTINUOUS
 10
117.0667823237
 20
202.7481538102
 40
2.3646608793
100
AcDbArc
 50
92.0667129819
 51
177.9178522751
  0
ARC
  5
438
100
AcDbEntity
  8
0
100
AcDbCircle
 62
7
  6
CONTINUOUS
 10
116.9679093943
 20
202.5248349748
 40
2.0285812753
100
AcDbArc
 50
90.0025289383
 51
179.9922508156
  0
ARC
  5
439
100
AcDbEntity
  8
0
100
AcDbCircle
 62
7
  6
CONTINUOUS
 10
145.2432920054
 20
202.5980843735
 40
1.9553318732
100
AcDbArc
 50
0.0036367705
 51
89.9960003733
  0
CIRCLE
  5
43A
100
AcDbEntity
  8
0
100
AcDbCircle
 62
7
  6
CONTINUOUS
 10
136.0641603466
 20
193.369505802
 40
1.4
  0
CIRCLE
  5
43B
100
AcDbEntity
  8
0
100
AcDbCircle
 62
7
  6
CONTINUOUS
 10
130.9841603466
 20
193.369505802
 40
1.4
  0
ARC
  5
43C
100
AcDbEntity
  8
0
100
AcDbCircle
 62
7
  6
CONTINUOUS
 10
125.9041603466
 20
193.369505802
 40
1.4
100
AcDbArc
 50
240.0
 51
120.0
  0
ARC
  5
43D
100
AcDbEntity
  8
0
100
AcDbCircle
 62
7
  6
CONTINUOUS
 10
143.9426336385
 20
185.9779790942
 40
1.3215267086
100
AcDbArc
 50
0.0000000195
 51
89.9999999805
  0
ARC
  5
43E
100
AcDbEntity
  8
0
100
AcDbCircle
 62
7
  6
CONTINUOUS
 10
109.5760609155
 20
191.4076052324
 40
1.3080994308
100
AcDbArc
 50
269.9999999891
 51
359.9999999891
  0
ARC
  5
43F
100
AcDbEntity
  8
0
100
AcDbCircle
 62
7
  6
CONTINUOUS
 10
143.9256212894
 20
185.9609667448
 40
1.0385390572
100
AcDbArc
 50
0.0000000908
 51
89.9999999918
  0
ARC
  5
440
100
AcDbEntity
  8
0
100
AcDbCircle
 62
7
  6
CONTINUOUS
 10
117.9860291103
 20
189.3213745667
 40
1.021868764
100
AcDbArc
 50
179.9999999972
 51
270.0000000028
  0
ARC
  5
441
100
AcDbEntity
  8
0
100
AcDbCircle
 62
7
  6
CONTINUOUS
 10
117.9844253594
 20
198.2792407896
 40
1.0202650131
100
AcDbArc
 50
90.0
 51
180.0
  0
ARC
  5
442
100
AcDbEntity
  8
0
100
AcDbCircle
 62
7
  6
CONTINUOUS
 10
109.6140285084
 20
191.3696376402
 40
0.9701318382
100
AcDbArc
 50
270.0000000103
 51
359.9999999897
  0
ARC
  5
443
100
AcDbEntity
  8
0
100
AcDbCircle
 62
7
  6
CONTINUOUS
 10
144.0062752478
 20
198.3416207042
 40
0.9578850985
100
AcDbArc
 50
0.0000000095
 51
89.9999999905
  0
ARC
  5
444
100
AcDbEntity
  8
0
100
AcDbCircle
 62
7
  6
CONTINUOUS
 10
144.0462485657
 20
189.2174175833
 40
0.9179117806
100
AcDbArc
 50
269.9999999928
 51
360.0
  0
ARC
  5
445
100
AcDbEntity
  8
0
100
AcDbCircle
 62
7
  6
CONTINUOUS
 10
115.7531810821
 20
205.8340093967
 40
2.363996931
100
AcDbArc
 50
90.007225673
 51
179.9929039575
  0
ARC
  5
446
100
AcDbEntity
  8
0
100
AcDbCircle
 62
7
  6
CONTINUOUS
 10
145.2439960412
 20
202.9706453611
 40
2.1421693279
100
AcDbArc
 50
0.0067958563
 51
89.9934311475
  0
ARC
  5
447
100
AcDbEntity
  8
0
100
AcDbCircle
 62
7
  6
CONTINUOUS
 10
214.759655415
 20
231.5240107337
 40
2.0245049366
100
AcDbArc
 50
270.0051217164
 51
359.9941880265
  0
ARC
  5
448
100
AcDbEntity
  8
0
100
AcDbCircle
 62
7
  6
CONTINUOUS
 10
105.9841603466
 20
221.499505802
 40
2.0
100
AcDbArc
 50
180.0
 51
270.0
  0
ARC
  5
449
100
AcDbEntity
  8
0
100
AcDbCircle
 62
7
  6
CONTINUOUS
 10
214.7520030709
 20
234.2259717507
 40
1.9193579029
100
AcDbArc
 50
270.0039885855
 51
359.9960089098
  0
ARC
  5
44A
100
AcDbEntity
  8
0
100
AcDbCircle
 62
7
  6
CONTINUOUS
 10
163.7544477729
 20
234.1641015568
 40
1.8574882835
100
AcDbArc
 50
180.0039997075
 51
269.995988714
  0
ARC
  5
44B
100
AcDbEntity
  8
0
100
AcDbCircle
 62
7
  6
CONTINUOUS
 10
163.4994230802
 20
231.2147685326
 40
1.7152627347
100
AcDbArc
 50
180.0051121306
 51
269.9942021333
  0
ARC
  5
44C
100
AcDbEntity
  8
0
100
AcDbCircle
 62
7
  6
CONTINUOUS
 10
225.9831507606
 20
240.2984962156
 40
1.2989904136
100
AcDbArc
 50
180.0000000088
 51
269.9999999912
  0
ARC
  5
44D
100
AcDbEntity
  8
0
100
AcDbCircle
 62
7
  6
CONTINUOUS
 10
109.5926974054
 20
215.4080428604
 40
1.2914629408
100
AcDbArc
 50
0.0000000044
 51
90.0000000177
  0
ARC
  5
44E
100
AcDbEntity
  8
0
100
AcDbCircle
 62
7
  6
CONTINUOUS
 10
225.9609831871
 20
210.6763286425
 40
1.2768228401
100
AcDbArc
 50
180.0
 51
270.0
  0
ARC
  5
44F
100
AcDbEntity
  8
0
100
AcDbCircle
 62
7
  6
CONTINUOUS
 10
225.9983039438
 20
240.3136493992
 40
1.0141435972
100
AcDbArc
 50
179.9999999859
 51
270.0000000141
  0
ARC
  5
450
100
AcDbEntity
  8
0
100
AcDbCircle
 62
7
  6
CONTINUOUS
 10
105.5841603466
 20
221.099505802
 40
1.0
100
AcDbArc
 50
180.0
 51
270.0
  0
ARC
  5
451
100
AcDbEntity
  8
0
100
AcDbCircle
 62
7
  6
CONTINUOUS
 10
225.9673743028
 20
210.6827197582
 40
0.9832139562
100
AcDbArc
 50
179.9999999898
 51
270.0000000102
  0
ARC
  5
452
100
AcDbEntity
  8
0
100
AcDbCircle
 62
7
  6
CONTINUOUS
 10
109.6105501859
 20
215.4258956413
 40
0.9736101607
100
AcDbArc
 50
0.0
 51
90.0000000073
  0
ARC
  5
453
100
AcDbEntity
  8
0
100
AcDbCircle
 62
7
  6
CONTINUOUS
 10
105.9841603466
 20
315.499505802
 40
2.0
100
AcDbArc
 50
90.0
 51
180.0
  0
ARC
  5
454
100
AcDbEntity
  8
0
100
AcDbCircle
 62
7
  6
CONTINUOUS
 10
105.5841603466
 20
315.899505802
 40
1.0
100
AcDbArc
 50
90.0
 51
180.0
  0
ARC
  5
455
100
AcDbEntity
  8
0
100
AcDbCircle
 62
7
  6
CONTINUOUS
 10
81.2648761426
 20
340.6802215985
 40
0.9807157965
100
AcDbArc
 50
180.0000001313
 51
270.0000000143
  0
ARC
  5
456
100
AcDbEntity
  8
0
100
AcDbCircle
 62
7
  6
CONTINUOUS
 10
52.4341603456
 20
378.849505803
 40
8.2512692708
100
AcDbArc
 50
98.5313366399
 51
171.4686640415
  0
ARC
  5
457
100
AcDbEntity
  8
0
100
AcDbCircle
 62
7
  6
CONTINUOUS
 10
52.4341603456
 20
378.849505803
 40
8.1599680375
100
AcDbArc
 50
90.0
 51
180.0
  0
ARC
  5
458
100
AcDbEntity
  8
0
100
AcDbCircle
 62
7
  6
CONTINUOUS
 10
52.4341603456
 20
378.849505803
 40
7.6618706885
100
AcDbArc
 50
90.0
 51
180.0
  0
ARC
  5
459
100
AcDbEntity
  8
0
100
AcDbCircle
 62
7
  6
CONTINUOUS
 10
52.4341603456
 20
378.849505803
 40
5.523581581
100
AcDbArc
 50
90.0
 51
180.0
  0
ARC
  5
45A
100
AcDbEntity
  8
0
100
AcDbCircle
 62
7
  6
CONTINUOUS
 10
52.4341603456
 20
378.849505803
 40
5.0236006195
100
AcDbArc
 50
90.0
 51
180.0
  0
ARC
  5
45B
100
AcDbEntity
  8
0
100
AcDbCircle
 62
7
  6
CONTINUOUS
 10
52.4341603456
 20
378.849505803
 40
5.0174308878
100
AcDbArc
 50
90.0
 51
180.0
  0
ARC
  5
45C
100
AcDbEntity
  8
0
100
AcDbCircle
 62
7
  6
CONTINUOUS
 10
52.4341603456
 20
378.849505803
 40
4.7174423109
100
AcDbArc
 50
90.0000000066
 51
180.0000000194
  0
ARC
  5
45D
100
AcDbEntity
  8
0
100
AcDbCircle
 62
7
  6
CONTINUOUS
 10
55.0339738346
 20
376.249692315
 40
4.1751163151
100
AcDbArc
 50
270.0089914654
 51
359.9910086378
  0
ARC
  5
45E
100
AcDbEntity
  8
0
100
AcDbCircle
 62
7
  6
CONTINUOUS
 10
55.0339738346
 20
376.249692315
 40
4.0523139142
100
AcDbArc
 50
270.0085847757
 51
359.9914149428
  0
ARC
  5
45F
100
AcDbEntity
  8
0
100
AcDbCircle
 62
7
  6
CONTINUOUS
 10
53.2085692481
 20
378.0750969006
 40
3.5244089101
100
AcDbArc
 50
90.0070964075
 51
179.9927756076
  0
CIRCLE
  5
460
100
AcDbEntity
  8
0
100
AcDbCircle
 62
7
  6
CONTINUOUS
 10
54.7341582446
 20
376.5495037
 40
2.8
  0
CIRCLE
  5
461
100
AcDbEntity
  8
0
100
AcDbCircle
 62
7
  6
CONTINUOUS
 10
54.7341582446
 20
376.5495037
 40
2.6542941204
  0
CIRCLE
  5
462
100
AcDbEntity
  8
0
100
AcDbCircle
 62
7
  6
CONTINUOUS
 10
54.7341582446
 20
376.549505802
 40
1.409836295
  0
ARC
  5
463
100
AcDbEntity
  8
0
100
AcDbCircle
 62
7
  6
CONTINUOUS
 10
50.010214448
 20
381.2734517007
 40
7.4475199185
100
AcDbArc
 50
90.0039997301
 51
179.9960006622
  0
ARC
  5
464
100
AcDbEntity
  8
0
100
AcDbCircle
 62
7
  6
CONTINUOUS
 10
49.5344034796
 20
381.749262748
 40
5.4444355318
100
AcDbArc
 50
90.0102119679
 51
179.9897848628
  0
ARC
  5
465
100
AcDbEntity
  8
0
100
AcDbCircle
 62
7
  6
CONTINUOUS
 10
49.5344034796
 20
381.749262748
 40
5.2602968348
100
AcDbArc
 50
90.0097277118
 51
179.9929259398
  0
ARC
  5
466
100
AcDbEntity
  8
0
100
AcDbCircle
 62
7
  6
CONTINUOUS
 10
66.7841603466
 20
378.449505802
 40
3.3000000001
100
AcDbArc
 50
179.9999999122
 51
359.9999999902
  0
ARC
  5
467
100
AcDbEntity
  8
0
100
AcDbCircle
 62
7
  6
CONTINUOUS
 10
66.7841603466
 20
378.449505802
 40
3.1
100
AcDbArc
 50
52.4868725198
 51
90.0
  0
CIRCLE
  5
468
100
AcDbEntity
  8
0
100
AcDbCircle
 62
7
  6
CONTINUOUS
 10
66.7841603466
 20
378.449505802
 40
3.0
  0
CIRCLE
  5
469
100
AcDbEntity
  8
0
100
AcDbCircle
 62
7
  6
CONTINUOUS
 10
66.7841603466
 20
378.449505802
 40
2.0
  0
ARC
  5
46A
100
AcDbEntity
  8
0
100
AcDbCircle
 62
7
  6
CONTINUOUS
 10
59.6841640296
 20
381.049502119
 40
0.5000036828
100
AcDbArc
 50
89.9999999054
 51
180.0000000945
  0
ARC
  5
46B
100
AcDbEntity
  8
0
100
AcDbCircle
 62
7
  6
CONTINUOUS
 10
59.6841603466
 20
380.939894005
 40
0.5
100
AcDbArc
 50
180.0
 51
191.4763860058
  0
ARC
  5
46C
100
AcDbEntity
  8
0
100
AcDbCircle
 62
7
  6
CONTINUOUS
 10
123.2335900043
 20
340.7500761443
 40
1.0505703423
100
AcDbArc
 50
269.9999999918
 51
360.0
  0
ARC
  5
46D
100
AcDbEntity
  8
0
100
AcDbCircle
 62
7
  6
CONTINUOUS
 10
123.2910030429
 20
352.7063484983
 40
0.9931573037
100
AcDbArc
 50
0.0
 51
90.0000000115
  0
ARC
  5
46E
100
AcDbEntity
  8
0
100
AcDbCircle
 62
7
  6
CONTINUOUS
 10
214.5198720133
 20
321.2352174692
 40
2.1514891904
100
AcDbArc
 50
0.004007491
 51
89.9960002553
  0
ARC
  5
46F
100
AcDbEntity
  8
0
100
AcDbCircle
 62
7
  6
CONTINUOUS
 10
159.6650714209
 20
274.8804168733
 40
2.1190889339
100
AcDbArc
 50
0.0064594003
 51
89.9934362317
  0
ARC
  5
470
100
AcDbEntity
  8
0
100
AcDbCircle
 62
7
  6
CONTINUOUS
 10
159.8182043896
 20
313.9654617066
 40
2.0787550573
100
AcDbArc
 50
270.0039997395
 51
359.9960016676
  0
ARC
  5
471
100
AcDbEntity
  8
0
100
AcDbCircle
 62
7
  6
CONTINUOUS
 10
159.7132192711
 20
314.0704468807
 40
2.0709410837
100
AcDbArc
 50
270.0051150125
 51
359.9941901039
  0
ARC
  5
472
100
AcDbEntity
  8
0
100
AcDbCircle
 62
7
  6
CONTINUOUS
 10
148.9495638693
 20
279.1649093245
 40
2.05260438
100
AcDbArc
 50
180.0039997431
 51
269.9960018407
  0
ARC
  5
473
100
AcDbEntity
  8
0
100
AcDbCircle
 62
7
  6
CONTINUOUS
 10
214.7534406619
 20
321.4687861173
 40
2.0307196897
100
AcDbArc
 50
0.006451801
 51
89.9934384794
  0
ARC
  5
474
100
AcDbEntity
  8
0
100
AcDbCircle
 62
7
  6
CONTINUOUS
 10
148.8046283675
 20
309.9790377812
 40
2.0204680258
100
AcDbArc
 50
90.0064499926
 51
179.9934482916
  0
ARC
  5
475
100
AcDbEntity
  8
0
100
AcDbCircle
 62
7
  6
CONTINUOUS
 10
159.8960294066
 20
275.1113748102
 40
2.0009300913
100
AcDbArc
 50
0.0039997134
 51
89.9960018931
  0
ARC
  5
476
100
AcDbEntity
  8
0
100
AcDbCircle
 62
7
  6
CONTINUOUS
 10
148.8725600371
 20
309.9111061116
 40
1.9756005476
100
AcDbArc
 50
90.0039997433
 51
179.9960002567
  0
ARC
  5
477
100
AcDbEntity
  8
0
100
AcDbCircle
 62
7
  6
CONTINUOUS
 10
163.7025987017
 20
321.5810674501
 40
1.9184383566
100
AcDbArc
 50
90.0064508605
 51
179.9934454459
  0
ARC
  5
478
100
AcDbEntity
  8
0
100
AcDbCircle
 62
7
  6
CONTINUOUS
 10
163.786094515
 20
321.4975716345
 40
1.8891350245
100
AcDbArc
 50
90.0039997441
 51
179.9960018618
  0
ARC
  5
479
100
AcDbEntity
  8
0
100
AcDbCircle
 62
7
  6
CONTINUOUS
 10
148.5657878135
 20
278.7811332689
 40
1.7816274712
100
AcDbArc
 50
180.0025534857
 51
269.9922039829
  0
ARC
  5
47A
100
AcDbEntity
  8
0
100
AcDbCircle
 62
7
  6
CONTINUOUS
 10
221.8499465033
 20
366.8507279877
 40
14.3139893584
100
AcDbArc
 50
89.9560741316
 51
91.1145566683
  0
ARC
  5
47B
100
AcDbEntity
  8
0
100
AcDbCircle
 62
7
  6
CONTINUOUS
 10
341.1341603466
 20
168.149505802
 40
8.2512692722
100
AcDbArc
 50
278.5313366491
 51
351.4686633414
  0
ARC
  5
47C
100
AcDbEntity
  8
0
100
AcDbCircle
 62
7
  6
CONTINUOUS
 10
341.1341603466
 20
168.149505802
 40
8.159968039
100
AcDbArc
 50
270.0
 51
360.0
  0
ARC
  5
47D
100
AcDbEntity
  8
0
100
AcDbCircle
 62
7
  6
CONTINUOUS
 10
341.1341603466
 20
168.149505802
 40
7.6618706899
100
AcDbArc
 50
270.0
 51
360.0
  0
ARC
  5
47E
100
AcDbEntity
  8
0
100
AcDbCircle
 62
7
  6
CONTINUOUS
 10
343.5581062457
 20
165.7255599029
 40
7.447519918
100
AcDbArc
 50
270.0039997298
 51
359.9960002702
  0
ARC
  5
47F
100
AcDbEntity
  8
0
100
AcDbCircle
 62
7
  6
CONTINUOUS
 10
341.1341603466
 20
168.149505802
 40
5.5235815824
100
AcDbArc
 50
270.0
 51
360.0
  0
ARC
  5
480
100
AcDbEntity
  8
0
100
AcDbCircle
 62
7
  6
CONTINUOUS
 10
344.0339171276
 20
165.249749021
 40
5.4444357081
100
AcDbArc
 50
270.0102138131
 51
359.9897856152
  0
ARC
  5
481
100
AcDbEntity
  8
0
100
AcDbCircle
 62
7
  6
CONTINUOUS
 10
344.0339171276
 20
165.249749021
 40
5.2602968346
100
AcDbArc
 50
270.0097152659
 51
359.9902852263
  0
ARC
  5
482
100
AcDbEntity
  8
0
100
AcDbCircle
 62
7
  6
CONTINUOUS
 10
341.1341603466
 20
168.149505802
 40
5.0236006209
100
AcDbArc
 50
270.0
 51
360.0
  0
ARC
  5
483
100
AcDbEntity
  8
0
100
AcDbCircle
 62
7
  6
CONTINUOUS
 10
341.1341603466
 20
168.149505802
 40
5.0174308892
100
AcDbArc
 50
270.0
 51
360.0
  0
ARC
  5
484
100
AcDbEntity
  8
0
100
AcDbCircle
 62
7
  6
CONTINUOUS
 10
341.1341603466
 20
168.149505802
 40
4.7174423123
100
AcDbArc
 50
270.0000000229
 51
359.9999999881
  0
ARC
  5
485
100
AcDbEntity
  8
0
100
AcDbCircle
 62
7
  6
CONTINUOUS
 10
340.3597539301
 20
168.9239122185
 40
3.5244064251
100
AcDbArc
 50
270.0054073192
 51
359.9937180235
  0
ARC
  5
486
100
AcDbEntity
  8
0
100
AcDbCircle
 62
7
  6
CONTINUOUS
 10
326.7841603466
 20
168.549505802
 40
3.3000000001
100
AcDbArc
 50
0.0000000049
 51
180.0000000931
  0
ARC
  5
487
100
AcDbEntity
  8
0
100
AcDbCircle
 62
7
  6
CONTINUOUS
 10
326.7841603466
 20
168.549505802
 40
3.1
100
AcDbArc
 50
232.4868725198
 51
270.0
  0
CIRCLE
  5
488
100
AcDbEntity
  8
0
100
AcDbCircle
 62
7
  6
CONTINUOUS
 10
326.7841603466
 20
168.549507966
 40
3.0
  0
CIRCLE
  5
489
100
AcDbEntity
  8
0
100
AcDbCircle
 62
7
  6
CONTINUOUS
 10
326.7841603466
 20
168.549507966
 40
2.0
  0
ARC
  5
48A
100
AcDbEntity
  8
0
100
AcDbCircle
 62
7
  6
CONTINUOUS
 10
299.0106135976
 20
210.6730525511
 40
1.2735467488
100
AcDbArc
 50
270.0000000112
 51
360.0
  0
ARC
  5
48B
100
AcDbEntity
  8
0
100
AcDbCircle
 62
7
  6
CONTINUOUS
 10
299.0355855986
 20
210.6480805499
 40
0.9485747479
100
AcDbArc
 50
270.0000000127
 51
360.0
  0
ARC
  5
48C
100
AcDbEntity
  8
0
100
AcDbCircle
 62
7
  6
CONTINUOUS
 10
333.8841566636
 20
165.949509485
 40
0.5000036828
100
AcDbArc
 50
269.9999999059
 51
0.000000097
  0
ARC
  5
48D
100
AcDbEntity
  8
0
100
AcDbCircle
 62
7
  6
CONTINUOUS
 10
333.8841603466
 20
166.059117599
 40
0.5
100
AcDbArc
 50
0.0000000035
 51
11.4763859969
  0
ARC
  5
48E
100
AcDbEntity
  8
0
100
AcDbCircle
 62
7
  6
CONTINUOUS
 10
298.9525946776
 20
240.3310714713
 40
1.3315656693
100
AcDbArc
 50
270.0
 51
359.9999999357
  0
ARC
  5
48F
100
AcDbEntity
  8
0
100
AcDbCircle
 62
7
  6
CONTINUOUS
 10
298.9854933446
 20
228.7008387999
 40
1.2986670021
100
AcDbArc
 50
0.0000000242
 51
89.9999999978
  0
ARC
  5
490
100
AcDbEntity
  8
0
100
AcDbCircle
 62
7
  6
CONTINUOUS
 10
299.0527675996
 20
273.3681130544
 40
1.2313927472
100
AcDbArc
 50
0.0000000557
 51
89.9999999998
  0
ARC
  5
491
100
AcDbEntity
  8
0
100
AcDbCircle
 62
7
  6
CONTINUOUS
 10
298.9590656116
 20
273.2744110669
 40
1.0250947352
100
AcDbArc
 50
0.0000000418
 51
89.9999999997
  0
ARC
  5
492
100
AcDbEntity
  8
0
100
AcDbCircle
 62
7
  6
CONTINUOUS
 10
298.9692872446
 20
228.6846327002
 40
1.0148731018
100
AcDbArc
 50
0.0
 51
89.9999999944
  0
ARC
  5
493
100
AcDbEntity
  8
0
100
AcDbCircle
 62
7
  6
CONTINUOUS
 10
298.9873493736
 20
240.2963167755
 40
0.9968109735
100
AcDbArc
 50
269.9999999914
 51
359.9999998653
  0
ARC
  5
494
100
AcDbEntity
  8
0
100
AcDbCircle
 62
7
  6
CONTINUOUS
 10
2049.5073203341
 20
194.379309912
 40
1882.2524982468
100
AcDbArc
 50
179.6949837247
 51
180.8441129907
  0
ARC
  5
495
100
AcDbEntity
  8
0
100
AcDbCircle
 62
7
  6
CONTINUOUS
 10
298.9908400489
 20
315.6566344129
 40
26.0007966443
100
AcDbArc
 50
129.8977227315
 51
130.0557433925
  0
ARC
  5
496
100
AcDbEntity
  8
0
100
AcDbCircle
 62
7
  6
CONTINUOUS
 10
267.7481153042
 20
278.0355508445
 40
0.5360450424
100
AcDbArc
 50
269.9999999988
 51
359.9999999893
  0
ARC
  5
497
100
AcDbEntity
  8
0
100
AcDbCircle
 62
7
  6
CONTINUOUS
 10
255.813260558
 20
278.0286060134
 40
0.5291002114
100
AcDbArc
 50
179.9999999815
 51
269.9999999984
  0
ARC
  5
498
100
AcDbEntity
  8
0
100
AcDbCircle
 62
7
  6
CONTINUOUS
 10
255.763998477
 20
327.0196676716
 40
0.4798381304
100
AcDbArc
 50
89.9999999823
 51
180.0000000177
  0
ARC
  5
499
100
AcDbEntity
  8
0
100
AcDbCircle
 62
7
  6
CONTINUOUS
 10
267.8537186123
 20
327.0690640677
 40
0.4304417343
100
AcDbArc
 50
0.0
 51
90.0000000203
  0
ARC
  5
49A
100
AcDbEntity
  8
0
100
AcDbCircle
 62
7
  6
CONTINUOUS
 10
319.5262368436
 20
329.4915822903
 40
2.2579235095
100
AcDbArc
 50
0.0071001335
 51
89.9927742161
  0
ARC
  5
49B
100
AcDbEntity
  8
0
100
AcDbCircle
 62
7
  6
CONTINUOUS
 10
319.699239359
 20
329.6645848347
 40
2.207752995
100
AcDbArc
 50
0.0070961359
 51
89.9927733703
  0
ARC
  5
49C
100
AcDbEntity
  8
0
100
AcDbCircle
 62
7
  6
CONTINUOUS
 10
303.3052288956
 20
315.0205743508
 40
0.5210685488
100
AcDbArc
 50
179.9999999109
 51
270.0000000074
  0
ARC
  5
49D
100
AcDbEntity
  8
0
100
AcDbCircle
 62
7
  6
CONTINUOUS
 10
303.3043496656
 20
321.9793164828
 40
0.5201893192
100
AcDbArc
 50
90.0000000004
 51
179.9999999177
  0
ARC
  5
49E
100
AcDbEntity
  8
0
100
AcDbCircle
 62
7
  6
CONTINUOUS
 10
317.2642285986
 20
321.9795740543
 40
0.5199317477
100
AcDbArc
 50
359.9999998583
 51
90.0000000188
  0
ARC
  5
49F
100
AcDbEntity
  8
0
100
AcDbCircle
 62
7
  6
CONTINUOUS
 10
317.2712747386
 20
315.0123914097
 40
0.5128856077
100
AcDbArc
 50
269.9999999979
 51
0.0000001266
  0
ARC
  5
4A0
100
AcDbEntity
  8
0
100
AcDbCircle
 62
7
  6
CONTINUOUS
 10
326.7841603466
 20
378.449505802
 40
3.3000000004
100
AcDbArc
 50
179.9999999376
 51
359.9999999647
  0
ARC
  5
4A1
100
AcDbEntity
  8
0
100
AcDbCircle
 62
7
  6
CONTINUOUS
 10
326.7841603466
 20
378.449505802
 40
3.1
100
AcDbArc
 50
51.8133912612
 51
90.0
  0
CIRCLE
  5
4A2
100
AcDbEntity
  8
0
100
AcDbCircle
 62
7
  6
CONTINUOUS
 10
326.7841603466
 20
378.449505802
 40
3.0
  0
CIRCLE
  5
4A3
100
AcDbEntity
  8
0
100
AcDbCircle
 62
7
  6
CONTINUOUS
 10
326.7841603466
 20
378.449505802
 40
2.0
  0
ARC
  5
4A4
100
AcDbEntity
  8
0
100
AcDbCircle
 62
7
  6
CONTINUOUS
 10
319.6841640296
 20
381.049502119
 40
0.5000036828
100
AcDbArc
 50
89.9999999042
 51
180.0000000958
  0
ARC
  5
4A5
100
AcDbEntity
  8
0
100
AcDbCircle
 62
7
  6
CONTINUOUS
 10
319.6841603466
 20
380.939894005
 40
0.5
100
AcDbArc
 50
180.0
 51
191.4763859962
  0
ARC
  5
4A6
100
AcDbEntity
  8
0
100
AcDbCircle
 62
7
  6
CONTINUOUS
 10
341.1341603466
 20
378.849505802
 40
8.2512692722
100
AcDbArc
 50
8.5313366586
 51
81.4686633414
  0
ARC
  5
4A7
100
AcDbEntity
  8
0
100
AcDbCircle
 62
7
  6
CONTINUOUS
 10
341.1341603466
 20
378.849505802
 40
8.159968039
100
AcDbArc
 50
0.0
 51
90.0
  0
ARC
  5
4A8
100
AcDbEntity
  8
0
100
AcDbCircle
 62
7
  6
CONTINUOUS
 10
341.1341603466
 20
378.849505802
 40
7.6618706899
100
AcDbArc
 50
0.0
 51
90.0
  0
ARC
  5
4A9
100
AcDbEntity
  8
0
100
AcDbCircle
 62
7
  6
CONTINUOUS
 10
341.1341603466
 20
378.849505802
 40
5.5235815824
100
AcDbArc
 50
0.0
 51
90.0
  0
ARC
  5
4AA
100
AcDbEntity
  8
0
100
AcDbCircle
 62
7
  6
CONTINUOUS
 10
341.1341603466
 20
378.849505802
 40
5.0236006209
100
AcDbArc
 50
0.0
 51
90.0
  0
ARC
  5
4AB
100
AcDbEntity
  8
0
100
AcDbCircle
 62
7
  6
CONTINUOUS
 10
341.1341603466
 20
378.849505802
 40
5.0174308892
100
AcDbArc
 50
0.0
 51
90.0
  0
ARC
  5
4AC
100
AcDbEntity
  8
0
100
AcDbCircle
 62
7
  6
CONTINUOUS
 10
341.1341603466
 20
378.849505802
 40
4.7174423123
100
AcDbArc
 50
0.0000000339
 51
89.9999999921
  0
ARC
  5
4AD
100
AcDbEntity
  8
0
100
AcDbCircle
 62
7
  6
CONTINUOUS
 10
338.5343429776
 20
376.249688425
 40
4.0878355481
100
AcDbArc
 50
180.006435378
 51
269.991007292
  0
ARC
  5
4AE
100
AcDbEntity
  8
0
100
AcDbCircle
 62
7
  6
CONTINUOUS
 10
340.3597539301
 20
378.0750993856
 40
3.5244064251
100
AcDbArc
 50
0.0070964424
 51
89.9927755721
  0
CIRCLE
  5
4AF
100
AcDbEntity
  8
0
100
AcDbCircle
 62
7
  6
CONTINUOUS
 10
338.8341582446
 20
376.5495037
 40
2.8
  0
CIRCLE
  5
4B0
100
AcDbEntity
  8
0
100
AcDbCircle
 62
7
  6
CONTINUOUS
 10
338.8341582446
 20
376.5495037
 40
2.6542941204
  0
CIRCLE
  5
4B1
100
AcDbEntity
  8
0
100
AcDbCircle
 62
7
  6
CONTINUOUS
 10
338.8341582446
 20
376.549505802
 40
1.409836295
  0
ARC
  5
4B2
100
AcDbEntity
  8
0
100
AcDbCircle
 62
7
  6
CONTINUOUS
 10
343.5581062457
 20
381.2734517012
 40
7.447519918
100
AcDbArc
 50
0.0039997298
 51
89.9960002665
  0
ARC
  5
4B3
100
AcDbEntity
  8
0
100
AcDbCircle
 62
7
  6
CONTINUOUS
 10
344.0339171276
 20
381.749262583
 40
5.444435708
100
AcDbArc
 50
0.0102138053
 51
89.9897856164
  0
ARC
  5
4B4
100
AcDbEntity
  8
0
100
AcDbCircle
 62
7
  6
CONTINUOUS
 10
344.0339171276
 20
381.749262583
 40
5.2602968343
100
AcDbArc
 50
0.0097152044
 51
89.9902853313
  0
LINE
  5
4B5
100
AcDbEntity
  8
0
100
AcDbLine
 62
7
  6
CONTINUOUS
 10
282.2032616344
 20
335.49583363
 11
282.1940823637
 21
335.4972817481
  0
LINE
  5
4B6
100
AcDbEntity
  8
0
100
AcDbLine
 62
7
  6
CONTINUOUS
 10
264.2897796176
 20
335.498236404
 11
264.2870281693
 21
335.4978446082
  0
SPLINE
  5
4B7
100
AcDbEntity
  8
0
100
AcDbSpline
 62
7
  6
CONTINUOUS
 70
0
 71
3
 72
9
 73
5
 74
0
 42
0.0000001
 43
0.0000001
 44
0.0000000001
 40
0.0
 40
0.0
 40
0.0
 40
0.0
 40
0.6358299425
 40
1.0
 40
1.0
 40
1.0
 40
1.0
 10
264.2936479609
 20
335.4998976249
 30
0.0
 10
264.2935996396
 20
335.4996754574
 30
0.0
 10
264.2934112784
 20
335.4993115522
 30
0.0
 10
264.2930566587
 20
335.499201309
 30
0.0
 10
264.2929533676
 20
335.4991220093
 30
0.0
  0
LINE
  5
4B8
100
AcDbEntity
  8
0
100
AcDbLine
 62
7
  6
CONTINUOUS
 10
264.2929533676
 20
335.4991220093
 11
264.2924697596
 21
335.4988120617
  0
LINE
  5
4B9
100
AcDbEntity
  8
0
100
AcDbLine
 62
7
  6
CONTINUOUS
 10
264.2924697596
 20
335.4988120617
 11
264.2897796176
 21
335.498236404
  0
LINE
  5
4BA
100
AcDbEntity
  8
0
100
AcDbLine
 62
7
  6
CONTINUOUS
 10
282.1932750886
 20
335.4975319251
 11
282.1919348183
 21
335.4984235855
  0
SPLINE
  5
4BB
100
AcDbEntity
  8
0
100
AcDbSpline
 62
7
  6
CONTINUOUS
 70
0
 71
3
 72
9
 73
5
 74
0
 42
0.0000001
 43
0.0000001
 44
0.0000000001
 40
0.0
 40
0.0
 40
0.0
 40
0.0
 40
0.4415245237
 40
1.0
 40
1.0
 40
1.0
 40
1.0
 10
282.1919348183
 20
335.4984235855
 30
0.0
 10
282.1917265086
 20
335.4986201154
 30
0.0
 10
282.1910763919
 20
335.4989054513
 30
0.0
 10
282.1911033744
 20
335.4997697907
 30
0.0
 10
282.1913038352
 20
335.5000715127
 30
0.0
  0
SPLINE
  5
4BC
100
AcDbEntity
  8
0
100
AcDbSpline
 62
7
  6
CONTINUOUS
 70
0
 71
3
 72
13
 73
9
 74
0
 42
0.0000001
 43
0.0000001
 44
0.0000000001
 40
0.0
 40
0.0
 40
0.0
 40
0.0
 40
0.3814697172
 40
0.7059171096
 40
0.8300692445
 40
0.9222872248
 40
0.9794584549
 40
1.0
 40
1.0
 40
1.0
 40
1.0
 10
221.7997526181
 20
380.9041635429
 30
0.0
 10
221.7340651452
 20
380.9041635485
 30
0.0
 10
221.6129274393
 20
380.9051518952
 30
0.0
 10
221.4686837509
 20
380.9075155377
 30
0.0
 10
221.377600104
 20
380.9120947955
 30
0.0
 10
221.327055121
 20
380.9134539763
 30
0.0
 10
221.3044307117
 20
380.9190537896
 30
0.0
 10
221.2841503347
 20
380.918524538
 30
0.0
 10
221.2841505806
 20
380.9220617052
 30
0.0
  0
SPLINE
  5
4BD
100
AcDbEntity
  8
0
100
AcDbSpline
 62
7
  6
CONTINUOUS
 70
0
 71
3
 72
13
 73
9
 74
0
 42
0.0000001
 43
0.0000001
 44
0.0000000001
 40
0.0
 40
0.0
 40
0.0
 40
0.0
 40
0.0205410774
 40
0.0777108944
 40
0.1699278543
 40
0.2940789121
 40
0.6185281676
 40
1.0
 40
1.0
 40
1.0
 40
1.0
 10
232.2841604174
 20
380.9235988441
 30
0.0
 10
232.2841604174
 20
380.9197579178
 30
0.0
 10
232.2621391467
 20
380.9203324535
 30
0.0
 10
232.237571064
 20
380.9142517711
 30
0.0
 10
232.1826852321
 20
380.9127758431
 30
0.0
 10
232.0837772675
 20
380.9078031815
 30
0.0
 10
231.9271424513
 20
380.9052365137
 30
0.0
 10
231.7955981078
 20
380.9041632044
 30
0.0
 10
231.7242676135
 20
380.9041632105
 30
0.0
  0
SPLINE
  5
4BE
100
AcDbEntity
  8
0
100
AcDbSpline
 62
7
  6
CONTINUOUS
 70
0
 71
3
 72
13
 73
9
 74
0
 42
0.0000001
 43
0.0000001
 44
0.0000000001
 40
0.0
 40
0.0
 40
0.0
 40
0.0
 40
0.3814697095
 40
0.7059171677
 40
0.8300692847
 40
0.9222871294
 40
0.9794582565
 40
1.0
 40
1.0
 40
1.0
 40
1.0
 10
235.2814809051
 20
380.6166779217
 30
0.0
 10
235.2181224865
 20
380.6166779224
 30
0.0
 10
235.1012798681
 20
380.6176312333
 30
0.0
 10
234.9621506602
 20
380.6199110581
 30
0.0
 10
234.8742963942
 20
380.6243279687
 30
0.0
 10
234.8255438758
 20
380.625638923
 30
0.0
 10
234.8037211639
 20
380.6310402582
 30
0.0
 10
234.7841603434
 20
380.6305296923
 30
0.0
 10
234.7841603466
 20
380.6339414766
 30
0.0
  0
SPLINE
  5
4BF
100
AcDbEntity
  8
0
100
AcDbSpline
 62
7
  6
CONTINUOUS
 70
0
 71
3
 72
13
 73
9
 74
0
 42
0.0000001
 43
0.0000001
 44
0.0000000001
 40
0.0
 40
0.0
 40
0.0
 40
0.0
 40
0.02054108
 40
0.0777108956
 40
0.1699278537
 40
0.2940789113
 40
0.6185281676
 40
1.0
 40
1.0
 40
1.0
 40
1.0
 10
237.7841603466
 20
380.6336388293
 30
0.0
 10
237.7841603434
 20
380.6302869606
 30
0.0
 10
237.7649430066
 20
380.6307883431
 30
0.0
 10
237.7435031257
 20
380.6254819017
 30
0.0
 10
237.695605809
 20
380.6241939009
 30
0.0
 10
237.6092916099
 20
380.6198543975
 30
0.0
 10
237.4726008148
 20
380.6176145423
 30
0.0
 10
237.3578057675
 20
380.6166778981
 30
0.0
 10
237.2955576524
 20
380.6166778988
 30
0.0
  0
SPLINE
  5
4C0
100
AcDbEntity
  8
0
100
AcDbSpline
 62
7
  6
CONTINUOUS
 70
0
 71
3
 72
13
 73
9
 74
0
 42
0.0000001
 43
0.0000001
 44
0.0000000001
 40
0.0
 40
0.0
 40
0.0
 40
0.0
 40
0.3814697095
 40
0.705917168
 40
0.8300692849
 40
0.922287129
 40
0.9794582555
 40
1.0
 40
1.0
 40
1.0
 40
1.0
 10
216.2795733541
 20
380.6166779136
 30
0.0
 10
216.2164579566
 20
380.6166779141
 30
0.0
 10
216.1000635063
 20
380.6176275685
 30
0.0
 10
215.9614679507
 20
380.6198986488
 30
0.0
 10
215.8739506629
 20
380.6242986177
 30
0.0
 10
215.8253851439
 20
380.6256045434
 30
0.0
 10
215.8036461341
 20
380.6309851613
 30
0.0
 10
215.7841603445
 20
380.6304765533
 30
0.0
 10
215.7841603466
 20
380.6338752514
 30
0.0
  0
SPLINE
  5
4C1
100
AcDbEntity
  8
0
100
AcDbSpline
 62
7
  6
CONTINUOUS
 70
0
 71
3
 72
13
 73
9
 74
0
 42
0.0000001
 43
0.0000001
 44
0.0000000001
 40
0.0
 40
0.0
 40
0.0
 40
0.0
 40
0.0205410799
 40
0.0777108991
 40
0.169927862
 40
0.2940789241
 40
0.6185281834
 40
1.0
 40
1.0
 40
1.0
 40
1.0
 10
218.7841603466
 20
380.6326474703
 30
0.0
 10
218.7841603447
 20
380.6294915161
 30
0.0
 10
218.7660662454
 20
380.6299635937
 30
0.0
 10
218.7458795134
 20
380.6249673103
 30
0.0
 10
218.7007817606
 20
380.6237545928
 30
0.0
 10
218.6195125701
 20
380.6196687309
 30
0.0
 10
218.4908112651
 20
380.6175597951
 30
0.0
 10
218.382725917
 20
380.6166778983
 30
0.0
 10
218.3241161668
 20
380.6166778987
 30
0.0
  0
SPLINE
  5
4C2
100
AcDbEntity
  8
0
100
AcDbSpline
 62
7
  6
CONTINUOUS
 70
0
 71
3
 72
9
 73
5
 74
0
 42
0.0000001
 43
0.0000001
 44
0.0000000001
 40
0.0
 40
0.0
 40
0.0
 40
0.0
 40
0.484303972
 40
1.0
 40
1.0
 40
1.0
 40
1.0
 10
282.78050983
 20
334.9184805299
 30
0.0
 10
282.7802493641
 20
334.9202551251
 30
0.0
 10
282.7797088589
 20
334.9239161641
 30
0.0
 10
282.7793425072
 20
334.9276136636
 30
0.0
 10
282.7793406331
 20
334.9295235307
 30
0.0
  0
SPLINE
  5
4C3
100
AcDbEntity
  8
0
100
AcDbSpline
 62
7
  6
CONTINUOUS
 70
0
 71
3
 72
9
 73
5
 74
0
 42
0.0000001
 43
0.0000001
 44
0.0000000001
 40
0.0
 40
0.0
 40
0.0
 40
0.0
 40
0.501379427
 40
1.0
 40
1.0
 40
1.0
 40
1.0
 10
282.7847612369
 20
334.9066949695
 30
0.0
 10
282.7842826566
 20
334.9063695775
 30
0.0
 10
282.7829193741
 20
334.9072485602
 30
0.0
 10
282.7823658389
 20
334.9081585524
 30
0.0
 10
282.7821654084
 20
334.9086980624
 30
0.0
  0
SPLINE
  5
4C4
100
AcDbEntity
  8
0
100
AcDbSpline
 62
7
  6
CONTINUOUS
 70
0
 71
3
 72
9
 73
5
 74
0
 42
0.0000001
 43
0.0000001
 44
0.0000000001
 40
0.0
 40
0.0
 40
0.0
 40
0.0
 40
0.4888040722
 40
1.0
 40
1.0
 40
1.0
 40
1.0
 10
282.7821654084
 20
334.9086980624
 30
0.0
 10
282.7816022525
 20
334.9102139408
 30
0.0
 10
282.7812623431
 20
334.9135537631
 30
0.0
 10
282.7807554221
 20
334.9168072725
 30
0.0
 10
282.78050983
 20
334.9184805299
 30
0.0
  0
SPLINE
  5
4C5
100
AcDbEntity
  8
0
100
AcDbSpline
 62
7
  6
CONTINUOUS
 70
0
 71
3
 72
9
 73
5
 74
0
 42
0.0000001
 43
0.0000001
 44
0.0000000001
 40
0.0
 40
0.0
 40
0.0
 40
0.0
 40
0.4974396749
 40
1.0
 40
1.0
 40
1.0
 40
1.0
 10
191.2143396947
 20
335.4936748828
 30
0.0
 10
191.2158543132
 20
335.4936746016
 30
0.0
 10
191.2188887389
 20
335.4940909622
 30
0.0
 10
191.2218727436
 20
335.4946727457
 30
0.0
 10
191.2233737989
 20
335.4949700264
 30
0.0
  0
SPLINE
  5
4C6
100
AcDbEntity
  8
0
100
AcDbSpline
 62
7
  6
CONTINUOUS
 70
0
 71
3
 72
9
 73
5
 74
0
 42
0.0000001
 43
0.0000001
 44
0.0000000001
 40
0.0
 40
0.0
 40
0.0
 40
0.0
 40
0.4986711046
 40
1.0
 40
1.0
 40
1.0
 40
1.0
 10
191.2233737989
 20
335.4949700264
 30
0.0
 10
191.2248969186
 20
335.4952716769
 30
0.0
 10
191.2279389277
 20
335.4958996822
 30
0.0
 10
191.2310457867
 20
335.4963567958
 30
0.0
 10
191.2325164632
 20
335.496880021
 30
0.0
  0
LINE
  5
4C7
100
AcDbEntity
  8
0
100
AcDbLine
 62
7
  6
CONTINUOUS
 10
177.2842083296
 20
335.4981349874
 11
177.2783591812
 21
335.4971591793
  0
SPLINE
  5
4C8
100
AcDbEntity
  8
0
100
AcDbSpline
 62
7
  6
CONTINUOUS
 70
0
 71
3
 72
9
 73
5
 74
0
 42
0.0000001
 43
0.0000001
 44
0.0000000001
 40
0.0
 40
0.0
 40
0.0
 40
0.0
 40
0.4601479906
 40
1.0
 40
1.0
 40
1.0
 40
1.0
 10
177.2861621119
 20
335.4993735308
 30
0.0
 10
177.2862527544
 20
335.4991811778
 30
0.0
 10
177.2856201369
 20
335.4988002271
 30
0.0
 10
177.2852014216
 20
335.4988306304
 30
0.0
 10
177.2850089329
 20
335.4986719344
 30
0.0
  0
LINE
  5
4C9
100
AcDbEntity
  8
0
100
AcDbLine
 62
7
  6
CONTINUOUS
 10
177.2850089329
 20
335.4986719344
 11
177.2842083296
 21
335.4981349874
  0
LINE
  5
4CA
100
AcDbEntity
  8
0
100
AcDbLine
 62
7
  6
CONTINUOUS
 10
176.7855565501
 20
334.9995592071
 11
176.7853512509
 21
334.9990936495
  0
SPLINE
  5
4CB
100
AcDbEntity
  8
0
100
AcDbSpline
 62
7
  6
CONTINUOUS
 70
0
 71
3
 72
9
 73
5
 74
0
 42
0.0000001
 43
0.0000001
 44
0.0000000001
 40
0.0
 40
0.0
 40
0.0
 40
0.0
 40
0.4682356139
 40
1.0
 40
1.0
 40
1.0
 40
1.0
 10
176.7853445051
 20
334.9990837022
 30
0.0
 10
176.7852307524
 20
334.9989178537
 30
0.0
 10
176.784880788
 20
334.9986458965
 30
0.0
 10
176.7847578563
 20
334.9981990031
 30
0.0
 10
176.78474849
 20
334.9979707988
 30
0.0
  0
LINE
  5
4CC
100
AcDbEntity
  8
0
100
AcDbLine
 62
7
  6
CONTINUOUS
 10
176.7861208653
 20
335.0029011229
 11
176.7855565501
 21
334.9995592071
  0
SPLINE
  5
4CD
100
AcDbEntity
  8
0
100
AcDbSpline
 62
7
  6
CONTINUOUS
 70
0
 71
3
 72
9
 73
5
 74
0
 42
0.0000001
 43
0.0000001
 44
0.0000000001
 40
0.0
 40
0.0
 40
0.0
 40
0.0
 40
0.5000000115
 40
1.0
 40
1.0
 40
1.0
 40
1.0
 10
191.7841603448
 20
330.5340937816
 30
0.0
 10
191.7841717484
 20
330.3977091715
 30
0.0
 10
191.6701069324
 20
330.1135644302
 30
0.0
 10
191.3859636388
 20
329.9994961485
 30
0.0
 10
191.2495790349
 20
329.9995058033
 30
0.0
  0
SPLINE
  5
4CE
100
AcDbEntity
  8
0
100
AcDbSpline
 62
7
  6
CONTINUOUS
 70
0
 71
3
 72
8
 73
4
 74
0
 42
0.0000001
 43
0.0000001
 44
0.0000000001
 40
0.0
 40
0.0
 40
0.0
 40
0.0
 40
1.0
 40
1.0
 40
1.0
 40
1.0
 10
265.643100875
 20
332.1405652736
 30
0.0
 10
265.545206274
 20
332.238459875
 30
0.0
 10
265.3978283666
 20
332.299505803
 30
0.0
 10
265.259384494
 20
332.2995058027
 30
0.0
  0
SPLINE
  5
4CF
100
AcDbEntity
  8
0
100
AcDbSpline
 62
7
  6
CONTINUOUS
 70
0
 71
3
 72
8
 73
4
 74
0
 42
0.0000001
 43
0.0000001
 44
0.0000000001
 40
0.0
 40
0.0
 40
0.0
 40
0.0
 40
1.0
 40
1.0
 40
1.0
 40
1.0
 10
310.9548710226
 20
318.6702164783
 30
0.0
 10
310.8993349882
 20
318.6146804406
 30
0.0
 10
310.9470418881
 20
318.4995058018
 30
0.0
 10
311.0255817036
 20
318.499505802
 30
0.0
  0
SPLINE
  5
4D0
100
AcDbEntity
  8
0
100
AcDbSpline
 62
7
  6
CONTINUOUS
 70
0
 71
3
 72
8
 73
4
 74
0
 42
0.0000001
 43
0.0000001
 44
0.0000000001
 40
0.0
 40
0.0
 40
0.0
 40
0.0
 40
1.0
 40
1.0
 40
1.0
 40
1.0
 10
312.2841603466
 20
315.5995058016
 30
0.0
 10
312.2841603466
 20
315.5471459244
 30
0.0
 10
312.3318004693
 20
315.4995058024
 30
0.0
 10
312.3841603466
 20
315.499505802
 30
0.0
  0
SPLINE
  5
4D1
100
AcDbEntity
  8
0
100
AcDbSpline
 62
7
  6
CONTINUOUS
 70
0
 71
3
 72
8
 73
4
 74
0
 42
0.0000001
 43
0.0000001
 44
0.0000000001
 40
0.0
 40
0.0
 40
0.0
 40
0.0
 40
1.0
 40
1.0
 40
1.0
 40
1.0
 10
315.1841603466
 20
315.499505802
 30
0.0
 10
315.2365202239
 20
315.4995058024
 30
0.0
 10
315.2841603466
 20
315.5471459244
 30
0.0
 10
315.2841603466
 20
315.5995058016
 30
0.0
  0
SPLINE
  5
4D2
100
AcDbEntity
  8
0
100
AcDbSpline
 62
7
  6
CONTINUOUS
 70
0
 71
3
 72
8
 73
4
 74
0
 42
0.0000001
 43
0.0000001
 44
0.0000000001
 40
0.0
 40
0.0
 40
0.0
 40
0.0
 40
1.0
 40
1.0
 40
1.0
 40
1.0
 10
316.5427389896
 20
318.499505802
 30
0.0
 10
316.6212788051
 20
318.4995058018
 30
0.0
 10
316.668985705
 20
318.6146804406
 30
0.0
 10
316.6134496706
 20
318.6702164783
 30
0.0
  0
SPLINE
  5
4D3
100
AcDbEntity
  8
0
100
AcDbSpline
 62
7
  6
CONTINUOUS
 70
0
 71
3
 72
8
 73
4
 74
0
 42
0.0000001
 43
0.0000001
 44
0.0000000001
 40
0.0
 40
0.0
 40
0.0
 40
0.0
 40
1.0
 40
1.0
 40
1.0
 40
1.0
 10
313.8548710236
 20
321.4287951253
 30
0.0
 10
313.8178469997
 20
321.4658191487
 30
0.0
 10
313.7504736933
 20
321.4658191487
 30
0.0
 10
313.7134496695
 20
321.4287951252
 30
0.0
  0
SPLINE
  5
4D4
100
AcDbEntity
  8
0
100
AcDbSpline
 62
7
  6
CONTINUOUS
 70
0
 71
3
 72
8
 73
4
 74
0
 42
0.0000001
 43
0.0000001
 44
0.0000000001
 40
0.0
 40
0.0
 40
0.0
 40
0.0
 40
1.0
 40
1.0
 40
1.0
 40
1.0
 10
306.6134496686
 20
315.6702164801
 30
0.0
 10
306.6689857046
 20
315.6146804435
 30
0.0
 10
306.7841603466
 20
315.6623873419
 30
0.0
 10
306.7841603466
 20
315.7409271583
 30
0.0
  0
SPLINE
  5
4D5
100
AcDbEntity
  8
0
100
AcDbSpline
 62
7
  6
CONTINUOUS
 70
0
 71
3
 72
8
 73
4
 74
0
 42
0.0000001
 43
0.0000001
 44
0.0000000001
 40
0.0
 40
0.0
 40
0.0
 40
0.0
 40
1.0
 40
1.0
 40
1.0
 40
1.0
 10
309.6841603466
 20
316.999505802
 30
0.0
 10
309.7365202239
 20
316.999505802
 30
0.0
 10
309.7841603466
 20
317.0471459244
 30
0.0
 10
309.7841603466
 20
317.099505802
 30
0.0
  0
SPLINE
  5
4D6
100
AcDbEntity
  8
0
100
AcDbSpline
 62
7
  6
CONTINUOUS
 70
0
 71
3
 72
8
 73
4
 74
0
 42
0.0000001
 43
0.0000001
 44
0.0000000001
 40
0.0
 40
0.0
 40
0.0
 40
0.0
 40
1.0
 40
1.0
 40
1.0
 40
1.0
 10
309.7841603466
 20
319.899505802
 30
0.0
 10
309.7841603466
 20
319.9518656796
 30
0.0
 10
309.7365202239
 20
319.999505802
 30
0.0
 10
309.6841603466
 20
319.999505802
 30
0.0
  0
SPLINE
  5
4D7
100
AcDbEntity
  8
0
100
AcDbSpline
 62
7
  6
CONTINUOUS
 70
0
 71
3
 72
8
 73
4
 74
0
 42
0.0000001
 43
0.0000001
 44
0.0000000001
 40
0.0
 40
0.0
 40
0.0
 40
0.0
 40
1.0
 40
1.0
 40
1.0
 40
1.0
 10
306.7841603466
 20
321.2580844457
 30
0.0
 10
306.7841603466
 20
321.3366242622
 30
0.0
 10
306.6689857044
 20
321.3843311607
 30
0.0
 10
306.6134496684
 20
321.3287951238
 30
0.0
  0
SPLINE
  5
4D8
100
AcDbEntity
  8
0
100
AcDbSpline
 62
7
  6
CONTINUOUS
 70
0
 71
3
 72
8
 73
4
 74
0
 42
0.0000001
 43
0.0000001
 44
0.0000000001
 40
0.0
 40
0.0
 40
0.0
 40
0.0
 40
1.0
 40
1.0
 40
1.0
 40
1.0
 10
303.8548710244
 20
318.57021648
 30
0.0
 10
303.8178470007
 20
318.5331924557
 30
0.0
 10
303.8178470006
 20
318.4658191487
 30
0.0
 10
303.8548710242
 20
318.4287951243
 30
0.0
  0
SPLINE
  5
4D9
100
AcDbEntity
  8
0
100
AcDbSpline
 62
7
  6
CONTINUOUS
 70
0
 71
3
 72
9
 73
5
 74
0
 42
0.0000001
 43
0.0000001
 44
0.0000000001
 40
0.0
 40
0.0
 40
0.0
 40
0.0
 40
0.2503321327
 40
1.0
 40
1.0
 40
1.0
 40
1.0
 10
298.6236966716
 20
166.199590687
 30
0.0
 10
298.8289911487
 20
169.3871978027
 30
0.0
 10
299.6498780374
 20
182.1206579648
 30
0.0
 10
300.4739611176
 20
194.8539120818
 30
0.0
 10
301.0935614236
 20
204.399505802
 30
0.0
  0
SPLINE
  5
4DA
100
AcDbEntity
  8
0
100
AcDbSpline
 62
7
  6
CONTINUOUS
 70
0
 71
3
 72
9
 73
5
 74
0
 42
0.0000001
 43
0.0000001
 44
0.0000000001
 40
0.0
 40
0.0
 40
0.0
 40
0.0
 40
0.4999999649
 40
1.0
 40
1.0
 40
1.0
 40
1.0
 10
191.2172800993
 20
336.9995253646
 30
0.0
 10
191.3619061826
 20
336.9995374233
 30
0.0
 10
191.6632217572
 20
336.8785767919
 30
0.0
 10
191.7841757546
 20
336.5772584406
 30
0.0
 10
191.7841603435
 20
336.4326323373
 30
0.0
  0
SPLINE
  5
4DB
100
AcDbEntity
  8
0
100
AcDbSpline
 62
7
  6
CONTINUOUS
 70
0
 71
3
 72
12
 73
8
 74
0
 42
0.0000001
 43
0.0000001
 44
0.0000000001
 40
0.0
 40
0.0
 40
0.0
 40
0.0
 40
0.3363154505
 40
0.6963620708
 40
0.8432892974
 40
0.9422391695
 40
1.0
 40
1.0
 40
1.0
 40
1.0
 10
264.3862182531
 20
336.9995055545
 30
0.0
 10
264.376005721
 20
336.8313813488
 30
0.0
 10
264.3552739569
 20
336.483205387
 30
0.0
 10
264.3278554088
 20
336.0619038879
 30
0.0
 10
264.3119675915
 20
335.7586073852
 30
0.0
 10
264.2979255205
 20
335.6075154261
 30
0.0
 10
264.2997960103
 20
335.5281646334
 30
0.0
 10
264.2936479609
 20
335.4998976249
 30
0.0
  0
SPLINE
  5
4DC
100
AcDbEntity
  8
0
100
AcDbSpline
 62
7
  6
CONTINUOUS
 70
0
 71
3
 72
9
 73
5
 74
0
 42
0.0000001
 43
0.0000001
 44
0.0000000001
 40
0.0
 40
0.0
 40
0.0
 40
0.0
 40
0.5000000114
 40
1.0
 40
1.0
 40
1.0
 40
1.0
 10
175.2841495759
 20
336.5787050781
 30
0.0
 10
175.2841375755
 20
336.6860635632
 30
0.0
 10
175.3739240858
 20
336.9097381269
 30
0.0
 10
175.5975975568
 20
336.999527254
 30
0.0
 10
175.7049560372
 20
336.9995165732
 30
0.0
  0
SPLINE
  5
4DD
100
AcDbEntity
  8
0
100
AcDbSpline
 62
7
  6
CONTINUOUS
 70
0
 71
3
 72
9
 73
5
 74
0
 42
0.0000001
 43
0.0000001
 44
0.0000000001
 40
0.0
 40
0.0
 40
0.0
 40
0.0
 40
0.4995928968
 40
1.0
 40
1.0
 40
1.0
 40
1.0
 10
283.9948302328
 20
336.999505802
 30
0.0
 10
284.0685850067
 20
336.9995058019
 30
0.0
 10
284.2223706532
 20
336.9378619136
 30
0.0
 10
284.2841603465
 20
336.7840559723
 30
0.0
 10
284.2841603466
 20
336.7101809974
 30
0.0
  0
SPLINE
  5
4DE
100
AcDbEntity
  8
0
100
AcDbSpline
 62
7
  6
CONTINUOUS
 70
0
 71
3
 72
9
 73
5
 74
0
 42
0.0000001
 43
0.0000001
 44
0.0000000001
 40
0.0
 40
0.0
 40
0.0
 40
0.0
 40
0.5000000474
 40
1.0
 40
1.0
 40
1.0
 40
1.0
 10
263.7841603506
 20
336.3974034703
 30
0.0
 10
263.7841423398
 20
336.551015607
 30
0.0
 10
263.9126080207
 20
336.871057026
 30
0.0
 10
264.2326433696
 20
336.9995372357
 30
0.0
 10
264.3862554779
 20
336.9995265566
 30
0.0
  0
SPLINE
  5
4DF
100
AcDbEntity
  8
0
100
AcDbSpline
 62
7
  6
CONTINUOUS
 70
0
 71
3
 72
9
 73
5
 74
0
 42
0.0000001
 43
0.0000001
 44
0.0000000001
 40
0.0
 40
0.0
 40
0.0
 40
0.0
 40
0.500000011
 40
1.0
 40
1.0
 40
1.0
 40
1.0
 10
264.2908389191
 20
332.2995058045
 30
0.0
 10
264.1615745354
 20
332.2994949508
 30
0.0
 10
263.8922640758
 20
332.407604793
 30
0.0
 10
263.7841510837
 20
332.6769139367
 30
0.0
 10
263.7841603479
 20
332.8061783149
 30
0.0
  0
SPLINE
  5
4E0
100
AcDbEntity
  8
0
100
AcDbSpline
 62
7
  6
CONTINUOUS
 70
0
 71
3
 72
9
 73
5
 74
0
 42
0.0000001
 43
0.0000001
 44
0.0000000001
 40
0.0
 40
0.0
 40
0.0
 40
0.0
 40
0.2542217147
 40
1.0
 40
1.0
 40
1.0
 40
1.0
 10
284.2841322572
 20
336.7102307875
 30
0.0
 10
284.1685881978
 20
336.5707330526
 30
0.0
 10
283.7139222757
 20
336.0221455436
 30
0.0
 10
283.2598201167
 20
335.4730855787
 30
0.0
 10
282.9192648115
 20
335.0651876765
 30
0.0
  0
SPLINE
  5
4E1
100
AcDbEntity
  8
0
100
AcDbSpline
 62
7
  6
CONTINUOUS
 70
0
 71
3
 72
9
 73
5
 74
0
 42
0.0000001
 43
0.0000001
 44
0.0000000001
 40
0.0
 40
0.0
 40
0.0
 40
0.0
 40
0.3780090991
 40
1.0
 40
1.0
 40
1.0
 40
1.0
 10
282.9192648115
 20
335.0651876765
 30
0.0
 10
282.9040364788
 20
335.04694804
 30
0.0
 10
282.8636737153
 20
334.9987624433
 30
0.0
 10
282.8234555577
 20
334.9504465065
 30
0.0
 10
282.7978558927
 20
334.9208955724
 30
0.0
  0
SPLINE
  5
4E2
100
AcDbEntity
  8
0
100
AcDbSpline
 62
7
  6
CONTINUOUS
 70
0
 71
3
 72
9
 73
5
 74
0
 42
0.0000001
 43
0.0000001
 44
0.0000000001
 40
0.0
 40
0.0
 40
0.0
 40
0.0
 40
0.7568228957
 40
1.0
 40
1.0
 40
1.0
 40
1.0
 10
282.7978558927
 20
334.9208955724
 30
0.0
 10
282.7946633252
 20
334.917210237
 30
0.0
 10
282.7903579943
 20
334.9124857873
 30
0.0
 10
282.7860568225
 20
334.9075758525
 30
0.0
 10
282.7847612369
 20
334.9066949695
 30
0.0
  0
LINE
  5
4E3
100
AcDbEntity
  8
0
100
AcDbLine
 62
7
  6
CONTINUOUS
 10
176.7842240915
 20
334.9975593995
 11
176.7825892339
 21
334.9989057907
  0
SPLINE
  5
4E4
100
AcDbEntity
  8
0
100
AcDbSpline
 62
7
  6
CONTINUOUS
 70
0
 71
3
 72
9
 73
5
 74
0
 42
0.0000001
 43
0.0000001
 44
0.0000000001
 40
0.0
 40
0.0
 40
0.0
 40
0.0
 40
0.2185877641
 40
1.0
 40
1.0
 40
1.0
 40
1.0
 10
176.7825892339
 20
334.9989057907
 30
0.0
 10
176.7594829333
 20
335.0202174775
 30
0.0
 10
176.6628100144
 20
335.1269778883
 30
0.0
 10
176.5621063651
 20
335.2295010838
 30
0.0
 10
176.4847678639
 20
335.3110234221
 30
0.0
  0
SPLINE
  5
4E5
100
AcDbEntity
  8
0
100
AcDbSpline
 62
7
  6
CONTINUOUS
 70
0
 71
3
 72
9
 73
5
 74
0
 42
0.0000001
 43
0.0000001
 44
0.0000000001
 40
0.0
 40
0.0
 40
0.0
 40
0.0
 40
0.2408263653
 40
1.0
 40
1.0
 40
1.0
 40
1.0
 10
176.4847678639
 20
335.3110234221
 30
0.0
 10
176.388301587
 20
335.412708305
 30
0.0
 10
175.9879633543
 20
335.8351552482
 30
0.0
 10
175.5878842728
 20
336.2578476032
 30
0.0
 10
175.2841939084
 20
336.5787814909
 30
0.0
  0
SPLINE
  5
4E6
100
AcDbEntity
  8
0
100
AcDbSpline
 62
7
  6
CONTINUOUS
 70
0
 71
3
 72
13
 73
9
 74
0
 42
0.0000001
 43
0.0000001
 44
0.0000000001
 40
0.0
 40
0.0
 40
0.0
 40
0.0
 40
0.381470345
 40
0.7059180892
 40
0.8300701664
 40
0.9222878347
 40
0.9794586555
 40
1.0
 40
1.0
 40
1.0
 40
1.0
 10
231.8370430725
 20
381.1647128098
 30
0.0
 10
231.8940069682
 20
381.164712808
 30
0.0
 10
231.9990570407
 20
381.1638557135
 30
0.0
 10
232.1241444866
 20
381.1618059551
 30
0.0
 10
232.203131699
 20
381.1578348533
 30
0.0
 10
232.246963897
 20
381.1566561446
 30
0.0
 10
232.2665835516
 20
381.1518000744
 30
0.0
 10
232.2841704302
 20
381.1522589535
 30
0.0
 10
232.2841702081
 20
381.1491915722
 30
0.0
  0
SPLINE
  5
4E7
100
AcDbEntity
  8
0
100
AcDbSpline
 62
7
  6
CONTINUOUS
 70
0
 71
3
 72
8
 73
4
 74
0
 42
0.0000001
 43
0.0000001
 44
0.0000000001
 40
0.0
 40
0.0
 40
0.0
 40
0.0
 40
1.0
 40
1.0
 40
1.0
 40
1.0
 10
268.0024001412
 20
329.999505802
 30
0.0
 10
267.8679819549
 20
329.9995058018
 30
0.0
 10
267.7248895188
 20
330.0587766295
 30
0.0
 10
267.6298415079
 20
330.1538246407
 30
0.0
  0
SPLINE
  5
4E8
100
AcDbEntity
  8
0
100
AcDbSpline
 62
7
  6
CONTINUOUS
 70
0
 71
3
 72
11
 73
7
 74
0
 42
0.0000001
 43
0.0000001
 44
0.0000000001
 40
0.0
 40
0.0
 40
0.0
 40
0.0
 40
0.0707538571
 40
0.2700815944
 40
0.5868683921
 40
1.0
 40
1.0
 40
1.0
 40
1.0
 10
221.2841602502
 20
381.1446919898
 30
0.0
 10
221.2841602502
 20
381.151492859
 30
0.0
 10
221.324548073
 20
381.1470817365
 30
0.0
 10
221.367355859
 20
381.1584909977
 30
0.0
 10
221.4639563374
 20
381.1581784324
 30
0.0
 10
221.5318162695
 20
381.1612135705
 30
0.0
 10
221.5715185584
 20
381.1620091754
 30
0.0
  0
SPLINE
  5
4E9
100
AcDbEntity
  8
0
100
AcDbSpline
 62
7
  6
CONTINUOUS
 70
0
 71
3
 72
13
 73
9
 74
0
 42
0.0000001
 43
0.0000001
 44
0.0000000001
 40
0.0
 40
0.0
 40
0.0
 40
0.0
 40
0.3814697059
 40
0.7059171635
 40
0.8300692802
 40
0.9222871239
 40
0.9794582513
 40
1.0
 40
1.0
 40
1.0
 40
1.0
 10
237.2911371822
 20
381.1551004819
 30
0.0
 10
237.3539481141
 20
381.1551004916
 30
0.0
 10
237.4697810843
 20
381.154155412
 30
0.0
 10
237.6077080605
 20
381.1518952803
 30
0.0
 10
237.6948031723
 20
381.1475165391
 30
0.0
 10
237.7431344101
 20
381.1462169146
 30
0.0
 10
237.7647685602
 20
381.1408622512
 30
0.0
 10
237.7841603451
 20
381.1413684069
 30
0.0
 10
237.7841603466
 20
381.1379861033
 30
0.0
  0
SPLINE
  5
4EA
100
AcDbEntity
  8
0
100
AcDbSpline
 62
7
  6
CONTINUOUS
 70
0
 71
3
 72
13
 73
9
 74
0
 42
0.0000001
 43
0.0000001
 44
0.0000000001
 40
0.0
 40
0.0
 40
0.0
 40
0.0
 40
0.0205410564
 40
0.0777108114
 40
0.1699276838
 40
0.2940786491
 40
0.6185278342
 40
1.0
 40
1.0
 40
1.0
 40
1.0
 10
234.7841603466
 20
381.1384390884
 30
0.0
 10
234.7841603452
 20
381.1417316816
 30
0.0
 10
234.8030378403
 20
381.1412391859
 30
0.0
 10
234.8240985693
 20
381.1464517822
 30
0.0
 10
234.8711488679
 20
381.1477170215
 30
0.0
 10
234.9559367129
 20
381.151979797
 30
0.0
 10
235.0902104025
 20
381.1541800641
 30
0.0
 10
235.2029755447
 20
381.1551001595
 30
0.0
 10
235.264122966
 20
381.155100169
 30
0.0
  0
LINE
  5
4EB
100
AcDbEntity
  8
0
100
AcDbLine
 62
7
  6
CONTINUOUS
 10
282.1913038352
 20
335.5000715127
 11
282.1920209024
 21
335.5009594548
  0
SPLINE
  5
4EC
100
AcDbEntity
  8
0
100
AcDbSpline
 62
7
  6
CONTINUOUS
 70
0
 71
3
 72
9
 73
5
 74
0
 42
0.0000001
 43
0.0000001
 44
0.0000000001
 40
0.0
 40
0.0
 40
0.0
 40
0.0
 40
0.0676419854
 40
1.0
 40
1.0
 40
1.0
 40
1.0
 10
282.1920209024
 20
335.5009594548
 30
0.0
 10
282.1933489634
 20
335.5024237646
 30
0.0
 10
282.2151171135
 20
335.5220072954
 30
0.0
 10
282.2376274085
 20
335.5405907416
 30
0.0
 10
282.2584799282
 20
335.5581306112
 30
0.0
  0
SPLINE
  5
4ED
100
AcDbEntity
  8
0
100
AcDbSpline
 62
7
  6
CONTINUOUS
 70
0
 71
3
 72
9
 73
5
 74
0
 42
0.0000001
 43
0.0000001
 44
0.0000000001
 40
0.0
 40
0.0
 40
0.0
 40
0.0
 40
0.1850238824
 40
1.0
 40
1.0
 40
1.0
 40
1.0
 10
282.3134314404
 20
335.6042023911
 30
0.0
 10
282.4167965055
 20
335.6906611374
 30
0.0
 10
282.9769220963
 20
336.1561876375
 30
0.0
 10
283.537757018
 20
336.6208558777
 30
0.0
 10
283.9948802438
 20
336.9994823998
 30
0.0
  0
SPLINE
  5
4EE
100
AcDbEntity
  8
0
100
AcDbSpline
 62
7
  6
CONTINUOUS
 70
0
 71
3
 72
13
 73
9
 74
0
 42
0.0000001
 43
0.0000001
 44
0.0000000001
 40
0.0
 40
0.0
 40
0.0
 40
0.0
 40
0.381469706
 40
0.7059171636
 40
0.8300692803
 40
0.9222871239
 40
0.9794582513
 40
1.0
 40
1.0
 40
1.0
 40
1.0
 10
218.311882514
 20
381.1551004851
 30
0.0
 10
218.3720504998
 20
381.1551004944
 30
0.0
 10
218.4830094731
 20
381.1541951817
 30
0.0
 10
218.6151327852
 20
381.1520301513
 30
0.0
 10
218.6985631259
 20
381.147835658
 30
0.0
 10
218.7448606914
 20
381.1465907188
 30
0.0
 10
218.7655845239
 20
381.1414613679
 30
0.0
 10
218.7841603452
 20
381.1419462256
 30
0.0
 10
218.7841603466
 20
381.1387062419
 30
0.0
  0
SPLINE
  5
4EF
100
AcDbEntity
  8
0
100
AcDbSpline
 62
7
  6
CONTINUOUS
 70
0
 71
3
 72
9
 73
5
 74
0
 42
0.0000001
 43
0.0000001
 44
0.0000000001
 40
0.0
 40
0.0
 40
0.0
 40
0.0
 40
0.2370727238
 40
1.0
 40
1.0
 40
1.0
 40
1.0
 10
175.7048938151
 20
336.9994795517
 30
0.0
 10
175.8136246781
 20
336.8965909233
 30
0.0
 10
176.2722055101
 20
336.462533235
 30
0.0
 10
176.7309066054
 20
336.0286015004
 30
0.0
 10
177.0801894058
 20
335.6968341772
 30
0.0
  0
SPLINE
  5
4F0
100
AcDbEntity
  8
0
100
AcDbSpline
 62
7
  6
CONTINUOUS
 70
0
 71
3
 72
10
 73
6
 74
0
 42
0.0000001
 43
0.0000001
 44
0.0000000001
 40
0.0
 40
0.0
 40
0.0
 40
0.0
 40
0.5214031475
 40
0.8338825945
 40
1.0
 40
1.0
 40
1.0
 40
1.0
 10
177.0801894058
 20
335.6968341772
 30
0.0
 10
177.116146604
 20
335.6626801239
 30
0.0
 10
177.1759073774
 20
335.6095932991
 30
0.0
 10
177.2387244878
 20
335.5398273554
 30
0.0
 10
177.2794270017
 20
335.5136661549
 30
0.0
 10
177.2861621119
 20
335.4993735308
 30
0.0
  0
SPLINE
  5
4F1
100
AcDbEntity
  8
0
100
AcDbSpline
 62
7
  6
CONTINUOUS
 70
0
 71
3
 72
13
 73
9
 74
0
 42
0.0000001
 43
0.0000001
 44
0.0000000001
 40
0.0
 40
0.0
 40
0.0
 40
0.0
 40
0.0201609694
 40
0.0760085282
 40
0.1662222584
 40
0.2882935494
 40
0.6106658863
 40
1.0
 40
1.0
 40
1.0
 40
1.0
 10
215.7841603466
 20
381.1359146499
 30
0.0
 10
215.7841603452
 20
381.1392742809
 30
0.0
 10
215.8032029397
 20
381.1391948151
 30
0.0
 10
215.8247315119
 20
381.1444312559
 30
0.0
 10
215.8725947695
 20
381.1460776039
 30
0.0
 10
215.9597594849
 20
381.1507163102
 30
0.0
 10
216.0999392778
 20
381.1534933681
 30
0.0
 10
216.2181282801
 20
381.1547789088
 30
0.0
 10
216.2830066571
 20
381.1550056682
 30
0.0
  0
SPLINE
  5
4F2
100
AcDbEntity
  8
0
100
AcDbSpline
 62
7
  6
CONTINUOUS
 70
0
 71
3
 72
14
 73
10
 74
0
 42
0.0000001
 43
0.0000001
 44
0.0000000001
 40
0.0
 40
0.0
 40
0.0
 40
0.0
 40
0.0100529738
 40
0.0556679145
 40
0.1544461805
 40
0.3038980056
 40
0.4847986882
 40
0.6712070833
 40
1.0
 40
1.0
 40
1.0
 40
1.0
 10
191.2368209157
 20
335.4994426314
 30
0.0
 10
191.2392442526
 20
335.5038474086
 30
0.0
 10
191.2353804546
 20
335.5335167003
 30
0.0
 10
191.2408463453
 20
335.6083676989
 30
0.0
 10
191.2350455458
 20
335.7570477795
 30
0.0
 10
191.2341434628
 20
335.9707866396
 30
0.0
 10
191.2295367449
 20
336.2294884362
 30
0.0
 10
191.2243298433
 20
336.5774529443
 30
0.0
 10
191.2200475204
 20
336.8351023983
 30
0.0
 10
191.2173246129
 20
336.9995057584
 30
0.0
  0
SPLINE
  5
4F3
100
AcDbEntity
  8
0
100
AcDbSpline
 62
7
  6
CONTINUOUS
 70
0
 71
3
 72
11
 73
7
 74
0
 42
0.0000001
 43
0.0000001
 44
0.0000000001
 40
0.0
 40
0.0
 40
0.0
 40
0.0
 40
0.2500364727
 40
0.5000001554
 40
0.7499637672
 40
1.0
 40
1.0
 40
1.0
 40
1.0
 10
53.9154261873
 20
380.661685993
 30
0.0
 10
53.4870295477
 20
380.6616560879
 30
0.0
 10
52.6209316006
 20
380.4903009831
 30
0.0
 10
51.5266291745
 20
379.7570359475
 30
0.0
 10
50.7933648771
 20
378.662733553
 30
0.0
 10
50.6220100607
 20
377.7966361648
 30
0.0
 10
50.6219801556
 20
377.3682399362
 30
0.0
  0
SPLINE
  5
4F4
100
AcDbEntity
  8
0
100
AcDbSpline
 62
7
  6
CONTINUOUS
 70
0
 71
3
 72
11
 73
7
 74
0
 42
0.0000001
 43
0.0000001
 44
0.0000000001
 40
0.0
 40
0.0
 40
0.0
 40
0.0
 40
0.2500364727
 40
0.5000001554
 40
0.7499637673
 40
1.0
 40
1.0
 40
1.0
 40
1.0
 10
50.6219801556
 20
169.6307716679
 30
0.0
 10
50.6220100605
 20
169.2023750279
 30
0.0
 10
50.7933651578
 20
168.3362770797
 30
0.0
 10
51.5266301844
 20
167.2419746459
 30
0.0
 10
52.6209325734
 20
166.5087103388
 30
0.0
 10
53.4870299618
 20
166.3373555167
 30
0.0
 10
53.9154261906
 20
166.337325611
 30
0.0
  0
SPLINE
  5
4F5
100
AcDbEntity
  8
0
100
AcDbSpline
 62
7
  6
CONTINUOUS
 70
0
 71
3
 72
11
 73
7
 74
0
 42
0.0000001
 43
0.0000001
 44
0.0000000001
 40
0.0
 40
0.0
 40
0.0
 40
0.0
 40
0.250036584
 40
0.4999987213
 40
0.7499645327
 40
1.0
 40
1.0
 40
1.0
 40
1.0
 10
137.6613283235
 20
329.1225065862
 30
0.0
 10
137.6612633808
 20
329.5127122233
 30
0.0
 10
137.8174757667
 20
330.3016021621
 30
0.0
 10
138.4853269342
 20
331.2983214987
 30
0.0
 10
139.482068917
 20
331.966305649
 30
0.0
 10
140.2709622822
 20
332.1222184254
 30
0.0
 10
140.6611661638
 20
332.1223378085
 30
0.0
  0
SPLINE
  5
4F6
100
AcDbEntity
  8
0
100
AcDbSpline
 62
7
  6
CONTINUOUS
 70
0
 71
3
 72
11
 73
7
 74
0
 42
0.0000001
 43
0.0000001
 44
0.0000000001
 40
0.0
 40
0.0
 40
0.0
 40
0.0
 40
0.2500114679
 40
0.4999583543
 40
0.7499080247
 40
1.0
 40
1.0
 40
1.0
 40
1.0
 10
137.7841603644
 20
329.12250723
 30
0.0
 10
137.784096957
 20
329.5034792772
 30
0.0
 10
137.9328288525
 20
330.2733295435
 30
0.0
 10
138.5702928988
 20
331.254444923
 30
0.0
 10
139.5268921547
 20
331.9286322047
 30
0.0
 10
140.290784509
 20
332.105651418
 30
0.0
 10
140.6716023983
 20
332.1201748187
 30
0.0
  0
SPLINE
  5
4F7
100
AcDbEntity
  8
0
100
AcDbSpline
 62
7
  6
CONTINUOUS
 70
0
 71
3
 72
9
 73
5
 74
0
 42
0.0000001
 43
0.0000001
 44
0.0000000001
 40
0.0
 40
0.0
 40
0.0
 40
0.0
 40
0.2503321328
 40
1.0
 40
1.0
 40
1.0
 40
1.0
 10
174.9446242952
 20
166.199590686
 30
0.0
 10
174.7393297831
 20
169.387197802
 30
0.0
 10
173.9184427668
 20
182.1206579622
 30
0.0
 10
173.0943596075
 20
194.8539120803
 30
0.0
 10
172.4747592698
 20
204.399505802
 30
0.0
  0
SPLINE
  5
4F8
100
AcDbEntity
  8
0
100
AcDbSpline
 62
7
  6
CONTINUOUS
 70
0
 71
3
 72
11
 73
7
 74
0
 42
0.0000001
 43
0.0000001
 44
0.0000000001
 40
0.0
 40
0.0
 40
0.0
 40
0.0
 40
0.2500316311
 40
0.5000000987
 40
0.7499684525
 40
1.0
 40
1.0
 40
1.0
 40
1.0
 10
342.9577575826
 20
169.735923043
 30
0.0
 10
342.9577243031
 20
169.3119294792
 30
0.0
 10
342.7881311989
 20
168.45471879
 30
0.0
 10
342.0623898656
 20
167.3716287153
 30
0.0
 10
340.9793001166
 20
166.6458907704
 30
0.0
 10
340.122089841
 20
166.4762914774
 30
0.0
 10
339.6980964186
 20
166.476261879
 30
0.0
  0
SPLINE
  5
4F9
100
AcDbEntity
  8
0
100
AcDbSpline
 62
7
  6
CONTINUOUS
 70
0
 71
3
 72
11
 73
7
 74
0
 42
0.0000001
 43
0.0000001
 44
0.0000000001
 40
0.0
 40
0.0
 40
0.0
 40
0.0
 40
0.2500364727
 40
0.5000001554
 40
0.7499637673
 40
1.0
 40
1.0
 40
1.0
 40
1.0
 10
343.0772934226
 20
377.367895899
 30
0.0
 10
343.077263513
 20
377.7963372905
 30
0.0
 10
342.9058905113
 20
378.6625257131
 30
0.0
 10
342.1725488804
 20
379.7569424566
 30
0.0
 10
341.0781321773
 20
380.4902833613
 30
0.0
 10
340.2119443141
 20
380.6616560836
 30
0.0
 10
339.7835033339
 20
380.661685993
 30
0.0
  0
ENDSEC
  0
SECTION
  2
OBJECTS
  0
DICTIONARY
  5
C
100
AcDbDictionary
280
0
281
1
  3
ACAD_GROUP
350
D
  3
ACAD_MLINESTYLE
350
17
  3
ACAD_LAYOUT
350
1A
  3
ACAD_PLOTSETTINGS
350
19
  3
ACAD_PLOTSTYLENAME
350
E
  0
DICTIONARY
  5
D
102
{ACAD_REACTORS
330
C
102
}
100
AcDbDictionary
280
0
281
1
  0
ACDBDICTIONARYWDFLT
  5
E
102
{ACAD_REACTORS
330
C
102
}
100
AcDbDictionary
281
1
  3
Normal
350
F
100
AcDbDictionaryWithDefault
340
F
  0
DICTIONARY
  5
17
102
{ACAD_REACTORS
330
C
102
}
100
AcDbDictionary
280
0
281
1
  3
Standard
350
18
  0
DICTIONARY
  5
19
102
{ACAD_REACTORS
330
C
102
}
100
AcDbDictionary
281
1
  0
DICTIONARY
  5
1A
102
{ACAD_REACTORS
330
C
102
}
100
AcDbDictionary
281
1
  3
Model
350
4FA
  3
Layout1
350
4FB
  0
ACDBPLACEHOLDER
  5
F
102
{ACAD_REACTORS
330
E
102
}
  0
MLINESTYLE
  5
18
102
{ACAD_REACTORS
330
17
102
}
100
AcDbMlineStyle
  2
STANDARD
 70
0
  3

 62
256
 51
90.0
 52
90.0
 71
2
 49
0.5
 62
256
  6
BYLAYER
 49
-0.5
 62
256
  6
BYLAYER
  0
LAYOUT
  5
4FA
102
{ACAD_REACTORS
330
1A
102
}
100
AcDbPlotSettings
  1

  2
none_device
  4

  6

 40
0.0
 41
0.0
 42
0.0
 43
0.0
 44
210.0
 45
297.0
 46
0.0
 47
0.0
 48
0.0
 49
0.0
140
0.0
141
0.0
142
1.0
143
1.0
 70
1024
 72
1
 73
0
 74
0
  7

 75
0
147
1.0
148
0.0
149
0.0
100
AcDbLayout
  1
Model
 70
0
 71
0
 10
0.0
 20
0.0
 11
210.0
 21
297.0
 12
0.0
 22
0.0
 32
0.0
 14
0.0
 24
0.0
 34
0.0
 15
0.0
 25
0.0
 35
0.0
146
0.0
 13
0.0
 23
0.0
 33
0.0
 16
1.0
 26
0.0
 36
0.0
 17
0.0
 27
1.0
 37
0.0
 76
0
330
210
345
0
346
0
  0
LAYOUT
  5
4FB
102
{ACAD_REACTORS
330
1A
102
}
100
AcDbPlotSettings
  1

  2
none_device
  4

  6

 40
0.0
 41
0.0
 42
0.0
 43
0.0
 44
210.0
 45
297.0
 46
0.0
 47
0.0
 48
0.0
 49
0.0
140
0.0
141
0.0
142
1.0
143
1.0
 70
0
 72
1
 73
0
 74
0
  7

 75
0
147
1.0
148
0.0
149
0.0
100
AcDbLayout
  1
Layout1
 70
0
 71
1
 10
0.0
 20
0.0
 11
210.0
 21
297.0
 12
0.0
 22
0.0
 32
0.0
 14
0.0
 24
0.0
 34
0.0
 15
0.0
 25
0.0
 35
0.0
146
0.0
 13
0.0
 23
0.0
 33
0.0
 16
1.0
 26
0.0
 36
0.0
 17
0.0
 27
1.0
 37
0.0
 76
0
330
211
345
0
346
0
  0
ENDSEC
  0
EOF
