999
DXF file: C:\Users\sesa63760\Dev\_Creo\CAD\MCADID0004769_3D-CAD\drw0001_1.dxf
999
Pro/ENGINEER 2019471 by Parametric Technology Corporation
  0
SECTION
  2
HEADER
  9
$ACADVER
  1
AC1024
  9
$DWGCODEPAGE
  3
ANSI_1252
  9
$EXTMAX
 10
62.9395550644
 20
89.0145135911
 30
0.0
  9
$EXTMIN
 10
0.0
 20
0.0
 30
0.0
  9
$LIMMIN
 10
0.0
 20
0.0
  9
$LIMMAX
 10
62.9395550644
 20
89.0145135911
  9
$VIEWCTR
 10
31.4697775322
 20
44.5072567956
  9
$VIEWSIZE
 40
89.0145135911
  9
$CLAYER
  8
0
  9
$LTSCALE
 40
5.8024275526
  9
$CELTYPE
  6
BYLAYER
  9
$DIMSCALE
 40
1.0
  9
$DIMASZ
 40
0.7492804174
  9
$DIMEXO
 40
1.0
  9
$DIMDLI
 40
4.0089499454
  9
$DIMEXE
 40
1.0
  9
$DIMCEN
 40
0.949488145
  9
$DIMLFAC
 40
1.0
  9
$DIMBLK
  1
_FILLED
  9
$DIMALT
 70
0
  9
$DIMALTF
 40
0.0393700787
  9
$DIMTXT
 40
1.0489925844
  9
$DIMTOL
 70
1
  9
$DIMLIM
 70
0
  9
$DIMTFAC
 40
1.0
  9
$DIMTP
 40
0.01
  9
$DIMTM
 40
0.01
  9
$DIMGAP
 40
0.625
  9
$DIMDSEP
 70
46
  9
$AUNITS
 70
0
  9
$PDMODE
 70
3
  9
$PDSIZE
 40
0.3125
  9
$HANDSEED
  5
3DD
  9
$TILEMODE
 70
1
  9
$MEASUREMENT
 70
1
  9
$INSUNITS
 70
4
  0
ENDSEC
  0
SECTION
  2
CLASSES
  0
CLASS
  1
ACDBDICTIONARYWDFLT
  2
AcDbDictionaryWithDefault
  3
AutoCAD 2000
 90
0
 91
1
280
0
281
0
  0
CLASS
  1
ACDBPLACEHOLDER
  2
AcDbPlaceHolder
  3
AutoCAD 2000
 90
0
 91
1
280
0
281
0
  0
CLASS
  1
LAYOUT
  2
AcDbLayout
  3
AutoCAD 2000
 90
0
 91
0
280
0
281
0
  0
ENDSEC
  0
SECTION
  2
TABLES
  0
TABLE
  2
VPORT
  5
8
100
AcDbSymbolTable
 70
2
  0
VPORT
  5
1F4
100
AcDbSymbolTableRecord
100
AcDbViewportTableRecord
  2
*ACTIVE
 70
0
 10
0.0
 20
0.0
 11
1.0
 21
1.0
 12
31.4697775322
 22
44.5072567956
 13
0.0
 23
0.0
 14
1.0
 24
1.0
 15
0.0
 25
0.0
 16
0.0
 26
0.0
 36
1.0
 17
0.0
 27
0.0
 37
0.0
 40
89.0145135911
 41
0.7070707071
 42
50.0
 43
0.0
 44
0.0
 50
0.0
 51
0.0
 71
0
 72
100
 73
1
 74
1
 75
0
 76
0
 77
0
 78
0
  0
ENDTAB
  0
TABLE
  2
LTYPE
  5
5
100
AcDbSymbolTable
 70
6
  0
LTYPE
  5
14
100
AcDbSymbolTableRecord
100
AcDbLinetypeTableRecord
  2
BYBLOCK
 70
0
  3

 72
65
 73
0
 40
0.0
  0
LTYPE
  5
15
100
AcDbSymbolTableRecord
100
AcDbLinetypeTableRecord
  2
BYLAYER
 70
0
  3

 72
65
 73
0
 40
0.0
  0
LTYPE
  5
16
100
AcDbSymbolTableRecord
100
AcDbLinetypeTableRecord
  2
CONTINUOUS
 70
64
  3
Solid line
 72
65
 73
0
 40
0.0
  0
LTYPE
  5
1F5
100
AcDbSymbolTableRecord
100
AcDbLinetypeTableRecord
  2
CENTER
 70
64
  3
____ _ ____ _ ____ _ ____ _ ____ _ ____ _ ____
 72
65
 73
4
 40
0.6
 49
0.375
 74
0
 49
-0.075
 74
0
 49
0.075
 74
0
 49
-0.075
 74
0
  0
LTYPE
  5
1F6
100
AcDbSymbolTableRecord
100
AcDbLinetypeTableRecord
  2
HIDDEN
 70
64
  3
- - - - - - - - - - - - - - - - - - - -
 72
65
 73
2
 40
0.2
 49
0.1
 74
0
 49
-0.1
 74
0
  0
LTYPE
  5
1F7
100
AcDbSymbolTableRecord
100
AcDbLinetypeTableRecord
  2
PHANTOM
 70
64
  3
_____ _ _ _____ _ _ _____ _ _ _____
 72
65
 73
6
 40
0.8
 49
0.45
 74
0
 49
-0.05
 74
0
 49
0.1
 74
0
 49
-0.05
 74
0
 49
0.1
 74
0
 49
-0.05
 74
0
  0
LTYPE
  5
1F8
100
AcDbSymbolTableRecord
100
AcDbLinetypeTableRecord
  2
DOT
 70
64
  3
. . . . . . . . . . . . . . . . . . . .
 72
65
 73
2
 40
0.2
 49
0.1
 74
0
 49
-0.1
 74
0
  0
LTYPE
  5
1F9
100
AcDbSymbolTableRecord
100
AcDbLinetypeTableRecord
  2
DASHED
 70
64
  3
- - - - - - - - - - - - - - - - - - - -
 72
65
 73
2
 40
0.2
 49
0.1
 74
0
 49
-0.1
 74
0
  0
ENDTAB
  0
TABLE
  2
LAYER
  5
2
100
AcDbSymbolTable
 70
36
  0
LAYER
  5
10
100
AcDbSymbolTableRecord
100
AcDbLayerTableRecord
  2
0
 70
0
 62
7
  6
CONTINUOUS
370
-3
390
F
  0
LAYER
  5
1FA
100
AcDbSymbolTableRecord
100
AcDbLayerTableRecord
  2
DEFAULT_1
 70
0
 62
7
  6
CENTER
370
-3
390
F
  0
LAYER
  5
1FB
100
AcDbSymbolTableRecord
100
AcDbLayerTableRecord
  2
DEFAULT_2
 70
0
 62
7
  6
HIDDEN
370
-3
390
F
  0
LAYER
  5
1FC
100
AcDbSymbolTableRecord
100
AcDbLayerTableRecord
  2
DEFAULT_3
 70
0
 62
7
  6
PHANTOM
370
-3
390
F
  0
LAYER
  5
1FD
100
AcDbSymbolTableRecord
100
AcDbLayerTableRecord
  2
00_COMPONENTS
 70
0
 62
7
  6
CONTINUOUS
370
-3
390
F
  0
LAYER
  5
1FE
100
AcDbSymbolTableRecord
100
AcDbLayerTableRecord
  2
01_1_DEFAULT_DATUMS
 70
0
 62
7
  6
CONTINUOUS
370
-3
390
F
  0
LAYER
  5
1FF
100
AcDbSymbolTableRecord
100
AcDbLayerTableRecord
  2
01_PLANES
 70
0
 62
7
  6
CONTINUOUS
370
-3
390
F
  0
LAYER
  5
200
100
AcDbSymbolTableRecord
100
AcDbLayerTableRecord
  2
02_COORD_SYS
 70
0
 62
7
  6
CONTINUOUS
370
-3
390
F
  0
LAYER
  5
201
100
AcDbSymbolTableRecord
100
AcDbLayerTableRecord
  2
03_AXES
 70
0
 62
7
  6
CONTINUOUS
370
-3
390
F
  0
LAYER
  5
202
100
AcDbSymbolTableRecord
100
AcDbLayerTableRecord
  2
04_POINTS
 70
0
 62
7
  6
CONTINUOUS
370
-3
390
F
  0
LAYER
  5
203
100
AcDbSymbolTableRecord
100
AcDbLayerTableRecord
  2
05_CURVES
 70
0
 62
7
  6
CONTINUOUS
370
-3
390
F
  0
LAYER
  5
204
100
AcDbSymbolTableRecord
100
AcDbLayerTableRecord
  2
06_SURFS
 70
0
 62
7
  6
CONTINUOUS
370
-3
390
F
  0
LAYER
  5
205
100
AcDbSymbolTableRecord
100
AcDbLayerTableRecord
  2
07_COSMETICS
 70
0
 62
7
  6
CONTINUOUS
370
-3
390
F
  0
LAYER
  5
206
100
AcDbSymbolTableRecord
100
AcDbLayerTableRecord
  2
10_NOTES
 70
0
 62
7
  6
CONTINUOUS
370
-3
390
F
  0
LAYER
  5
207
100
AcDbSymbolTableRecord
100
AcDbLayerTableRecord
  2
11_NOTES_PUB
 70
0
 62
7
  6
CONTINUOUS
370
-3
390
F
  0
LAYER
  5
208
100
AcDbSymbolTableRecord
100
AcDbLayerTableRecord
  2
13_REF_GTOL
 70
0
 62
7
  6
CONTINUOUS
370
-3
390
F
  0
LAYER
  5
209
100
AcDbSymbolTableRecord
100
AcDbLayerTableRecord
  2
16_MISC
 70
0
 62
7
  6
CONTINUOUS
370
-3
390
F
  0
LAYER
  5
20A
100
AcDbSymbolTableRecord
100
AcDbLayerTableRecord
  2
17_NO_PRINT
 70
0
 62
7
  6
CONTINUOUS
370
-3
390
F
  0
LAYER
  5
20B
100
AcDbSymbolTableRecord
100
AcDbLayerTableRecord
  2
18_DATUM_CAMS_JOINTS
 70
0
 62
7
  6
CONTINUOUS
370
-3
390
F
  0
LAYER
  5
20C
100
AcDbSymbolTableRecord
100
AcDbLayerTableRecord
  2
19_DATUM_FUNCTIONAL
 70
0
 62
7
  6
CONTINUOUS
370
-3
390
F
  0
LAYER
  5
20D
100
AcDbSymbolTableRecord
100
AcDbLayerTableRecord
  2
20_DATUM_KINEMATIC_SCHEME
 70
0
 62
7
  6
CONTINUOUS
370
-3
390
F
  0
ENDTAB
  0
TABLE
  2
STYLE
  5
3
100
AcDbSymbolTable
 70
1
  0
STYLE
  5
11
100
AcDbSymbolTableRecord
100
AcDbTextStyleTableRecord
  2
STANDARD
 70
0
 40
0.0
 41
1.0
 50
0.0
 71
0
 42
0.2
  3
ARIAL.TTF
  4

  0
STYLE
  5
20E
100
AcDbSymbolTableRecord
100
AcDbTextStyleTableRecord
  2
TEXTSTYLE_1
 70
0
 40
0.0
 41
0.8
 50
0.0
 71
0
 42
0.2
  3
gdt
  4

  0
ENDTAB
  0
TABLE
  2
VIEW
  5
6
100
AcDbSymbolTable
 70
0
  0
ENDTAB
  0
TABLE
  2
UCS
  5
7
100
AcDbSymbolTable
 70
0
  0
ENDTAB
  0
TABLE
  2
APPID
  5
9
100
AcDbSymbolTable
 70
1
  0
APPID
  5
20F
100
AcDbSymbolTableRecord
100
AcDbRegAppTableRecord
  2
ACAD
 70
0
  0
ENDTAB
  0
TABLE
  2
BLOCK_RECORD
  5
1
100
AcDbSymbolTable
 70
0
  0
BLOCK_RECORD
  5
210
100
AcDbSymbolTableRecord
100
AcDbBlockTableRecord
  2
*Model_Space
  0
BLOCK_RECORD
  5
211
100
AcDbSymbolTableRecord
100
AcDbBlockTableRecord
  2
*Paper_Space
  0
BLOCK_RECORD
  5
212
100
AcDbSymbolTableRecord
100
AcDbBlockTableRecord
  2
_FILLED
  0
ENDTAB
  0
TABLE
  2
DIMSTYLE
  5
A
100
AcDbSymbolTable
 70
1
100
AcDbDimStyleTable
 71
0
  0
DIMSTYLE
105
213
100
AcDbSymbolTableRecord
100
AcDbDimStyleTableRecord
  2
STANDARD
 70
0
  3

  4

 40
1.0
 41
0.7492804174
 42
1.0
 43
0.38
 44
1.0
 45
0.0
 46
0.0
 47
0.01
 48
0.01
140
1.0489925844
141
0.09
142
0.0
143
25.4
144
1.0
145
0.0
146
1.0
147
0.625
 71
1
 72
0
 73
0
 74
0
 75
0
 76
0
 77
1
 78
8
 79
2
170
0
171
1
172
0
173
0
174
0
175
0
176
0
177
0
178
0
270
2
179
2
271
2
272
2
273
2
274
2
275
0
280
0
281
0
282
0
283
1
284
8
285
0
286
0
287
3
288
0
340
11
278
46
341
212
342
212
343
212
344
212
  0
ENDTAB
  0
ENDSEC
  0
SECTION
  2
BLOCKS
  0
BLOCK
  5
20
100
AcDbEntity
  8
0
100
AcDbBlockBegin
  2
*Model_Space
 70
0
 10
0.0
 20
0.0
 30
0.0
  3
*Model_Space
  1

  0
ENDBLK
  5
21
100
AcDbEntity
  8
0
100
AcDbBlockEnd
  0
BLOCK
  5
1C
100
AcDbEntity
  8
0
100
AcDbBlockBegin
  2
*Paper_Space
 70
0
 10
0.0
 20
0.0
 30
0.0
  3
*Paper_Space
  1

  0
ENDBLK
  5
1D
100
AcDbEntity
  8
0
100
AcDbBlockEnd
  0
BLOCK
  5
214
100
AcDbEntity
  8
0
100
AcDbBlockBegin
  2
_FILLED
 70
64
 10
0.0
 20
0.0
  3
_FILLED
  1

  0
SOLID
  5
215
100
AcDbEntity
  8
0
  6
BYBLOCK
 62
0
100
AcDbTrace
 10
0.0
 20
0.0
 11
-1.0
 21
0.25
 12
-1.0
 22
-0.25
 13
-1.0
 23
-0.25
  0
ENDBLK
  5
216
100
AcDbEntity
  8
0
  6
BYBLOCK
 62
0
100
AcDbBlockEnd
  0
ENDSEC
  0
SECTION
  2
ENTITIES
  0
LINE
  5
217
100
AcDbEntity
  8
0
100
AcDbLine
 62
7
  6
BYLAYER
 10
22.5250915886
 20
74.4219835395
 11
17.5753647281
 21
71.5642744624
  0
LINE
  5
218
100
AcDbEntity
  8
0
100
AcDbLine
 62
7
  6
BYLAYER
 10
15.0398410652
 20
67.7910003008
 11
18.0096771815
 21
69.505625747
  0
LINE
  5
219
100
AcDbEntity
  8
0
100
AcDbLine
 62
7
  6
BYLAYER
 10
26.458037673
 20
74.3832598355
 11
27.0606062978
 21
74.7311509166
  0
LINE
  5
21A
100
AcDbEntity
  8
0
100
AcDbLine
 62
7
  6
BYLAYER
 10
25.7537383879
 20
14.8004001753
 11
26.4537383879
 21
14.8004018579
  0
LINE
  5
21B
100
AcDbEntity
  8
0
100
AcDbLine
 62
7
  6
BYLAYER
 10
25.7537386424
 20
14.8438469178
 11
26.4537386423
 21
14.8438486005
  0
LINE
  5
21C
100
AcDbEntity
  8
0
100
AcDbLine
 62
7
  6
BYLAYER
 10
11.0423346466
 20
23.6994351697
 11
10.9009138791
 21
23.7810868223
  0
LINE
  5
21D
100
AcDbEntity
  8
0
100
AcDbLine
 62
7
  6
BYLAYER
 10
25.1845291495
 20
15.5346200793
 11
25.0431083821
 21
15.6162717319
  0
LINE
  5
21E
100
AcDbEntity
  8
0
100
AcDbLine
 62
7
  6
BYLAYER
 10
34.122043113
 20
18.3047729891
 11
33.4930234544
 21
18.3047714736
  0
LINE
  5
21F
100
AcDbEntity
  8
0
100
AcDbLine
 62
7
  6
BYLAYER
 10
18.7008808347
 20
18.3047359174
 11
18.085375731
 21
18.3047344413
  0
LINE
  5
220
100
AcDbEntity
  8
0
100
AcDbLine
 62
7
  6
BYLAYER
 10
25.6088755591
 20
17.0043301816
 11
7.5067298108
 21
27.4553724681
  0
LINE
  5
221
100
AcDbEntity
  8
0
100
AcDbLine
 62
7
  6
BYLAYER
 10
17.3599050349
 20
19.5639552907
 11
16.8422709884
 21
20.2322256138
  0
LINE
  5
222
100
AcDbEntity
  8
0
100
AcDbLine
 62
7
  6
BYLAYER
 10
7.3017125242
 20
33.0483691621
 11
7.3017125242
 21
27.7411034508
  0
LINE
  5
223
100
AcDbEntity
  8
0
100
AcDbLine
 62
7
  6
BYLAYER
 10
7.3724823385
 20
33.0483693265
 11
7.3724823385
 21
39.743689147
  0
LINE
  5
224
100
AcDbEntity
  8
0
100
AcDbLine
 62
7
  6
BYLAYER
 10
7.4260357291
 20
42.1931972482
 11
7.4260357291
 21
39.7436899968
  0
LINE
  5
225
100
AcDbEntity
  8
0
100
AcDbLine
 62
7
  6
BYLAYER
 10
7.5067298108
 20
27.4553724681
 11
7.5067277363
 21
32.7626393772
  0
LINE
  5
226
100
AcDbEntity
  8
0
100
AcDbLine
 62
7
  6
BYLAYER
 10
7.5775096524
 20
32.7625984188
 11
7.5775096524
 21
39.4579182392
  0
LINE
  5
227
100
AcDbEntity
  8
0
100
AcDbLine
 62
7
  6
BYLAYER
 10
7.7189318919
 20
39.3354458429
 11
7.7189318919
 21
41.7849530943
  0
LINE
  5
228
100
AcDbEntity
  8
0
100
AcDbLine
 62
7
  6
BYLAYER
 10
10.461569635
 20
25.7494334937
 11
10.461569635
 21
24.3934530531
  0
LINE
  5
229
100
AcDbEntity
  8
0
100
AcDbLine
 62
7
  6
BYLAYER
 10
9.0721009049
 20
43.2764064343
 11
8.9673155911
 21
42.300353209
  0
LINE
  5
22A
100
AcDbEntity
  8
0
100
AcDbLine
 62
7
  6
BYLAYER
 10
9.0980963091
 20
43.4190568031
 11
9.0721015652
 21
43.2764064106
  0
LINE
  5
22B
100
AcDbEntity
  8
0
100
AcDbLine
 62
7
  6
BYLAYER
 10
9.1527258972
 20
43.8883408752
 11
9.1467624874
 21
43.8566113996
  0
LINE
  5
22C
100
AcDbEntity
  8
0
100
AcDbLine
 62
7
  6
BYLAYER
 10
25.6088755591
 20
22.311595893
 11
7.5067277363
 21
32.7626393772
  0
LINE
  5
22D
100
AcDbEntity
  8
0
100
AcDbLine
 62
7
  6
BYLAYER
 10
25.6088076437
 20
22.3524591785
 11
7.5775096524
 21
32.7625984188
  0
LINE
  5
22E
100
AcDbEntity
  8
0
100
AcDbLine
 62
7
  6
BYLAYER
 10
11.6555224294
 20
42.9043430938
 11
11.6172380127
 21
43.4961086789
  0
LINE
  5
22F
100
AcDbEntity
  8
0
100
AcDbLine
 62
7
  6
BYLAYER
 10
11.6971016417
 20
42.9021777742
 11
11.6172332518
 21
44.1563108273
  0
LINE
  5
230
100
AcDbEntity
  8
0
100
AcDbLine
 62
7
  6
BYLAYER
 10
11.5923021117
 20
43.5284434825
 11
11.5617469912
 21
44.0843592449
  0
LINE
  5
231
100
AcDbEntity
  8
0
100
AcDbLine
 62
7
  6
BYLAYER
 10
11.6317419415
 20
44.3575587342
 11
11.7008106251
 21
42.9021777832
  0
LINE
  5
232
100
AcDbEntity
  8
0
100
AcDbLine
 62
7
  6
BYLAYER
 10
11.6172283071
 20
44.8419907154
 11
11.6172332518
 21
44.1563108273
  0
LINE
  5
233
100
AcDbEntity
  8
0
100
AcDbLine
 62
7
  6
BYLAYER
 10
11.6172380127
 20
43.4961086789
 11
11.6172429574
 21
42.8104287908
  0
LINE
  5
234
100
AcDbEntity
  8
0
100
AcDbLine
 62
7
  6
BYLAYER
 10
12.3059109628
 20
42.8104304462
 11
12.3059060181
 21
43.4961103343
  0
LINE
  5
235
100
AcDbEntity
  8
0
100
AcDbLine
 62
7
  6
BYLAYER
 10
12.3059012572
 20
44.1563124827
 11
12.3058963126
 21
44.8419923708
  0
LINE
  5
236
100
AcDbEntity
  8
0
100
AcDbLine
 62
7
  6
BYLAYER
 10
12.6686499205
 20
45.4591453801
 11
12.6686499205
 21
45.867389534
  0
LINE
  5
237
100
AcDbEntity
  8
0
100
AcDbLine
 62
7
  6
BYLAYER
 10
12.2913864042
 20
44.3575603198
 11
12.2223231918
 21
42.9021790367
  0
LINE
  5
238
100
AcDbEntity
  8
0
100
AcDbLine
 62
7
  6
BYLAYER
 10
12.3613885555
 20
44.084361167
 11
12.3308329767
 21
43.5284342663
  0
LINE
  5
239
100
AcDbEntity
  8
0
100
AcDbLine
 62
7
  6
BYLAYER
 10
12.2260330087
 20
42.9021790456
 11
12.3059012572
 21
44.1563124827
  0
LINE
  5
23A
100
AcDbEntity
  8
0
100
AcDbLine
 62
7
  6
BYLAYER
 10
12.2676215757
 20
42.9043452152
 11
12.3059060181
 21
43.4961103343
  0
LINE
  5
23B
100
AcDbEntity
  8
0
100
AcDbLine
 62
7
  6
BYLAYER
 10
25.1488210658
 20
61.5077698606
 11
27.0580014262
 21
62.6100290761
  0
LINE
  5
23C
100
AcDbEntity
  8
0
100
AcDbLine
 62
7
  6
BYLAYER
 10
33.5675208888
 20
66.3682794564
 11
35.0482747868
 21
67.2231880148
  0
LINE
  5
23D
100
AcDbEntity
  8
0
100
AcDbLine
 62
7
  6
BYLAYER
 10
14.851038365
 20
43.2764064343
 11
14.9558236788
 21
42.300353209
  0
LINE
  5
23E
100
AcDbEntity
  8
0
100
AcDbLine
 62
7
  6
BYLAYER
 10
11.5617469912
 20
44.0843592449
 11
11.6172332518
 21
44.1563108273
  0
LINE
  5
23F
100
AcDbEntity
  8
0
100
AcDbLine
 62
7
  6
BYLAYER
 10
25.3966750205
 20
29.1294269799
 11
7.7189318919
 21
39.3354458429
  0
LINE
  5
240
100
AcDbEntity
  8
0
100
AcDbLine
 62
7
  6
BYLAYER
 10
11.6172380127
 20
43.4961086789
 11
11.5617507144
 21
43.5680599947
  0
LINE
  5
241
100
AcDbEntity
  8
0
100
AcDbLine
 62
7
  6
BYLAYER
 10
12.3059012572
 20
44.1563124827
 11
12.3613885555
 21
44.084361167
  0
LINE
  5
242
100
AcDbEntity
  8
0
100
AcDbLine
 62
7
  6
BYLAYER
 10
14.7763731191
 20
43.8566249316
 11
14.7703692585
 21
43.8883489606
  0
LINE
  5
243
100
AcDbEntity
  8
0
100
AcDbLine
 62
7
  6
BYLAYER
 10
14.8510377054
 20
43.2764064106
 11
14.8250394121
 21
43.419070569
  0
LINE
  5
244
100
AcDbEntity
  8
0
100
AcDbLine
 62
7
  6
BYLAYER
 10
16.7770732148
 20
62.0058601644
 11
16.7770673268
 21
62.8223450728
  0
LINE
  5
245
100
AcDbEntity
  8
0
100
AcDbLine
 62
7
  6
BYLAYER
 10
12.3613922787
 20
43.5680619168
 11
12.3059060181
 21
43.4961103343
  0
LINE
  5
246
100
AcDbEntity
  8
0
100
AcDbLine
 62
7
  6
BYLAYER
 10
25.3966750205
 20
31.5789342313
 11
7.7189318919
 21
41.7849530943
  0
LINE
  5
247
100
AcDbEntity
  8
0
100
AcDbLine
 62
7
  6
BYLAYER
 10
39.3266058938
 20
23.6995031567
 11
39.1851851264
 21
23.7811548094
  0
LINE
  5
248
100
AcDbEntity
  8
0
100
AcDbLine
 62
7
  6
BYLAYER
 10
42.3825647424
 20
23.5629728053
 11
33.1901383155
 21
28.8701026141
  0
LINE
  5
249
100
AcDbEntity
  8
0
100
AcDbLine
 62
7
  6
BYLAYER
 10
20.6037052586
 20
47.7290923893
 11
20.6037052586
 21
48.1986150181
  0
LINE
  5
24A
100
AcDbEntity
  8
0
100
AcDbLine
 62
7
  6
BYLAYER
 10
21.1037052586
 20
48.1986150181
 11
21.1037052586
 21
49.608858618
  0
LINE
  5
24B
100
AcDbEntity
  8
0
100
AcDbLine
 62
7
  6
BYLAYER
 10
22.433950752
 20
58.9032632178
 11
22.3760302516
 21
58.2157259749
  0
LINE
  5
24C
100
AcDbEntity
  8
0
100
AcDbLine
 62
7
  6
BYLAYER
 10
20.5924573541
 20
48.1970356896
 11
20.5885748607
 21
48.1897962813
  0
LINE
  5
24D
100
AcDbEntity
  8
0
100
AcDbLine
 62
7
  6
BYLAYER
 10
16.6959880006
 20
41.7578906137
 11
16.2515619946
 21
40.9699877635
  0
LINE
  5
24E
100
AcDbEntity
  8
0
100
AcDbLine
 62
7
  6
BYLAYER
 10
20.6094178679
 20
48.1939915839
 11
20.6037052586
 21
48.1871024421
  0
LINE
  5
24F
100
AcDbEntity
  8
0
100
AcDbLine
 62
7
  6
BYLAYER
 10
23.0398052501
 20
53.9345731625
 11
24.100461006
 21
54.5469393933
  0
LINE
  5
250
100
AcDbEntity
  8
0
100
AcDbLine
 62
7
  6
BYLAYER
 10
12.6686499205
 20
45.867389534
 11
19.7396882926
 21
49.9498310727
  0
LINE
  5
251
100
AcDbEntity
  8
0
100
AcDbLine
 62
7
  6
BYLAYER
 10
27.6496064728
 20
54.3524091985
 11
37.5490601938
 21
60.0678273527
  0
LINE
  5
252
100
AcDbEntity
  8
0
100
AcDbLine
 62
7
  6
BYLAYER
 10
7.7189260039
 20
42.6014380027
 11
9.0937464453
 21
43.3951862166
  0
LINE
  5
253
100
AcDbEntity
  8
0
100
AcDbLine
 62
7
  6
BYLAYER
 10
12.4054329942
 20
45.307177924
 11
13.022204783
 21
45.6632691567
  0
LINE
  5
254
100
AcDbEntity
  8
0
100
AcDbLine
 62
7
  6
BYLAYER
 10
20.0932431552
 20
49.7457106955
 11
20.5055673192
 21
49.9837647416
  0
LINE
  5
255
100
AcDbEntity
  8
0
100
AcDbLine
 62
7
  6
BYLAYER
 10
32.4154786422
 20
30.3843403019
 11
32.1141791379
 21
30.5582917165
  0
LINE
  5
256
100
AcDbEntity
  8
0
100
AcDbLine
 62
7
  6
BYLAYER
 10
41.5541154595
 20
25.3941173966
 11
32.3616890326
 21
30.7012472053
  0
LINE
  5
257
100
AcDbEntity
  8
0
100
AcDbLine
 62
7
  6
BYLAYER
 10
45.9028070024
 20
24.2305668202
 11
45.5492521398
 21
24.4346871974
  0
LINE
  5
258
100
AcDbEntity
  8
0
100
AcDbLine
 62
7
  6
BYLAYER
 10
25.7594325157
 20
35.3312935885
 11
25.7039452173
 21
35.4032449043
  0
LINE
  5
259
100
AcDbEntity
  8
0
100
AcDbLine
 62
7
  6
BYLAYER
 10
16.6693445195
 20
56.3781035372
 11
17.9109389748
 21
52.5007679277
  0
LINE
  5
25A
100
AcDbEntity
  8
0
100
AcDbLine
 62
7
  6
BYLAYER
 10
23.2142954079
 20
35.1115913439
 11
23.1095100941
 21
34.1355381186
  0
LINE
  5
25B
100
AcDbEntity
  8
0
100
AcDbLine
 62
7
  6
BYLAYER
 10
16.6520861841
 20
41.7678758093
 11
16.6475419823
 21
41.7634653001
  0
LINE
  5
25C
100
AcDbEntity
  8
0
100
AcDbLine
 62
7
  6
BYLAYER
 10
20.4217010869
 20
48.7319527446
 11
20.792294247
 21
48.9459209228
  0
LINE
  5
25D
100
AcDbEntity
  8
0
100
AcDbLine
 62
7
  6
BYLAYER
 10
26.4481054657
 20
34.6456153558
 11
25.7594374603
 21
34.6456137004
  0
LINE
  5
25E
100
AcDbEntity
  8
0
100
AcDbLine
 62
7
  6
BYLAYER
 10
25.7642446089
 20
34.7373625034
 11
26.4432959135
 21
34.7373641357
  0
LINE
  5
25F
100
AcDbEntity
  8
0
100
AcDbLine
 62
7
  6
BYLAYER
 10
28.967233915
 20
35.2542554786
 11
28.882443739
 21
35.2542552748
  0
LINE
  5
260
100
AcDbEntity
  8
0
100
AcDbLine
 62
7
  6
BYLAYER
 10
23.325207467
 20
35.2542419168
 11
23.2402908121
 21
35.2542417127
  0
LINE
  5
261
100
AcDbEntity
  8
0
100
AcDbLine
 62
7
  6
BYLAYER
 10
28.6143833634
 20
35.4032519001
 11
26.5035867817
 21
35.4032468264
  0
LINE
  5
262
100
AcDbEntity
  8
0
100
AcDbLine
 62
7
  6
BYLAYER
 10
25.7039452173
 20
35.4032449043
 11
23.5931486356
 21
35.4032398305
  0
LINE
  5
263
100
AcDbEntity
  8
0
100
AcDbLine
 62
7
  6
BYLAYER
 10
23.5931449124
 20
35.9195390807
 11
25.7039414941
 21
35.9195441545
  0
LINE
  5
264
100
AcDbEntity
  8
0
100
AcDbLine
 62
7
  6
BYLAYER
 10
26.5035830585
 20
35.9195460766
 11
28.6143796402
 21
35.9195511503
  0
LINE
  5
265
100
AcDbEntity
  8
0
100
AcDbLine
 62
7
  6
BYLAYER
 10
25.7739364445
 20
36.1927436438
 11
26.4335809071
 21
36.1927452294
  0
LINE
  5
266
100
AcDbEntity
  8
0
100
AcDbLine
 62
7
  6
BYLAYER
 10
25.7594228101
 20
36.677175625
 11
26.4480908155
 21
36.6771772804
  0
LINE
  5
267
100
AcDbEntity
  8
0
100
AcDbLine
 62
7
  6
BYLAYER
 10
32.3616890326
 20
32.8649022963
 11
32.1141791379
 21
33.0077989679
  0
LINE
  5
268
100
AcDbEntity
  8
0
100
AcDbLine
 62
7
  6
BYLAYER
 10
44.3825308084
 20
26.2105915949
 11
43.6754179178
 21
26.618834177
  0
LINE
  5
269
100
AcDbEntity
  8
0
100
AcDbLine
 62
7
  6
BYLAYER
 10
36.4628845635
 20
31.4484457854
 11
36.8164274285
 21
31.2443218809
  0
LINE
  5
26A
100
AcDbEntity
  8
0
100
AcDbLine
 62
7
  6
BYLAYER
 10
45.9028070024
 20
26.6800740715
 11
45.5492521398
 21
26.8841944488
  0
LINE
  5
26B
100
AcDbEntity
  8
0
100
AcDbLine
 62
7
  6
BYLAYER
 10
13.022204783
 20
45.6632691567
 11
12.6686499205
 21
45.867389534
  0
LINE
  5
26C
100
AcDbEntity
  8
0
100
AcDbLine
 62
7
  6
BYLAYER
 10
32.3616890326
 20
34.3024592419
 11
31.5079290368
 21
34.9798616084
  0
LINE
  5
26D
100
AcDbEntity
  8
0
100
AcDbLine
 62
7
  6
BYLAYER
 10
26.4480957602
 20
35.9914973923
 11
26.5035830585
 21
35.9195460766
  0
LINE
  5
26E
100
AcDbEntity
  8
0
100
AcDbLine
 62
7
  6
BYLAYER
 10
25.7977169324
 20
34.7395280034
 11
25.7594325157
 21
35.3312935885
  0
LINE
  5
26F
100
AcDbEntity
  8
0
100
AcDbLine
 62
7
  6
BYLAYER
 10
25.8392961446
 20
34.7373626838
 11
25.7594277547
 21
35.9914957369
  0
LINE
  5
270
100
AcDbEntity
  8
0
100
AcDbLine
 62
7
  6
BYLAYER
 10
25.7344966146
 20
35.3636283921
 11
25.7039414941
 21
35.9195441545
  0
LINE
  5
271
100
AcDbEntity
  8
0
100
AcDbLine
 62
7
  6
BYLAYER
 10
25.7739364445
 20
36.1927436438
 11
25.843005128
 21
34.7373626927
  0
LINE
  5
272
100
AcDbEntity
  8
0
100
AcDbLine
 62
7
  6
BYLAYER
 10
24.6037641379
 20
17.5846184033
 11
24.6037641379
 21
16.2286379627
  0
LINE
  5
273
100
AcDbEntity
  8
0
100
AcDbLine
 62
7
  6
BYLAYER
 10
25.1037398588
 20
14.1597372041
 11
25.1037420293
 21
15.5812638785
  0
LINE
  5
274
100
AcDbEntity
  8
0
100
AcDbLine
 62
7
  6
BYLAYER
 10
25.3966750205
 20
31.5789342313
 11
25.3966750205
 21
29.1294269799
  0
LINE
  5
275
100
AcDbEntity
  8
0
100
AcDbLine
 62
7
  6
BYLAYER
 10
25.6037420339
 20
15.3898987685
 11
25.6037400417
 21
14.1338061561
  0
LINE
  5
276
100
AcDbEntity
  8
0
100
AcDbLine
 62
7
  6
BYLAYER
 10
25.6088076437
 20
29.047778999
 11
25.6088076437
 21
22.3524591785
  0
LINE
  5
277
100
AcDbEntity
  8
0
100
AcDbLine
 62
7
  6
BYLAYER
 10
25.6088755591
 20
22.311595893
 11
25.6088755591
 21
17.0043301816
  0
LINE
  5
278
100
AcDbEntity
  8
0
100
AcDbLine
 62
7
  6
BYLAYER
 10
25.7537383879
 20
14.8004001753
 11
25.7537391694
 21
15.3569096363
  0
LINE
  5
279
100
AcDbEntity
  8
0
100
AcDbLine
 62
7
  6
BYLAYER
 10
25.7594228101
 20
36.677175625
 11
25.7594277547
 21
35.9914957369
  0
LINE
  5
27A
100
AcDbEntity
  8
0
100
AcDbLine
 62
7
  6
BYLAYER
 10
25.7594325157
 20
35.3312935885
 11
25.7594374603
 21
34.6456137004
  0
LINE
  5
27B
100
AcDbEntity
  8
0
100
AcDbLine
 62
7
  6
BYLAYER
 10
26.4481054657
 20
34.6456153558
 11
26.4481005211
 21
35.3312952439
  0
LINE
  5
27C
100
AcDbEntity
  8
0
100
AcDbLine
 62
7
  6
BYLAYER
 10
26.4480957602
 20
35.9914973923
 11
26.4480908155
 21
36.6771772804
  0
LINE
  5
27D
100
AcDbEntity
  8
0
100
AcDbLine
 62
7
  6
BYLAYER
 10
26.4537391561
 20
15.3439927152
 11
26.4537383879
 21
14.8004018579
  0
LINE
  5
27E
100
AcDbEntity
  8
0
100
AcDbLine
 62
7
  6
BYLAYER
 10
26.5986898118
 20
17.0043325612
 11
26.598687223
 21
22.3115967779
  0
LINE
  5
27F
100
AcDbEntity
  8
0
100
AcDbLine
 62
7
  6
BYLAYER
 10
26.5987571373
 20
22.3524615581
 11
26.5987571373
 21
29.0477813785
  0
LINE
  5
280
100
AcDbEntity
  8
0
100
AcDbLine
 62
7
  6
BYLAYER
 10
26.6037400417
 20
14.1338127974
 11
26.6037420322
 21
15.3883212271
  0
LINE
  5
281
100
AcDbEntity
  8
0
100
AcDbLine
 62
7
  6
BYLAYER
 10
26.8108885829
 20
29.1294303793
 11
26.8108885829
 21
31.5789376307
  0
LINE
  5
282
100
AcDbEntity
  8
0
100
AcDbLine
 62
7
  6
BYLAYER
 10
26.4335809071
 20
36.1927452294
 11
26.3645176947
 21
34.7373639463
  0
LINE
  5
283
100
AcDbEntity
  8
0
100
AcDbLine
 62
7
  6
BYLAYER
 10
26.5035830585
 20
35.9195460766
 11
26.4730274796
 21
35.3636191759
  0
LINE
  5
284
100
AcDbEntity
  8
0
100
AcDbLine
 62
7
  6
BYLAYER
 10
26.3682275117
 20
34.7373639552
 11
26.4480957602
 21
35.9914973923
  0
LINE
  5
285
100
AcDbEntity
  8
0
100
AcDbLine
 62
7
  6
BYLAYER
 10
26.4098160787
 20
34.7395301248
 11
26.4481005211
 21
35.3312952439
  0
LINE
  5
286
100
AcDbEntity
  8
0
100
AcDbLine
 62
7
  6
BYLAYER
 10
23.2402908121
 20
35.2542417127
 11
23.2142960682
 21
35.1115913202
  0
LINE
  5
287
100
AcDbEntity
  8
0
100
AcDbLine
 62
7
  6
BYLAYER
 10
23.2949204001
 20
35.7235257848
 11
23.2889569903
 21
35.6917963092
  0
LINE
  5
288
100
AcDbEntity
  8
0
100
AcDbLine
 62
7
  6
BYLAYER
 10
16.6960983691
 20
41.7527469076
 11
16.69076688
 21
41.7486343241
  0
LINE
  5
289
100
AcDbEntity
  8
0
100
AcDbLine
 62
7
  6
BYLAYER
 10
28.9287235054
 20
40.6623359898
 11
31.4589593108
 21
37.9250890064
  0
LINE
  5
28A
100
AcDbEntity
  8
0
100
AcDbLine
 62
7
  6
BYLAYER
 10
28.9932328679
 20
35.1115913439
 11
29.0980181818
 21
34.1355381186
  0
LINE
  5
28B
100
AcDbEntity
  8
0
100
AcDbLine
 62
7
  6
BYLAYER
 10
27.1037420292
 20
15.5812383485
 11
27.1037398588
 21
14.1597390401
  0
LINE
  5
28C
100
AcDbEntity
  8
0
100
AcDbLine
 62
7
  6
BYLAYER
 10
27.6037641379
 20
17.5846090301
 11
27.6037641379
 21
16.2286379627
  0
LINE
  5
28D
100
AcDbEntity
  8
0
100
AcDbLine
 62
7
  6
BYLAYER
 10
29.2857520131
 20
33.0077921692
 11
29.2857520131
 21
30.5582849178
  0
LINE
  5
28E
100
AcDbEntity
  8
0
100
AcDbLine
 62
7
  6
BYLAYER
 10
28.5287666615
 20
43.8316496473
 11
28.3703574518
 21
43.3188605139
  0
LINE
  5
28F
100
AcDbEntity
  8
0
100
AcDbLine
 62
7
  6
BYLAYER
 10
29.8139474239
 20
45.9775605875
 11
28.7733917349
 21
44.2201692448
  0
LINE
  5
290
100
AcDbEntity
  8
0
100
AcDbLine
 62
7
  6
BYLAYER
 10
30.0740757691
 20
46.2406767761
 11
29.8139474239
 21
45.9775605875
  0
LINE
  5
291
100
AcDbEntity
  8
0
100
AcDbLine
 62
7
  6
BYLAYER
 10
45.1353423902
 20
54.936355425
 11
43.2817065613
 21
53.8661646684
  0
LINE
  5
292
100
AcDbEntity
  8
0
100
AcDbLine
 62
7
  6
BYLAYER
 10
32.1953421692
 20
47.4654874092
 11
30.0740306576
 21
46.2407549476
  0
LINE
  5
293
100
AcDbEntity
  8
0
100
AcDbLine
 62
7
  6
BYLAYER
 10
32.00813417
 20
40.449467916
 11
32.2202670876
 21
40.3269956897
  0
LINE
  5
294
100
AcDbEntity
  8
0
100
AcDbLine
 62
7
  6
BYLAYER
 10
17.9109389748
 20
52.5007679277
 11
20.0141031779
 21
50.3737077793
  0
LINE
  5
295
100
AcDbEntity
  8
0
100
AcDbLine
 62
7
  6
BYLAYER
 10
32.0925961496
 20
39.9762455403
 11
28.5287666615
 21
43.8316496473
  0
LINE
  5
296
100
AcDbEntity
  8
0
100
AcDbLine
 62
7
  6
BYLAYER
 10
25.4664448193
 20
47.8039327185
 11
28.7765114734
 21
44.2230530453
  0
LINE
  5
297
100
AcDbEntity
  8
0
100
AcDbLine
 62
7
  6
BYLAYER
 10
28.7733917349
 20
44.2201692448
 11
32.00813417
 21
40.449467916
  0
LINE
  5
298
100
AcDbEntity
  8
0
100
AcDbLine
 62
7
  6
BYLAYER
 10
28.9287235054
 20
40.6623359898
 11
28.3703574518
 21
43.3188605139
  0
LINE
  5
299
100
AcDbEntity
  8
0
100
AcDbLine
 62
7
  6
BYLAYER
 10
28.918567622
 20
35.6918098411
 11
28.9125637614
 21
35.7235338702
  0
LINE
  5
29A
100
AcDbEntity
  8
0
100
AcDbLine
 62
7
  6
BYLAYER
 10
28.9932322083
 20
35.1115913202
 11
28.967233915
 21
35.2542554786
  0
LINE
  5
29B
100
AcDbEntity
  8
0
100
AcDbLine
 62
7
  6
BYLAYER
 10
32.1141791379
 20
30.5582917165
 11
32.1141791379
 21
33.0077989679
  0
LINE
  5
29C
100
AcDbEntity
  8
0
100
AcDbLine
 62
7
  6
BYLAYER
 10
31.0740261807
 20
46.1417063895
 11
33.1953376923
 21
47.3664388512
  0
LINE
  5
29D
100
AcDbEntity
  8
0
100
AcDbLine
 62
7
  6
BYLAYER
 10
44.0140264017
 20
53.6125744054
 11
46.1353379133
 21
54.837306867
  0
LINE
  5
29E
100
AcDbEntity
  8
0
100
AcDbLine
 62
7
  6
BYLAYER
 10
28.5287666615
 20
43.8316496473
 11
28.9152627098
 21
44.0547919129
  0
LINE
  5
29F
100
AcDbEntity
  8
0
100
AcDbLine
 62
7
  6
BYLAYER
 10
47.6564242557
 20
53.9591271249
 11
45.535112744
 21
52.7343946632
  0
LINE
  5
2A0
100
AcDbEntity
  8
0
100
AcDbLine
 62
7
  6
BYLAYER
 10
32.595112523
 20
45.2635266474
 11
34.7164240347
 21
46.488259109
  0
LINE
  5
2A1
100
AcDbEntity
  8
0
100
AcDbLine
 62
7
  6
BYLAYER
 10
12.3059109628
 20
42.8104304462
 11
11.6172429574
 21
42.8104287908
  0
LINE
  5
2A2
100
AcDbEntity
  8
0
100
AcDbLine
 62
7
  6
BYLAYER
 10
11.6220501059
 20
42.9021775938
 11
12.3011014105
 21
42.9021792261
  0
LINE
  5
2A3
100
AcDbEntity
  8
0
100
AcDbLine
 62
7
  6
BYLAYER
 10
14.8250394121
 20
43.419070569
 11
14.740249236
 21
43.4190703652
  0
LINE
  5
2A4
100
AcDbEntity
  8
0
100
AcDbLine
 62
7
  6
BYLAYER
 10
9.183012964
 20
43.4190570072
 11
9.0980963091
 21
43.4190568031
  0
LINE
  5
2A5
100
AcDbEntity
  8
0
100
AcDbLine
 62
7
  6
BYLAYER
 10
14.4721888604
 20
43.5680669905
 11
12.3613922787
 21
43.5680619168
  0
LINE
  5
2A6
100
AcDbEntity
  8
0
100
AcDbLine
 62
7
  6
BYLAYER
 10
11.5617507144
 20
43.5680599947
 11
9.4509541327
 21
43.5680549209
  0
LINE
  5
2A7
100
AcDbEntity
  8
0
100
AcDbLine
 62
7
  6
BYLAYER
 10
9.4509504095
 20
44.0843541711
 11
11.5617469912
 21
44.0843592449
  0
LINE
  5
2A8
100
AcDbEntity
  8
0
100
AcDbLine
 62
7
  6
BYLAYER
 10
12.3613885555
 20
44.084361167
 11
14.4721851372
 21
44.0843662407
  0
LINE
  5
2A9
100
AcDbEntity
  8
0
100
AcDbLine
 62
7
  6
BYLAYER
 10
11.6317419415
 20
44.3575587342
 11
12.2913864042
 21
44.3575603198
  0
LINE
  5
2AA
100
AcDbEntity
  8
0
100
AcDbLine
 62
7
  6
BYLAYER
 10
11.6172283071
 20
44.8419907154
 11
12.3058963126
 21
44.8419923708
  0
LINE
  5
2AB
100
AcDbEntity
  8
0
100
AcDbLine
 62
7
  6
BYLAYER
 10
19.7396882926
 20
49.9498310727
 11
20.0932431552
 21
49.7457106955
  0
LINE
  5
2AC
100
AcDbEntity
  8
0
100
AcDbLine
 62
7
  6
BYLAYER
 10
52.6202905119
 20
30.9666359875
 11
52.9738453745
 21
30.7625156103
  0
LINE
  5
2AD
100
AcDbEntity
  8
0
100
AcDbLine
 62
7
  6
BYLAYER
 10
50.5339127009
 20
33.5183740179
 11
53.7870118433
 21
31.6402388414
  0
LINE
  5
2AE
100
AcDbEntity
  8
0
100
AcDbLine
 62
7
  6
BYLAYER
 10
27.6496064728
 20
54.3524091985
 11
25.1488210658
 21
61.5077698606
  0
LINE
  5
2AF
100
AcDbEntity
  8
0
100
AcDbLine
 62
7
  6
BYLAYER
 10
32.3616890326
 20
40.0820470554
 11
32.3616890326
 21
30.7012472053
  0
LINE
  5
2B0
100
AcDbEntity
  8
0
100
AcDbLine
 62
7
  6
BYLAYER
 10
34.705761893
 20
34.4919065881
 11
34.7057589491
 21
34.9001490423
  0
LINE
  5
2B1
100
AcDbEntity
  8
0
100
AcDbLine
 62
7
  6
BYLAYER
 10
32.0925961496
 20
39.9762455403
 11
31.4589593108
 21
37.9250890064
  0
LINE
  5
2B2
100
AcDbEntity
  8
0
100
AcDbLine
 62
7
  6
BYLAYER
 10
25.7039414941
 20
35.9195441545
 11
25.7594277547
 21
35.9914957369
  0
LINE
  5
2B3
100
AcDbEntity
  8
0
100
AcDbLine
 62
7
  6
BYLAYER
 10
26.5035867817
 20
35.4032468264
 11
26.4481005211
 21
35.3312952439
  0
LINE
  5
2B4
100
AcDbEntity
  8
0
100
AcDbLine
 62
7
  6
BYLAYER
 10
32.595112523
 20
45.2635266474
 11
31.0740261807
 21
46.1417063895
  0
LINE
  5
2B5
100
AcDbEntity
  8
0
100
AcDbLine
 62
7
  6
BYLAYER
 10
54.4941156805
 20
32.8649854124
 11
51.9481384825
 21
34.3348727797
  0
LINE
  5
2B6
100
AcDbEntity
  8
0
100
AcDbLine
 62
7
  6
BYLAYER
 10
38.6584507521
 20
38.1955643675
 11
32.595112523
 21
45.2635266474
  0
LINE
  5
2B7
100
AcDbEntity
  8
0
100
AcDbLine
 62
7
  6
BYLAYER
 10
27.0580014262
 20
62.6100290761
 11
29.5587868333
 21
55.4546684139
  0
LINE
  5
2B8
100
AcDbEntity
  8
0
100
AcDbLine
 62
7
  6
BYLAYER
 10
32.3616890326
 20
36.7434529585
 11
31.5079290368
 21
34.9798616084
  0
LINE
  5
2B9
100
AcDbEntity
  8
0
100
AcDbLine
 62
7
  6
BYLAYER
 10
32.0925961496
 20
39.9762455403
 11
32.3491177114
 21
40.124347449
  0
LINE
  5
2BA
100
AcDbEntity
  8
0
100
AcDbLine
 62
7
  6
BYLAYER
 10
31.4589593108
 20
37.9250890064
 11
32.3616890326
 21
38.4462771432
  0
LINE
  5
2BB
100
AcDbEntity
  8
0
100
AcDbLine
 62
7
  6
BYLAYER
 10
21.7069307408
 20
49.3759049673
 11
23.3945845751
 21
49.0878195132
  0
LINE
  5
2BC
100
AcDbEntity
  8
0
100
AcDbLine
 62
7
  6
BYLAYER
 10
34.7164240347
 20
46.488259109
 11
33.1953376923
 21
47.3664388512
  0
LINE
  5
2BD
100
AcDbEntity
  8
0
100
AcDbLine
 62
7
  6
BYLAYER
 10
18.8983480685
 20
58.3316620122
 11
19.6054337985
 21
57.9234142032
  0
LINE
  5
2BE
100
AcDbEntity
  8
0
100
AcDbLine
 62
7
  6
BYLAYER
 10
41.5204661126
 20
39.3467055302
 11
27.6496064728
 21
54.3524091985
  0
LINE
  5
2BF
100
AcDbEntity
  8
0
100
AcDbLine
 62
7
  6
BYLAYER
 10
34.7164240347
 20
46.488259109
 11
40.7797622637
 21
39.4202968291
  0
LWPOLYLINE
  5
2C0
100
AcDbEntity
  8
0
100
AcDbPolyline
 62
7
  6
BYLAYER
 90
3
 70
0
 10
32.3616890326
 20
37.6639033514
 10
30.714581808
 20
36.9727685065
 10
28.3015056995
 20
36.5190605217
  0
LINE
  5
2C1
100
AcDbEntity
  8
0
100
AcDbLine
 62
7
  6
BYLAYER
 10
41.5541154595
 20
25.3941173966
 11
41.5541154595
 21
31.0674720346
  0
LINE
  5
2C2
100
AcDbEntity
  8
0
100
AcDbLine
 62
7
  6
BYLAYER
 10
12.8808281619
 20
23.6994487597
 11
13.0222525506
 21
23.7811025031
  0
LINE
  5
2C3
100
AcDbEntity
  8
0
100
AcDbLine
 62
7
  6
BYLAYER
 10
29.2857520131
 20
33.0077921692
 11
26.8108885829
 21
31.5789376307
  0
LINE
  5
2C4
100
AcDbEntity
  8
0
100
AcDbLine
 62
7
  6
BYLAYER
 10
53.7197624848
 20
46.8911648449
 11
51.5984509731
 21
45.6664323833
  0
LINE
  5
2C5
100
AcDbEntity
  8
0
100
AcDbLine
 62
7
  6
BYLAYER
 10
40.7797622637
 20
39.4202968291
 11
38.6584507521
 21
38.1955643674
  0
LINE
  5
2C6
100
AcDbEntity
  8
0
100
AcDbLine
 62
7
  6
BYLAYER
 10
35.3239881604
 20
36.2666400781
 11
35.8097499644
 21
36.5470931123
  0
LINE
  5
2C7
100
AcDbEntity
  8
0
100
AcDbLine
 62
7
  6
BYLAYER
 10
51.4199198335
 20
45.0621236844
 11
41.5204661125
 21
39.3467055302
  0
LINE
  5
2C8
100
AcDbEntity
  8
0
100
AcDbLine
 62
7
  6
BYLAYER
 10
35.6398798333
 20
58.9655681372
 11
34.5774424929
 21
62.0054620561
  0
LINE
  5
2C9
100
AcDbEntity
  8
0
100
AcDbLine
 62
7
  6
BYLAYER
 10
35.0482747868
 20
67.2231880148
 11
37.5490601938
 21
60.0678273527
  0
LINE
  5
2CA
100
AcDbEntity
  8
0
100
AcDbLine
 62
7
  6
BYLAYER
 10
43.6754269712
 20
26.6188498582
 11
43.6754269712
 21
32.2922044963
  0
LINE
  5
2CB
100
AcDbEntity
  8
0
100
AcDbLine
 62
7
  6
BYLAYER
 10
44.9056975226
 20
30.2689418661
 11
44.9056975226
 21
30.1897506632
  0
LINE
  5
2CC
100
AcDbEntity
  8
0
100
AcDbLine
 62
7
  6
BYLAYER
 10
29.2857520131
 20
30.5582849178
 11
26.8108885829
 21
29.1294303793
  0
LINE
  5
2CD
100
AcDbEntity
  8
0
100
AcDbLine
 62
7
  6
BYLAYER
 10
45.5492521398
 20
24.4346871974
 11
45.5492521398
 21
26.8841944488
  0
LINE
  5
2CE
100
AcDbEntity
  8
0
100
AcDbLine
 62
7
  6
BYLAYER
 10
45.9028070024
 20
24.2305668202
 11
45.9028070024
 21
26.6800740715
  0
LINE
  5
2CF
100
AcDbEntity
  8
0
100
AcDbLine
 62
7
  6
BYLAYER
 10
38.3089747969
 20
31.0964607021
 11
38.7587314433
 21
31.356126273
  0
LINE
  5
2D0
100
AcDbEntity
  8
0
100
AcDbLine
 62
7
  6
BYLAYER
 10
45.535112744
 20
52.7343946633
 11
44.0140264017
 21
53.6125744054
  0
LINE
  5
2D1
100
AcDbEntity
  8
0
100
AcDbLine
 62
7
  6
BYLAYER
 10
47.6564242557
 20
53.9591271249
 11
46.1353379133
 21
54.837306867
  0
LINE
  5
2D2
100
AcDbEntity
  8
0
100
AcDbLine
 62
7
  6
BYLAYER
 10
37.5490601938
 20
60.0678273527
 11
51.4199198335
 21
45.0621236844
  0
LINE
  5
2D3
100
AcDbEntity
  8
0
100
AcDbLine
 62
7
  6
BYLAYER
 10
51.5984509731
 20
45.6664323833
 11
45.535112744
 21
52.7343946633
  0
LINE
  5
2D4
100
AcDbEntity
  8
0
100
AcDbLine
 62
7
  6
BYLAYER
 10
34.8475054822
 20
19.5639552907
 11
35.3651395287
 21
20.2322256138
  0
LINE
  5
2D5
100
AcDbEntity
  8
0
100
AcDbLine
 62
7
  6
BYLAYER
 10
41.5541154595
 20
31.0674720346
 11
43.6754269712
 21
32.2922044963
  0
LINE
  5
2D6
100
AcDbEntity
  8
0
100
AcDbLine
 62
7
  6
BYLAYER
 10
54.4941156805
 20
38.5383400505
 11
56.6154271922
 21
39.7630725121
  0
LINE
  5
2D7
100
AcDbEntity
  8
0
100
AcDbLine
 62
7
  6
BYLAYER
 10
35.5389437043
 20
27.5140498686
 11
26.5987571373
 21
22.3524615581
  0
LINE
  5
2D8
100
AcDbEntity
  8
0
100
AcDbLine
 62
7
  6
BYLAYER
 10
35.5742991906
 20
27.4936378309
 11
26.598687223
 21
22.3115967779
  0
LINE
  5
2D9
100
AcDbEntity
  8
0
100
AcDbLine
 62
7
  6
BYLAYER
 10
47.6564242557
 20
53.9591271249
 11
53.7197624848
 21
46.8911648449
  0
LINE
  5
2DA
100
AcDbEntity
  8
0
100
AcDbLine
 62
7
  6
BYLAYER
 10
52.9738453745
 20
28.3130083589
 11
52.9738453745
 21
30.7625156103
  0
LINE
  5
2DB
100
AcDbEntity
  8
0
100
AcDbLine
 62
7
  6
BYLAYER
 10
43.6754269712
 20
29.5586490719
 11
53.0443348794
 21
34.9677582867
  0
LINE
  5
2DC
100
AcDbEntity
  8
0
100
AcDbLine
 62
7
  6
BYLAYER
 10
40.1705918291
 20
24.8400270714
 11
26.5986898118
 21
17.0043325612
  0
LINE
  5
2DD
100
AcDbEntity
  8
0
100
AcDbLine
 62
7
  6
BYLAYER
 10
54.4941156805
 20
32.8649854124
 11
54.4941156805
 21
38.5383400505
  0
LINE
  5
2DE
100
AcDbEntity
  8
0
100
AcDbLine
 62
7
  6
BYLAYER
 10
53.7870118433
 20
31.6402388414
 11
52.6202905119
 21
30.9666359875
  0
LINE
  5
2DF
100
AcDbEntity
  8
0
100
AcDbLine
 62
7
  6
BYLAYER
 10
45.5492521398
 20
26.8841944488
 11
44.3825308084
 21
26.2105915949
  0
LINE
  5
2E0
100
AcDbEntity
  8
0
100
AcDbLine
 62
7
  6
BYLAYER
 10
52.9738453745
 20
30.7625156103
 11
45.9028070024
 21
26.6800740715
  0
LINE
  5
2E1
100
AcDbEntity
  8
0
100
AcDbLine
 62
7
  6
BYLAYER
 10
27.0230226648
 20
15.5346336693
 11
27.1644470535
 21
15.6162874127
  0
LINE
  5
2E2
100
AcDbEntity
  8
0
100
AcDbLine
 62
7
  6
BYLAYER
 10
41.1650994091
 20
23.6995167467
 11
41.3065237978
 21
23.7811704901
  0
LINE
  5
2E3
100
AcDbEntity
  8
0
100
AcDbLine
 62
7
  6
BYLAYER
 10
56.6154271922
 20
34.089717874
 11
56.6154271922
 21
39.7630725121
  0
LINE
  5
2E4
100
AcDbEntity
  8
0
100
AcDbLine
 62
7
  6
BYLAYER
 10
53.7870118433
 20
29.19073159
 11
52.9738453745
 21
28.7212525128
  0
LINE
  5
2E5
100
AcDbEntity
  8
0
100
AcDbLine
 62
7
  6
BYLAYER
 10
45.5492521398
 20
24.4346871974
 11
44.3825308084
 21
23.7610843435
  0
LINE
  5
2E6
100
AcDbEntity
  8
0
100
AcDbLine
 62
7
  6
BYLAYER
 10
52.9738453745
 20
28.3130083589
 11
45.9028070024
 21
24.2305668202
  0
ARC
  5
2E7
100
AcDbEntity
  8
0
100
AcDbCircle
 62
7
  6
BYLAYER
 10
26.1170302208
 20
32.6075853413
 40
16.3156695414
100
AcDbArc
 50
273.4934517837
 51
275.2416651035
  0
ARC
  5
2E8
100
AcDbEntity
  8
0
100
AcDbCircle
 62
7
  6
BYLAYER
 10
26.1005946973
 20
29.0152809605
 40
14.7452441385
100
AcDbArc
 50
266.1235553027
 51
268.0690054352
  0
ARC
  5
2E9
100
AcDbEntity
  8
0
100
AcDbCircle
 62
7
  6
BYLAYER
 10
26.108093663
 20
28.9900893844
 40
14.7200238131
100
AcDbArc
 50
271.929605136
 51
273.8783878453
  0
ARC
  5
2EA
100
AcDbEntity
  8
0
100
AcDbCircle
 62
7
  6
BYLAYER
 10
26.1068562261
 20
28.5187295154
 40
14.3935132525
100
AcDbArc
 50
271.9783219483
 51
273.9714409071
  0
ARC
  5
2EB
100
AcDbEntity
  8
0
100
AcDbCircle
 62
7
  6
BYLAYER
 10
26.0992606476
 20
28.4938355119
 40
14.368589438
100
AcDbArc
 50
266.027106678
 51
268.0236842191
  0
ARC
  5
2EC
100
AcDbEntity
  8
0
100
AcDbCircle
 62
7
  6
BYLAYER
 10
43.7290932381
 20
37.9153544622
 40
10.618224999
100
AcDbArc
 50
41.4885881875
 51
42.9398614383
  0
ARC
  5
2ED
100
AcDbEntity
  8
0
100
AcDbCircle
 62
7
  6
BYLAYER
 10
23.7194484181
 20
27.0293074226
 40
9.6739798557
100
AcDbArc
 50
240.0008079199
 51
240.3135311011
  0
ARC
  5
2EE
100
AcDbEntity
  8
0
100
AcDbCircle
 62
7
  6
BYLAYER
 10
23.7350701658
 20
26.8047300002
 40
9.6105955473
100
AcDbArc
 50
240.0008079199
 51
240.3135311011
  0
ARC
  5
2EF
100
AcDbEntity
  8
0
100
AcDbCircle
 62
7
  6
BYLAYER
 10
23.9243997139
 20
25.8693501687
 40
9.188728564
100
AcDbArc
 50
240.4623731094
 51
240.8839746417
  0
ARC
  5
2F0
100
AcDbEntity
  8
0
100
AcDbCircle
 62
7
  6
BYLAYER
 10
23.8776471365
 20
25.7868572238
 40
9.0939082634
100
AcDbArc
 50
240.001098314
 51
240.4624211986
  0
ARC
  5
2F1
100
AcDbEntity
  8
0
100
AcDbCircle
 62
7
  6
BYLAYER
 10
28.5322795354
 20
25.4396044206
 40
8.6919484965
100
AcDbArc
 50
299.4348293492
 51
302.5021323844
  0
ARC
  5
2F2
100
AcDbEntity
  8
0
100
AcDbCircle
 62
7
  6
BYLAYER
 10
26.098737899
 20
56.1940465967
 40
8.5466109144
100
AcDbArc
 50
265.6275299237
 51
266.4393340105
  0
ARC
  5
2F3
100
AcDbEntity
  8
0
100
AcDbCircle
 62
7
  6
BYLAYER
 10
24.6440408902
 20
21.5685226147
 40
5.527935591
100
AcDbArc
 50
238.7235920141
 51
240.0024431393
  0
ARC
  5
2F4
100
AcDbEntity
  8
0
100
AcDbCircle
 62
7
  6
BYLAYER
 10
31.3643292085
 20
64.3295497538
 40
5.3397047505
100
AcDbArc
 50
345.9971081851
 51
349.8784868202
  0
ARC
  5
2F5
100
AcDbEntity
  8
0
100
AcDbCircle
 62
7
  6
BYLAYER
 10
20.4560042955
 20
38.4352731168
 40
3.3909975057
100
AcDbArc
 50
158.7332949903
 51
161.0868023055
  0
ARC
  5
2F6
100
AcDbEntity
  8
0
100
AcDbCircle
 62
7
  6
BYLAYER
 10
20.3688707429
 20
38.4647195356
 40
3.2990236285
100
AcDbArc
 50
161.0800908928
 51
163.7715055863
  0
ARC
  5
2F7
100
AcDbEntity
  8
0
100
AcDbCircle
 62
7
  6
BYLAYER
 10
19.7758342628
 20
62.8712369349
 40
2.9966748826
100
AcDbArc
 50
169.9288963745
 51
174.0008034022
  0
ARC
  5
2F8
100
AcDbEntity
  8
0
100
AcDbCircle
 62
7
  6
BYLAYER
 10
23.3515605598
 20
47.7383483056
 40
2.8692002637
100
AcDbArc
 50
140.0051638757
 51
143.6185509591
  0
ARC
  5
2F9
100
AcDbEntity
  8
0
100
AcDbCircle
 62
7
  6
BYLAYER
 10
19.6932607946
 20
59.464750742
 40
2.7350902839
100
AcDbArc
 50
348.6186341743
 51
349.8657654085
  0
ARC
  5
2FA
100
AcDbEntity
  8
0
100
AcDbCircle
 62
7
  6
BYLAYER
 10
19.7318765753
 20
59.4570161991
 40
2.6957125567
100
AcDbArc
 50
347.9266580324
 51
349.4368073545
  0
ARC
  5
2FB
100
AcDbEntity
  8
0
100
AcDbCircle
 62
7
  6
BYLAYER
 10
19.4674612363
 20
62.9233901577
 40
2.6839346145
100
AcDbArc
 50
166.5747337862
 51
169.8739126893
  0
ARC
  5
2FC
100
AcDbEntity
  8
0
100
AcDbCircle
 62
7
  6
BYLAYER
 10
19.8320774866
 20
59.4354087399
 40
2.5932085349
100
AcDbArc
 50
346.549561856
 51
347.930439127
  0
ARC
  5
2FD
100
AcDbEntity
  8
0
100
AcDbCircle
 62
7
  6
BYLAYER
 10
18.2025494648
 20
62.2708999257
 40
2.5844567554
100
AcDbArc
 50
72.070210777
 51
74.3576687295
  0
ARC
  5
2FE
100
AcDbEntity
  8
0
100
AcDbCircle
 62
7
  6
BYLAYER
 10
23.5188411471
 20
50.8882478433
 40
2.5035517057
100
AcDbArc
 50
214.4890213088
 51
219.6811383405
  0
ARC
  5
2FF
100
AcDbEntity
  8
0
100
AcDbCircle
 62
7
  6
BYLAYER
 10
40.4873450807
 20
25.2232119934
 40
1.6587974097
100
AcDbArc
 50
294.1205356811
 51
295.0550131371
  0
ARC
  5
300
100
AcDbEntity
  8
0
100
AcDbCircle
 62
7
  6
BYLAYER
 10
12.2030738335
 20
25.2231440062
 40
1.6587974096
100
AcDbArc
 50
294.120535681
 51
295.0550131372
  0
ARC
  5
301
100
AcDbEntity
  8
0
100
AcDbCircle
 62
7
  6
BYLAYER
 10
26.3452683365
 20
17.0583289158
 40
1.6587974096
100
AcDbArc
 50
294.120535681
 51
295.0550131371
  0
ARC
  5
302
100
AcDbEntity
  8
0
100
AcDbCircle
 62
7
  6
BYLAYER
 10
18.3233975184
 20
63.3243151086
 40
1.5157103662
100
AcDbArc
 50
96.6672137404
 51
103.6529407347
  0
ARC
  5
303
100
AcDbEntity
  8
0
100
AcDbCircle
 62
7
  6
BYLAYER
 10
20.8920270425
 20
59.0300274297
 40
1.4909372801
100
AcDbArc
 50
276.6076552497
 51
283.7097031489
  0
ARC
  5
304
100
AcDbEntity
  8
0
100
AcDbCircle
 62
7
  6
BYLAYER
 10
35.9398342049
 20
35.5278780727
 40
1.037699069
100
AcDbArc
 50
120.0363690484
 51
129.6263917672
  0
ARC
  5
305
100
AcDbEntity
  8
0
100
AcDbCircle
 62
7
  6
BYLAYER
 10
37.980478689
 20
31.9920265263
 40
1.0298208264
100
AcDbArc
 50
290.1523671973
 51
300.0000678957
  0
ARC
  5
306
100
AcDbEntity
  8
0
100
AcDbCircle
 62
7
  6
BYLAYER
 10
35.8249465958
 20
35.3984846926
 40
1.002316215
100
AcDbArc
 50
112.147708681
 51
119.9865688137
  0
ARC
  5
307
100
AcDbEntity
  8
0
100
AcDbCircle
 62
7
  6
BYLAYER
 10
37.8086694349
 20
31.9628687637
 40
1.0004764266
100
AcDbArc
 50
300.0041876083
 51
308.6397629553
  0
ARC
  5
308
100
AcDbEntity
  8
0
100
AcDbCircle
 62
7
  6
BYLAYER
 10
7.6049559392
 20
39.743682296
 40
0.2324701079
100
AcDbArc
 50
177.1319960679
 51
182.8671142363
  0
ARC
  5
309
100
AcDbEntity
  8
0
100
AcDbCircle
 62
7
  6
BYLAYER
 10
26.4537387484
 20
14.6504018579
 40
0.15
100
AcDbArc
 50
0.0027810237
 51
90.0001377221
  0
ARC
  5
30A
100
AcDbEntity
  8
0
100
AcDbCircle
 62
7
  6
BYLAYER
 10
25.7537387484
 20
14.6504001753
 40
0.15
100
AcDbArc
 50
90.0001377221
 51
179.997494639
  0
SPLINE
  5
30B
100
AcDbEntity
  8
0
100
AcDbSpline
 62
7
  6
BYLAYER
 70
0
 71
3
 72
15
 73
11
 74
0
 42
0.0000001
 43
0.0000001
 44
0.0000000001
 40
0.0
 40
0.0
 40
0.0
 40
0.0
 40
0.1141521431
 40
0.2373214229
 40
0.3669696504
 40
0.4999912471
 40
0.6330151746
 40
0.7626650661
 40
0.8858469178
 40
1.0
 40
1.0
 40
1.0
 40
1.0
 10
41.1650925112
 20
23.6995207307
 30
0.0
 10
41.1021650166
 20
23.6631882948
 30
0.0
 10
40.9645620043
 20
23.5991094975
 30
0.0
 10
40.7404823277
 20
23.5309983448
 30
0.0
 10
40.4978799499
 20
23.4890732583
 30
0.0
 10
40.2458667277
 20
23.4749228393
 30
0.0
 10
39.993852481
 20
23.4890675847
 30
0.0
 10
39.751237258
 20
23.5309816216
 30
0.0
 10
39.5271480484
 20
23.5990951538
 30
0.0
 10
39.3895347946
 20
23.6631719608
 30
0.0
 10
39.3266058938
 20
23.6995031567
 30
0.0
  0
SPLINE
  5
30C
100
AcDbEntity
  8
0
100
AcDbSpline
 62
7
  6
BYLAYER
 70
0
 71
3
 72
9
 73
5
 74
0
 42
0.0000001
 43
0.0000001
 44
0.0000000001
 40
0.0
 40
0.0
 40
0.0
 40
0.0
 40
0.4758665283
 40
1.0
 40
1.0
 40
1.0
 40
1.0
 10
41.6014366472
 20
24.0227815556
 30
0.0
 10
41.5629275506
 20
23.9758392117
 30
0.0
 10
41.470679508
 20
23.8862911813
 30
0.0
 10
41.3644337496
 20
23.81461196
 30
0.0
 10
41.3065184372
 20
23.7811735849
 30
0.0
  0
SPLINE
  5
30D
100
AcDbEntity
  8
0
100
AcDbSpline
 62
7
  6
BYLAYER
 70
0
 71
3
 72
10
 73
6
 74
0
 42
0.0000001
 43
0.0000001
 44
0.0000000001
 40
0.0
 40
0.0
 40
0.0
 40
0.0
 40
0.2725691033
 40
0.5302473755
 40
1.0
 40
1.0
 40
1.0
 40
1.0
 10
39.1851851264
 20
23.7811548094
 30
0.0
 10
39.1489744268
 20
23.8020605936
 30
0.0
 10
39.0802594749
 20
23.845924877
 30
0.0
 10
38.9598393462
 20
23.9410837089
 30
0.0
 10
38.8838424343
 20
24.0250123069
 30
0.0
 10
38.8441534784
 20
24.085157814
 30
0.0
  0
SPLINE
  5
30E
100
AcDbEntity
  8
0
100
AcDbSpline
 62
7
  6
BYLAYER
 70
0
 71
3
 72
9
 73
5
 74
0
 42
0.0000001
 43
0.0000001
 44
0.0000000001
 40
0.0
 40
0.0
 40
0.0
 40
0.0
 40
0.2453674063
 40
1.0
 40
1.0
 40
1.0
 40
1.0
 10
41.3065184372
 20
23.7811735849
 30
0.0
 10
41.297201042
 20
23.7757940308
 30
0.0
 10
41.2589788079
 20
23.7543026065
 30
0.0
 10
41.2198012764
 20
23.7345188594
 30
0.0
 10
41.1898263221
 20
23.7205047857
 30
0.0
  0
SPLINE
  5
30F
100
AcDbEntity
  8
0
100
AcDbSpline
 62
7
  6
BYLAYER
 70
0
 71
3
 72
15
 73
11
 74
0
 42
0.0000001
 43
0.0000001
 44
0.0000000001
 40
0.0
 40
0.0
 40
0.0
 40
0.0
 40
0.1172308717
 40
0.2409686222
 40
0.3692699615
 40
0.49992254
 40
0.6305852944
 40
0.7589133203
 40
0.8826755556
 40
1.0
 40
1.0
 40
1.0
 40
1.0
 10
41.1652252621
 20
23.70924789
 30
0.0
 10
41.0979801541
 20
23.6791355472
 30
0.0
 10
40.955633249
 20
23.6261922564
 30
0.0
 10
40.7300950647
 20
23.5697848553
 30
0.0
 10
40.4916601286
 20
23.5352864222
 30
0.0
 10
40.246697781
 20
23.5236292877
 30
0.0
 10
40.0017102009
 20
23.53511851
 30
0.0
 10
39.7632152318
 20
23.5694688133
 30
0.0
 10
39.5375463557
 20
23.6257257634
 30
0.0
 10
39.3950894105
 20
23.6785873794
 30
0.0
 10
39.327767768
 20
23.7086726557
 30
0.0
  0
SPLINE
  5
310
100
AcDbEntity
  8
0
100
AcDbSpline
 62
7
  6
BYLAYER
 70
0
 71
3
 72
9
 73
5
 74
0
 42
0.0000001
 43
0.0000001
 44
0.0000000001
 40
0.0
 40
0.0
 40
0.0
 40
0.0
 40
0.2557301253
 40
1.0
 40
1.0
 40
1.0
 40
1.0
 10
39.327767768
 20
23.7086726557
 30
0.0
 10
39.3153166325
 20
23.7142369266
 30
0.0
 10
39.2668939141
 20
23.7365821864
 30
0.0
 10
39.2195590126
 20
23.7613094858
 30
0.0
 10
39.1851851264
 20
23.7811548094
 30
0.0
  0
LINE
  5
311
100
AcDbEntity
  8
0
100
AcDbLine
 62
7
  6
BYLAYER
 10
14.8250429608
 20
42.9269604911
 11
14.7763767825
 21
43.3486060365
  0
LINE
  5
312
100
AcDbEntity
  8
0
100
AcDbLine
 62
7
  6
BYLAYER
 10
14.7763731191
 20
43.8566249316
 11
14.8250394121
 21
43.419070569
  0
LINE
  5
313
100
AcDbEntity
  8
0
100
AcDbLine
 62
7
  6
BYLAYER
 10
9.1467661509
 20
43.3485925046
 11
9.0980998579
 21
42.9269467253
  0
LINE
  5
314
100
AcDbEntity
  8
0
100
AcDbLine
 62
7
  6
BYLAYER
 10
9.0980963091
 20
43.4190568031
 11
9.1467624874
 21
43.8566113996
  0
SPLINE
  5
315
100
AcDbEntity
  8
0
100
AcDbSpline
 62
7
  6
BYLAYER
 70
0
 71
3
 72
15
 73
11
 74
0
 42
0.0000001
 43
0.0000001
 44
0.0000000001
 40
0.0
 40
0.0
 40
0.0
 40
0.0
 40
0.1141521431
 40
0.2373214229
 40
0.3669696504
 40
0.4999912471
 40
0.6330151746
 40
0.7626650661
 40
0.8858469178
 40
1.0
 40
1.0
 40
1.0
 40
1.0
 10
12.880821264
 20
23.6994527437
 30
0.0
 10
12.8178937694
 20
23.6631203077
 30
0.0
 10
12.6802907571
 20
23.5990415105
 30
0.0
 10
12.4562110805
 20
23.5309303578
 30
0.0
 10
12.2136087027
 20
23.4890052713
 30
0.0
 10
11.9615954804
 20
23.4748548522
 30
0.0
 10
11.7095812338
 20
23.4889995976
 30
0.0
 10
11.4669660107
 20
23.5309136346
 30
0.0
 10
11.2428768011
 20
23.5990271668
 30
0.0
 10
11.1052635473
 20
23.6631039738
 30
0.0
 10
11.0423346466
 20
23.6994351697
 30
0.0
  0
SPLINE
  5
316
100
AcDbEntity
  8
0
100
AcDbSpline
 62
7
  6
BYLAYER
 70
0
 71
3
 72
13
 73
9
 74
0
 42
0.0000001
 43
0.0000001
 44
0.0000000001
 40
0.0
 40
0.0
 40
0.0
 40
0.0
 40
0.2722735242
 40
0.5324945457
 40
0.656049707
 40
0.7746081797
 40
0.8888881987
 40
1.0
 40
1.0
 40
1.0
 40
1.0
 10
14.4721888604
 20
43.5680669905
 30
0.0
 10
14.5091943156
 20
43.5680670794
 30
0.0
 10
14.5819935899
 20
43.557712896
 30
0.0
 10
14.6640624753
 20
43.5187364234
 30
0.0
 10
14.716200862
 20
43.4741171047
 30
0.0
 10
14.7465369824
 20
43.4359210294
 30
0.0
 10
14.7674567906
 20
43.3937205488
 30
0.0
 10
14.7746425265
 20
43.3636076404
 30
0.0
 10
14.7763767825
 20
43.3486060365
 30
0.0
  0
SPLINE
  5
317
100
AcDbEntity
  8
0
100
AcDbSpline
 62
7
  6
BYLAYER
 70
0
 71
3
 72
10
 73
6
 74
0
 42
0.0000001
 43
0.0000001
 44
0.0000000001
 40
0.0
 40
0.0
 40
0.0
 40
0.0
 40
0.469935351
 40
0.7273983314
 40
1.0
 40
1.0
 40
1.0
 40
1.0
 10
13.3619527018
 20
24.0831324912
 30
0.0
 10
13.3222477068
 20
24.0234087235
 30
0.0
 10
13.246487595
 20
23.9400983912
 30
0.0
 10
13.126638791
 20
23.8454884814
 30
0.0
 10
13.0582754853
 20
23.8019071373
 30
0.0
 10
13.02224719
 20
23.7811055979
 30
0.0
  0
SPLINE
  5
318
100
AcDbEntity
  8
0
100
AcDbSpline
 62
7
  6
BYLAYER
 70
0
 71
3
 72
13
 73
9
 74
0
 42
0.0000001
 43
0.0000001
 44
0.0000000001
 40
0.0
 40
0.0
 40
0.0
 40
0.0
 40
0.1111157049
 40
0.225403733
 40
0.3439599243
 40
0.4675119456
 40
0.7277294265
 40
1.0
 40
1.0
 40
1.0
 40
1.0
 10
9.1467661509
 20
43.3485925046
 30
0.0
 10
9.148500473
 20
43.3635946531
 30
0.0
 10
9.155691518
 20
43.3937081085
 30
0.0
 10
9.1766097189
 20
43.4359099411
 30
0.0
 10
9.2069415163
 20
43.4741105824
 30
0.0
 10
9.2590839153
 20
43.518724024
 30
0.0
 10
9.3411503177
 20
43.55770005
 30
0.0
 10
9.4139490343
 20
43.568054832
 30
0.0
 10
9.4509541327
 20
43.5680549209
 30
0.0
  0
SPLINE
  5
319
100
AcDbEntity
  8
0
100
AcDbSpline
 62
7
  6
BYLAYER
 70
0
 71
3
 72
25
 73
21
 74
0
 42
0.0000001
 43
0.0000001
 44
0.0000000001
 40
0.0
 40
0.0
 40
0.0
 40
0.0
 40
0.0214912834
 40
0.0430268579
 40
0.064847853
 40
0.0871791209
 40
0.1340675476
 40
0.1849587306
 40
0.2404619991
 40
0.3006795129
 40
0.3653098113
 40
0.4337455582
 40
0.5051553758
 40
0.578552042
 40
0.6528521592
 40
0.7269284819
 40
0.7996689832
 40
0.870017038
 40
0.9370512961
 40
1.0
 40
1.0
 40
1.0
 40
1.0
 10
14.9558196108
 20
42.3003530919
 30
0.0
 10
14.9604747227
 20
42.2569597476
 30
0.0
 10
14.9641510819
 20
42.1693674836
 30
0.0
 10
14.9523698973
 20
42.0378506283
 30
0.0
 10
14.9233052573
 20
41.9072819908
 30
0.0
 10
14.8609402811
 20
41.7328043544
 30
0.0
 10
14.7379443789
 20
41.5196305254
 30
0.0
 10
14.530108858
 20
41.285637987
 30
0.0
 10
14.2649465229
 20
41.0732882094
 30
0.0
 10
13.9485172767
 20
40.8868120857
 30
0.0
 10
13.587788135
 20
40.7299557531
 30
0.0
 10
13.1907167146
 20
40.6060651213
 30
0.0
 10
12.7661176662
 20
40.5178423858
 30
0.0
 10
12.3234729387
 20
40.4672442235
 30
0.0
 10
11.8727076976
 20
40.4554036668
 30
0.0
 10
11.4239343207
 20
40.4825764853
 30
0.0
 10
10.987238369
 20
40.5481695539
 30
0.0
 10
10.5723411955
 20
40.6507022851
 30
0.0
 10
10.1886150654
 20
40.7879103075
 30
0.0
 10
9.9509626534
 20
40.9045594406
 30
0.0
 10
9.8402581233
 20
40.9684732849
 30
0.0
  0
SPLINE
  5
31A
100
AcDbEntity
  8
0
100
AcDbSpline
 62
7
  6
BYLAYER
 70
0
 71
3
 72
12
 73
8
 74
0
 42
0.0000001
 43
0.0000001
 44
0.0000000001
 40
0.0
 40
0.0
 40
0.0
 40
0.0
 40
0.115735647
 40
0.2329842806
 40
0.4745327178
 40
0.7292762561
 40
1.0
 40
1.0
 40
1.0
 40
1.0
 10
14.7703191811
 20
43.8883395984
 30
0.0
 10
14.756716818
 20
43.9383592032
 30
0.0
 10
14.722814409
 20
44.0373973725
 30
0.0
 10
14.6299305189
 20
44.2290268138
 30
0.0
 10
14.4680675275
 20
44.4539434131
 30
0.0
 10
14.216141107
 20
44.689921644
 30
0.0
 10
14.019777689
 20
44.8215165037
 30
0.0
 10
13.9147690754
 20
44.8821418835
 30
0.0
  0
SPLINE
  5
31B
100
AcDbEntity
  8
0
100
AcDbSpline
 62
7
  6
BYLAYER
 70
0
 71
3
 72
23
 73
19
 74
0
 42
0.0000001
 43
0.0000001
 44
0.0000000001
 40
0.0
 40
0.0
 40
0.0
 40
0.0
 40
0.0609283511
 40
0.1248061401
 40
0.1911777563
 40
0.2595304454
 40
0.3291682909
 40
0.3993293438
 40
0.4692239479
 40
0.5380750968
 40
0.6051675335
 40
0.669897575
 40
0.7318218506
 40
0.7907024001
 40
0.8465546601
 40
0.8996815567
 40
0.950583664
 40
1.0
 40
1.0
 40
1.0
 40
1.0
 10
13.9147690754
 20
44.8821418835
 30
0.0
 10
13.8197025438
 20
44.9370273295
 30
0.0
 10
13.6180086424
 20
45.0376868685
 30
0.0
 10
13.2949762299
 20
45.1587176627
 30
0.0
 10
12.9490554473
 20
45.2521517036
 30
0.0
 10
12.5861506432
 20
45.3168743082
 30
0.0
 10
12.2123560659
 20
45.3519516532
 30
0.0
 10
11.8341860267
 20
45.3568906517
 30
0.0
 10
11.4582432377
 20
45.3316263663
 30
0.0
 10
11.0910721143
 20
45.2765170544
 30
0.0
 10
10.7389764096
 20
45.1923361447
 30
0.0
 10
10.4078483894
 20
45.0801914204
 30
0.0
 10
10.1030771569
 20
44.9413540215
 30
0.0
 10
9.829558006
 20
44.7770962967
 30
0.0
 10
9.5918044802
 20
44.5886207571
 30
0.0
 10
9.3945845237
 20
44.3769193301
 30
0.0
 10
9.2431677131
 20
44.1438159431
 30
0.0
 10
9.1761777337
 20
43.9742362401
 30
0.0
 10
9.1528158627
 20
43.8883240551
 30
0.0
  0
SPLINE
  5
31C
100
AcDbEntity
  8
0
100
AcDbSpline
 62
7
  6
BYLAYER
 70
0
 71
3
 72
16
 73
12
 74
0
 42
0.0000001
 43
0.0000001
 44
0.0000000001
 40
0.0
 40
0.0
 40
0.0
 40
0.0
 40
0.1497641355
 40
0.2912169702
 40
0.4242900618
 40
0.4878821671
 40
0.5496322432
 40
0.6681094182
 40
0.7812855955
 40
0.8911447263
 40
1.0
 40
1.0
 40
1.0
 40
1.0
 10
9.8402581233
 20
40.9684732849
 30
0.0
 10
9.7674278659
 20
41.0105209024
 30
0.0
 10
9.6293381633
 20
41.0986697823
 30
0.0
 10
9.4422431093
 20
41.2468684441
 30
0.0
 10
9.3075765684
 20
41.3814614888
 30
0.0
 10
9.2155282245
 20
41.4937727456
 30
0.0
 10
9.1362291524
 20
41.6054879755
 30
0.0
 10
9.0555995
 20
41.7499659165
 30
0.0
 10
8.9903361356
 20
41.9312765534
 30
0.0
 10
8.9588496338
 20
42.1159576418
 30
0.0
 10
8.9607994759
 20
42.2395766152
 30
0.0
 10
8.9673198409
 20
42.3003530653
 30
0.0
  0
SPLINE
  5
31D
100
AcDbEntity
  8
0
100
AcDbSpline
 62
7
  6
BYLAYER
 70
0
 71
3
 72
14
 73
10
 74
0
 42
0.0000001
 43
0.0000001
 44
0.0000000001
 40
0.0
 40
0.0
 40
0.0
 40
0.0
 40
0.2892627121
 40
0.4225615262
 40
0.5485059597
 40
0.6678879081
 40
0.7818672987
 40
0.8919530706
 40
1.0
 40
1.0
 40
1.0
 40
1.0
 10
10.9009138791
 20
23.7810868223
 30
0.0
 10
10.8350743711
 20
23.8190984201
 30
0.0
 10
10.742861785
 20
23.8825895029
 30
0.0
 10
10.638535459
 20
23.9824332975
 30
0.0
 10
10.5750342713
 20
24.0593942784
 30
0.0
 10
10.5248597611
 20
24.1397471466
 30
0.0
 10
10.4885158977
 20
24.2227602296
 30
0.0
 10
10.4665046344
 20
24.3076110405
 30
0.0
 10
10.4615764005
 20
24.3650559878
 30
0.0
 10
10.4615732489
 20
24.3934530533
 30
0.0
  0
SPLINE
  5
31E
100
AcDbEntity
  8
0
100
AcDbSpline
 62
7
  6
BYLAYER
 70
0
 71
3
 72
23
 73
19
 74
0
 42
0.0000001
 43
0.0000001
 44
0.0000000001
 40
0.0
 40
0.0
 40
0.0
 40
0.0
 40
0.0606935614
 40
0.1250199617
 40
0.1923703713
 40
0.2620668109
 40
0.3333005107
 40
0.4052104941
 40
0.4769115058
 40
0.5475248923
 40
0.6162129776
 40
0.6822154758
 40
0.7448877424
 40
0.8037443016
 40
0.858510008
 40
0.9091786626
 40
0.9561069871
 40
1.0
 40
1.0
 40
1.0
 40
1.0
 10
10.1583676495
 20
42.7851376435
 30
0.0
 10
10.2429196343
 20
42.7363226366
 30
0.0
 10
10.4232922608
 20
42.6462841543
 30
0.0
 10
10.7133442197
 20
42.5371552255
 30
0.0
 10
11.0262457713
 20
42.4516691539
 30
0.0
 10
11.3562014112
 20
42.3913441999
 30
0.0
 10
11.697246427
 20
42.3573022731
 30
0.0
 10
12.0431251295
 20
42.3501506876
 30
0.0
 10
12.3875109421
 20
42.3700153717
 30
0.0
 10
12.7241030615
 20
42.4165387302
 30
0.0
 10
13.0467496458
 20
42.488880486
 30
0.0
 10
13.3495746939
 20
42.5857246102
 30
0.0
 10
13.6270896193
 20
42.7053330497
 30
0.0
 10
13.8742889459
 20
42.8456173469
 30
0.0
 10
14.0866895441
 20
43.0041945781
 30
0.0
 10
14.260467179
 20
43.1784916717
 30
0.0
 10
14.3921089404
 20
43.3656378419
 30
0.0
 10
14.4513765639
 20
43.5005977476
 30
0.0
 10
14.4721888604
 20
43.5680669905
 30
0.0
  0
SPLINE
  5
31F
100
AcDbEntity
  8
0
100
AcDbSpline
 62
7
  6
BYLAYER
 70
0
 71
3
 72
11
 73
7
 74
0
 42
0.0000001
 43
0.0000001
 44
0.0000000001
 40
0.0
 40
0.0
 40
0.0
 40
0.0
 40
0.2203383803
 40
0.458137921
 40
0.7175402719
 40
1.0
 40
1.0
 40
1.0
 40
1.0
 10
9.4509541327
 20
43.5680549209
 30
0.0
 10
9.4742960703
 20
43.4923887448
 30
0.0
 10
9.5433374826
 20
43.3409228205
 30
0.0
 10
9.6997921437
 20
43.1339051763
 30
0.0
 10
9.9076209856
 20
42.9440469944
 30
0.0
 10
10.0704571532
 20
42.835891644
 30
0.0
 10
10.1583676495
 20
42.7851376435
 30
0.0
  0
SPLINE
  5
320
100
AcDbEntity
  8
0
100
AcDbSpline
 62
7
  6
BYLAYER
 70
0
 71
3
 72
23
 73
19
 74
0
 42
0.0000001
 43
0.0000001
 44
0.0000000001
 40
0.0
 40
0.0
 40
0.0
 40
0.0
 40
0.0608983323
 40
0.125471227
 40
0.1930942477
 40
0.2630709996
 40
0.3345717673
 40
0.4067142372
 40
0.47859266
 40
0.5493101306
 40
0.618014436
 40
0.6839362819
 40
0.7464295463
 40
0.8050172451
 40
0.859446002
 40
0.9097483136
 40
0.9563392702
 40
1.0
 40
1.0
 40
1.0
 40
1.0
 10
9.9470437214
 20
42.4395285822
 30
0.0
 10
10.0424505853
 20
42.3844466498
 30
0.0
 10
10.246097369
 20
42.2829425136
 30
0.0
 10
10.5737017895
 20
42.1602343074
 30
0.0
 10
10.9272022807
 20
42.0644903289
 30
0.0
 10
11.2999261552
 20
41.9974433044
 30
0.0
 10
11.6850050963
 20
41.9603655924
 30
0.0
 10
12.0752392189
 20
41.9539308448
 30
0.0
 10
12.4633529013
 20
41.978253333
 30
0.0
 10
12.8421087415
 20
42.0328863869
 30
0.0
 10
13.2044520247
 20
42.116824661
 30
0.0
 10
13.5436593693
 20
42.228513247
 30
0.0
 10
13.8534684311
 20
42.3659130436
 30
0.0
 10
14.1281874675
 20
42.5265873757
 30
0.0
 10
14.3627364405
 20
42.7077698776
 30
0.0
 10
14.5527925026
 20
42.9064866196
 30
0.0
 10
14.6943771303
 20
43.1194127928
 30
0.0
 10
14.7557373932
 20
43.2723676816
 30
0.0
 10
14.7763767825
 20
43.3486060365
 30
0.0
  0
SPLINE
  5
321
100
AcDbEntity
  8
0
100
AcDbSpline
 62
7
  6
BYLAYER
 70
0
 71
3
 72
12
 73
8
 74
0
 42
0.0000001
 43
0.0000001
 44
0.0000000001
 40
0.0
 40
0.0
 40
0.0
 40
0.0
 40
0.2667484847
 40
0.524931652
 40
0.7689369062
 40
0.8858946596
 40
1.0
 40
1.0
 40
1.0
 40
1.0
 10
9.4509504095
 20
44.0843541711
 30
0.0
 10
9.4170486198
 20
44.0843540897
 30
0.0
 10
9.3499410927
 20
44.0752029369
 30
0.0
 10
9.2594107621
 20
44.0350265708
 30
0.0
 10
9.1996434302
 20
43.9812704227
 30
0.0
 10
9.1672653006
 20
43.9299418467
 30
0.0
 10
9.1566320897
 20
43.9023155789
 30
0.0
 10
9.1528252621
 20
43.8883221933
 30
0.0
  0
SPLINE
  5
322
100
AcDbEntity
  8
0
100
AcDbSpline
 62
7
  6
BYLAYER
 70
0
 71
3
 72
23
 73
19
 74
0
 42
0.0000001
 43
0.0000001
 44
0.0000000001
 40
0.0
 40
0.0
 40
0.0
 40
0.0
 40
0.0606935614
 40
0.1250199617
 40
0.1923703713
 40
0.2620668109
 40
0.3333005107
 40
0.4052104941
 40
0.4769115058
 40
0.5475248923
 40
0.6162129776
 40
0.6822154758
 40
0.7448877424
 40
0.8037443016
 40
0.858510008
 40
0.9091786626
 40
0.9561069871
 40
1.0
 40
1.0
 40
1.0
 40
1.0
 10
13.7647716204
 20
44.8672835182
 30
0.0
 10
13.6802196356
 20
44.916098525
 30
0.0
 10
13.4998470092
 20
45.0061370074
 30
0.0
 10
13.2097950503
 20
45.1152659361
 30
0.0
 10
12.8968934987
 20
45.2007520078
 30
0.0
 10
12.5669378587
 20
45.2610769617
 30
0.0
 10
12.2258928429
 20
45.2951188885
 30
0.0
 10
11.8800141405
 20
45.302270474
 30
0.0
 10
11.5356283279
 20
45.2824057899
 30
0.0
 10
11.1990362084
 20
45.2358824315
 30
0.0
 10
10.8763896242
 20
45.1635406756
 30
0.0
 10
10.5735645761
 20
45.0666965514
 30
0.0
 10
10.2960496506
 20
44.9470881119
 30
0.0
 10
10.048850324
 20
44.8068038147
 30
0.0
 10
9.8364497258
 20
44.6482265836
 30
0.0
 10
9.6626720909
 20
44.47392949
 30
0.0
 10
9.5310303296
 20
44.2867833198
 30
0.0
 10
9.471762706
 20
44.151823414
 30
0.0
 10
9.4509504095
 20
44.0843541711
 30
0.0
  0
SPLINE
  5
323
100
AcDbEntity
  8
0
100
AcDbSpline
 62
7
  6
BYLAYER
 70
0
 71
3
 72
11
 73
7
 74
0
 42
0.0000001
 43
0.0000001
 44
0.0000000001
 40
0.0
 40
0.0
 40
0.0
 40
0.0
 40
0.2203383803
 40
0.458137921
 40
0.7175402719
 40
1.0
 40
1.0
 40
1.0
 40
1.0
 10
14.4721851372
 20
44.0843662407
 30
0.0
 10
14.4488431996
 20
44.1600324168
 30
0.0
 10
14.3798017874
 20
44.3114983412
 30
0.0
 10
14.2233471262
 20
44.5185159854
 30
0.0
 10
14.0155182844
 20
44.7083741672
 30
0.0
 10
13.8526821168
 20
44.8165295177
 30
0.0
 10
13.7647716204
 20
44.8672835182
 30
0.0
  0
SPLINE
  5
324
100
AcDbEntity
  8
0
100
AcDbSpline
 62
7
  6
BYLAYER
 70
0
 71
3
 72
9
 73
5
 74
0
 42
0.0000001
 43
0.0000001
 44
0.0000000001
 40
0.0
 40
0.0
 40
0.0
 40
0.0
 40
0.4977783232
 40
1.0
 40
1.0
 40
1.0
 40
1.0
 10
9.0721017465
 20
43.2764064041
 30
0.0
 10
9.0658678652
 20
43.2183576212
 30
0.0
 10
9.0638919044
 20
43.1003518553
 30
0.0
 10
9.0833951833
 20
42.9839854671
 30
0.0
 10
9.0980998579
 20
42.9269467253
 30
0.0
  0
SPLINE
  5
325
100
AcDbEntity
  8
0
100
AcDbSpline
 62
7
  6
BYLAYER
 70
0
 71
3
 72
12
 73
8
 74
0
 42
0.0000001
 43
0.0000001
 44
0.0000000001
 40
0.0
 40
0.0
 40
0.0
 40
0.0
 40
0.1141144563
 40
0.2310750868
 40
0.4750739448
 40
0.7332522526
 40
1.0
 40
1.0
 40
1.0
 40
1.0
 10
14.7703078066
 20
43.888337402
 30
0.0
 10
14.7664992968
 20
43.9023313935
 30
0.0
 10
14.7558638652
 20
43.929957648
 30
0.0
 10
14.7234927123
 20
43.9812910392
 30
0.0
 10
14.6637192845
 20
44.0350394698
 30
0.0
 10
14.5731933307
 20
44.0752161864
 30
0.0
 10
14.5060865239
 20
44.0843663222
 30
0.0
 10
14.4721851372
 20
44.0843662407
 30
0.0
  0
SPLINE
  5
326
100
AcDbEntity
  8
0
100
AcDbSpline
 62
7
  6
BYLAYER
 70
0
 71
3
 72
13
 73
9
 74
0
 42
0.0000001
 43
0.0000001
 44
0.0000000001
 40
0.0
 40
0.0
 40
0.0
 40
0.0
 40
0.1082094459
 40
0.2200045451
 40
0.4571099584
 40
0.5839527261
 40
0.7167083301
 40
1.0
 40
1.0
 40
1.0
 40
1.0
 10
9.1467661509
 20
43.3485925046
 30
0.0
 10
9.1584629497
 20
43.3053888992
 30
0.0
 10
9.1881063382
 20
43.2190350682
 30
0.0
 10
9.2711689272
 20
43.0487668161
 30
0.0
 10
9.38808923
 20
42.8882838187
 30
0.0
 10
9.5314282177
 20
42.7408659632
 30
0.0
 10
9.7017080818
 20
42.5940864914
 30
0.0
 10
9.8455633763
 20
42.4981169614
 30
0.0
 10
9.9470437214
 20
42.4395285822
 30
0.0
  0
SPLINE
  5
327
100
AcDbEntity
  8
0
100
AcDbSpline
 62
7
  6
BYLAYER
 70
0
 71
3
 72
9
 73
5
 74
0
 42
0.0000001
 43
0.0000001
 44
0.0000000001
 40
0.0
 40
0.0
 40
0.0
 40
0.0
 40
0.5022213777
 40
1.0
 40
1.0
 40
1.0
 40
1.0
 10
14.8250429608
 20
42.9269604911
 30
0.0
 10
14.8397462464
 20
42.9839971068
 30
0.0
 10
14.8592474644
 20
43.1003589723
 30
0.0
 10
14.8572711581
 20
43.2183599225
 30
0.0
 10
14.8510375239
 20
43.2764064042
 30
0.0
  0
SPLINE
  5
328
100
AcDbEntity
  8
0
100
AcDbSpline
 62
7
  6
BYLAYER
 70
0
 71
3
 72
9
 73
5
 74
0
 42
0.0000001
 43
0.0000001
 44
0.0000000001
 40
0.0
 40
0.0
 40
0.0
 40
0.0
 40
0.2453674063
 40
1.0
 40
1.0
 40
1.0
 40
1.0
 10
13.02224719
 20
23.7811055979
 30
0.0
 10
13.0129297947
 20
23.7757260438
 30
0.0
 10
12.9747075607
 20
23.7542346195
 30
0.0
 10
12.9355300291
 20
23.7344508724
 30
0.0
 10
12.9055550749
 20
23.7204367986
 30
0.0
  0
SPLINE
  5
329
100
AcDbEntity
  8
0
100
AcDbSpline
 62
7
  6
BYLAYER
 70
0
 71
3
 72
15
 73
11
 74
0
 42
0.0000001
 43
0.0000001
 44
0.0000000001
 40
0.0
 40
0.0
 40
0.0
 40
0.0
 40
0.1172308717
 40
0.2409686222
 40
0.3692699615
 40
0.49992254
 40
0.6305852944
 40
0.7589133203
 40
0.8826755556
 40
1.0
 40
1.0
 40
1.0
 40
1.0
 10
12.8809540148
 20
23.709179903
 30
0.0
 10
12.8137089069
 20
23.6790675602
 30
0.0
 10
12.6713620018
 20
23.6261242694
 30
0.0
 10
12.4458238175
 20
23.5697168683
 30
0.0
 10
12.2073888813
 20
23.5352184351
 30
0.0
 10
11.9624265338
 20
23.5235613007
 30
0.0
 10
11.7174389537
 20
23.5350505229
 30
0.0
 10
11.4789439846
 20
23.5694008263
 30
0.0
 10
11.2532751085
 20
23.6256577764
 30
0.0
 10
11.1108181633
 20
23.6785193923
 30
0.0
 10
11.0434965208
 20
23.7086046687
 30
0.0
  0
SPLINE
  5
32A
100
AcDbEntity
  8
0
100
AcDbSpline
 62
7
  6
BYLAYER
 70
0
 71
3
 72
9
 73
5
 74
0
 42
0.0000001
 43
0.0000001
 44
0.0000000001
 40
0.0
 40
0.0
 40
0.0
 40
0.0
 40
0.2557301253
 40
1.0
 40
1.0
 40
1.0
 40
1.0
 10
11.0434965208
 20
23.7086046687
 30
0.0
 10
11.0310453853
 20
23.7141689396
 30
0.0
 10
10.9826226669
 20
23.7365141993
 30
0.0
 10
10.9352877654
 20
23.7612414988
 30
0.0
 10
10.9009138791
 20
23.7810868223
 30
0.0
  0
LINE
  5
32B
100
AcDbEntity
  8
0
100
AcDbLine
 62
7
  6
BYLAYER
 10
28.9672374638
 20
34.7621454007
 11
28.9185712855
 21
35.1837909461
  0
LINE
  5
32C
100
AcDbEntity
  8
0
100
AcDbLine
 62
7
  6
BYLAYER
 10
28.918567622
 20
35.6918098411
 11
28.967233915
 21
35.2542554786
  0
LINE
  5
32D
100
AcDbEntity
  8
0
100
AcDbLine
 62
7
  6
BYLAYER
 10
23.2889606538
 20
35.1837774142
 11
23.2402943608
 21
34.7621316348
  0
LINE
  5
32E
100
AcDbEntity
  8
0
100
AcDbLine
 62
7
  6
BYLAYER
 10
23.2402908121
 20
35.2542417127
 11
23.2889569903
 21
35.6917963092
  0
SPLINE
  5
32F
100
AcDbEntity
  8
0
100
AcDbSpline
 62
7
  6
BYLAYER
 70
0
 71
3
 72
15
 73
11
 74
0
 42
0.0000001
 43
0.0000001
 44
0.0000000001
 40
0.0
 40
0.0
 40
0.0
 40
0.0
 40
0.1141521431
 40
0.2373214229
 40
0.3669696504
 40
0.4999912471
 40
0.6330151746
 40
0.7626650661
 40
0.8858469178
 40
1.0
 40
1.0
 40
1.0
 40
1.0
 10
27.0230157669
 20
15.5346376533
 30
0.0
 10
26.9600882723
 20
15.4983052173
 30
0.0
 10
26.82248526
 20
15.4342264201
 30
0.0
 10
26.5984055835
 20
15.3661152674
 30
0.0
 10
26.3558032057
 20
15.3241901809
 30
0.0
 10
26.1037899834
 20
15.3100397618
 30
0.0
 10
25.8517757367
 20
15.3241845072
 30
0.0
 10
25.6091605137
 20
15.3660985442
 30
0.0
 10
25.3850713041
 20
15.4342120764
 30
0.0
 10
25.2474580503
 20
15.4982888834
 30
0.0
 10
25.1845291495
 20
15.5346200793
 30
0.0
  0
SPLINE
  5
330
100
AcDbEntity
  8
0
100
AcDbSpline
 62
7
  6
BYLAYER
 70
0
 71
3
 72
13
 73
9
 74
0
 42
0.0000001
 43
0.0000001
 44
0.0000000001
 40
0.0
 40
0.0
 40
0.0
 40
0.0
 40
0.2722735242
 40
0.5324945457
 40
0.656049707
 40
0.7746081797
 40
0.8888881987
 40
1.0
 40
1.0
 40
1.0
 40
1.0
 10
28.6143833634
 20
35.4032519001
 30
0.0
 10
28.6513888185
 20
35.403251989
 30
0.0
 10
28.7241880928
 20
35.3928978056
 30
0.0
 10
28.8062569782
 20
35.353921333
 30
0.0
 10
28.858395365
 20
35.3093020143
 30
0.0
 10
28.8887314854
 20
35.271105939
 30
0.0
 10
28.9096512935
 20
35.2289054584
 30
0.0
 10
28.9168370294
 20
35.19879255
 30
0.0
 10
28.9185712855
 20
35.1837909461
 30
0.0
  0
SPLINE
  5
331
100
AcDbEntity
  8
0
100
AcDbSpline
 62
7
  6
BYLAYER
 70
0
 71
3
 72
14
 73
10
 74
0
 42
0.0000001
 43
0.0000001
 44
0.0000000001
 40
0.0
 40
0.0
 40
0.0
 40
0.0
 40
0.1080460517
 40
0.2181315492
 40
0.3321041494
 40
0.4515030548
 40
0.5774600158
 40
0.7107294512
 40
1.0
 40
1.0
 40
1.0
 40
1.0
 10
27.603760524
 20
16.2286379626
 30
0.0
 10
27.6037636754
 20
16.2002421925
 30
0.0
 10
27.5988281992
 20
16.1427990478
 30
0.0
 10
27.5768154699
 20
16.057956323
 30
0.0
 10
27.5404921819
 20
15.9749337964
 30
0.0
 10
27.4902922315
 20
15.8945935436
 30
0.0
 10
27.4268083697
 20
15.8176245014
 30
0.0
 10
27.3224801237
 20
15.7177923433
 30
0.0
 10
27.2302796742
 20
15.6543031681
 30
0.0
 10
27.1644416929
 20
15.6162905075
 30
0.0
  0
SPLINE
  5
332
100
AcDbEntity
  8
0
100
AcDbSpline
 62
7
  6
BYLAYER
 70
0
 71
3
 72
13
 73
9
 74
0
 42
0.0000001
 43
0.0000001
 44
0.0000000001
 40
0.0
 40
0.0
 40
0.0
 40
0.0
 40
0.1111157049
 40
0.225403733
 40
0.3439599243
 40
0.4675119456
 40
0.7277294265
 40
1.0
 40
1.0
 40
1.0
 40
1.0
 10
23.2889606538
 20
35.1837774142
 30
0.0
 10
23.290694976
 20
35.1987795627
 30
0.0
 10
23.2978860209
 20
35.2288930181
 30
0.0
 10
23.3188042218
 20
35.2710948507
 30
0.0
 10
23.3491360192
 20
35.309295492
 30
0.0
 10
23.4012784183
 20
35.3539089336
 30
0.0
 10
23.4833448207
 20
35.3928849596
 30
0.0
 10
23.5561435373
 20
35.4032397416
 30
0.0
 10
23.5931486356
 20
35.4032398305
 30
0.0
  0
SPLINE
  5
333
100
AcDbEntity
  8
0
100
AcDbSpline
 62
7
  6
BYLAYER
 70
0
 71
3
 72
25
 73
21
 74
0
 42
0.0000001
 43
0.0000001
 44
0.0000000001
 40
0.0
 40
0.0
 40
0.0
 40
0.0
 40
0.0214912834
 40
0.0430268579
 40
0.064847853
 40
0.0871791209
 40
0.1340675476
 40
0.1849587306
 40
0.2404619991
 40
0.3006795129
 40
0.3653098113
 40
0.4337455582
 40
0.5051553758
 40
0.578552042
 40
0.6528521592
 40
0.7269284819
 40
0.7996689832
 40
0.870017038
 40
0.9370512961
 40
1.0
 40
1.0
 40
1.0
 40
1.0
 10
29.0980141137
 20
34.1355380015
 30
0.0
 10
29.1026692256
 20
34.0921446572
 30
0.0
 10
29.1063455848
 20
34.0045523932
 30
0.0
 10
29.0945644002
 20
33.8730355379
 30
0.0
 10
29.0654997602
 20
33.7424669004
 30
0.0
 10
29.0031347841
 20
33.567989264
 30
0.0
 10
28.8801388819
 20
33.354815435
 30
0.0
 10
28.672303361
 20
33.1208228966
 30
0.0
 10
28.4071410258
 20
32.908473119
 30
0.0
 10
28.0907117796
 20
32.7219969953
 30
0.0
 10
27.7299826379
 20
32.5651406626
 30
0.0
 10
27.3329112176
 20
32.4412500309
 30
0.0
 10
26.9083121691
 20
32.3530272954
 30
0.0
 10
26.4656674417
 20
32.3024291331
 30
0.0
 10
26.0149022005
 20
32.2905885764
 30
0.0
 10
25.5661288236
 20
32.3177613949
 30
0.0
 10
25.1294328719
 20
32.3833544635
 30
0.0
 10
24.7145356985
 20
32.4858871947
 30
0.0
 10
24.3308095683
 20
32.6230952171
 30
0.0
 10
24.0931571564
 20
32.7397443502
 30
0.0
 10
23.9824526263
 20
32.8036581945
 30
0.0
  0
SPLINE
  5
334
100
AcDbEntity
  8
0
100
AcDbSpline
 62
7
  6
BYLAYER
 70
0
 71
3
 72
12
 73
8
 74
0
 42
0.0000001
 43
0.0000001
 44
0.0000000001
 40
0.0
 40
0.0
 40
0.0
 40
0.0
 40
0.115735647
 40
0.2329842806
 40
0.4745327178
 40
0.7292762561
 40
1.0
 40
1.0
 40
1.0
 40
1.0
 10
28.912513684
 20
35.723524508
 30
0.0
 10
28.8989113209
 20
35.7735441128
 30
0.0
 10
28.8650089119
 20
35.8725822821
 30
0.0
 10
28.7721250219
 20
36.0642117234
 30
0.0
 10
28.6102620304
 20
36.2891283227
 30
0.0
 10
28.35833561
 20
36.5251065536
 30
0.0
 10
28.1619721919
 20
36.6567014133
 30
0.0
 10
28.0569635783
 20
36.7173267931
 30
0.0
  0
SPLINE
  5
335
100
AcDbEntity
  8
0
100
AcDbSpline
 62
7
  6
BYLAYER
 70
0
 71
3
 72
23
 73
19
 74
0
 42
0.0000001
 43
0.0000001
 44
0.0000000001
 40
0.0
 40
0.0
 40
0.0
 40
0.0
 40
0.0609283511
 40
0.1248061401
 40
0.1911777563
 40
0.2595304454
 40
0.3291682909
 40
0.3993293438
 40
0.4692239479
 40
0.5380750968
 40
0.6051675335
 40
0.669897575
 40
0.7318218506
 40
0.7907024001
 40
0.8465546601
 40
0.8996815567
 40
0.950583664
 40
1.0
 40
1.0
 40
1.0
 40
1.0
 10
28.0569635783
 20
36.7173267931
 30
0.0
 10
27.9618970467
 20
36.7722122391
 30
0.0
 10
27.7602031453
 20
36.8728717781
 30
0.0
 10
27.4371707328
 20
36.9939025723
 30
0.0
 10
27.0912499503
 20
37.0873366132
 30
0.0
 10
26.7283451461
 20
37.1520592178
 30
0.0
 10
26.3545505689
 20
37.1871365628
 30
0.0
 10
25.9763805296
 20
37.1920755613
 30
0.0
 10
25.6004377406
 20
37.1668112758
 30
0.0
 10
25.2332666172
 20
37.111701964
 30
0.0
 10
24.8811709126
 20
37.0275210543
 30
0.0
 10
24.5500428923
 20
36.91537633
 30
0.0
 10
24.2452716598
 20
36.7765389311
 30
0.0
 10
23.971752509
 20
36.6122812063
 30
0.0
 10
23.7339989832
 20
36.4238056667
 30
0.0
 10
23.5367790266
 20
36.2121042397
 30
0.0
 10
23.385362216
 20
35.9790008527
 30
0.0
 10
23.3183722366
 20
35.8094211497
 30
0.0
 10
23.2950103657
 20
35.7235089647
 30
0.0
  0
SPLINE
  5
336
100
AcDbEntity
  8
0
100
AcDbSpline
 62
7
  6
BYLAYER
 70
0
 71
3
 72
16
 73
12
 74
0
 42
0.0000001
 43
0.0000001
 44
0.0000000001
 40
0.0
 40
0.0
 40
0.0
 40
0.0
 40
0.1497641355
 40
0.2912169702
 40
0.4242900618
 40
0.4878821671
 40
0.5496322432
 40
0.6681094182
 40
0.7812855955
 40
0.8911447263
 40
1.0
 40
1.0
 40
1.0
 40
1.0
 10
23.9824526263
 20
32.8036581945
 30
0.0
 10
23.9096223689
 20
32.845705812
 30
0.0
 10
23.7715326663
 20
32.9338546918
 30
0.0
 10
23.5844376123
 20
33.0820533537
 30
0.0
 10
23.4497710713
 20
33.2166463983
 30
0.0
 10
23.3577227275
 20
33.3289576552
 30
0.0
 10
23.2784236553
 20
33.4406728851
 30
0.0
 10
23.1977940029
 20
33.5851508261
 30
0.0
 10
23.1325306385
 20
33.766461463
 30
0.0
 10
23.1010441368
 20
33.9511425514
 30
0.0
 10
23.1029939789
 20
34.0747615248
 30
0.0
 10
23.1095143439
 20
34.1355379749
 30
0.0
  0
SPLINE
  5
337
100
AcDbEntity
  8
0
100
AcDbSpline
 62
7
  6
BYLAYER
 70
0
 71
3
 72
14
 73
10
 74
0
 42
0.0000001
 43
0.0000001
 44
0.0000000001
 40
0.0
 40
0.0
 40
0.0
 40
0.0
 40
0.2892627121
 40
0.4225615262
 40
0.5485059597
 40
0.6678879081
 40
0.7818672987
 40
0.8919530706
 40
1.0
 40
1.0
 40
1.0
 40
1.0
 10
25.0431083821
 20
15.6162717319
 30
0.0
 10
24.977268874
 20
15.6542833297
 30
0.0
 10
24.8850562879
 20
15.7177744125
 30
0.0
 10
24.7807299619
 20
15.8176182071
 30
0.0
 10
24.7172287743
 20
15.894579188
 30
0.0
 10
24.667054264
 20
15.9749320562
 30
0.0
 10
24.6307104006
 20
16.0579451392
 30
0.0
 10
24.6086991373
 20
16.1427959501
 30
0.0
 10
24.6037709034
 20
16.2002408974
 30
0.0
 10
24.6037677518
 20
16.2286379629
 30
0.0
  0
SPLINE
  5
338
100
AcDbEntity
  8
0
100
AcDbSpline
 62
7
  6
BYLAYER
 70
0
 71
3
 72
23
 73
19
 74
0
 42
0.0000001
 43
0.0000001
 44
0.0000000001
 40
0.0
 40
0.0
 40
0.0
 40
0.0
 40
0.0606935614
 40
0.1250199617
 40
0.1923703713
 40
0.2620668109
 40
0.3333005107
 40
0.4052104941
 40
0.4769115058
 40
0.5475248923
 40
0.6162129776
 40
0.6822154758
 40
0.7448877424
 40
0.8037443016
 40
0.858510008
 40
0.9091786626
 40
0.9561069871
 40
1.0
 40
1.0
 40
1.0
 40
1.0
 10
24.3005621524
 20
34.6203225531
 30
0.0
 10
24.3851141373
 20
34.5715075462
 30
0.0
 10
24.5654867637
 20
34.4814690639
 30
0.0
 10
24.8555387226
 20
34.3723401351
 30
0.0
 10
25.1684402742
 20
34.2868540635
 30
0.0
 10
25.4983959141
 20
34.2265291095
 30
0.0
 10
25.83944093
 20
34.1924871827
 30
0.0
 10
26.1853196324
 20
34.1853355972
 30
0.0
 10
26.529705445
 20
34.2052002813
 30
0.0
 10
26.8662975645
 20
34.2517236398
 30
0.0
 10
27.1889441487
 20
34.3240653956
 30
0.0
 10
27.4917691968
 20
34.4209095198
 30
0.0
 10
27.7692841223
 20
34.5405179593
 30
0.0
 10
28.0164834488
 20
34.6808022565
 30
0.0
 10
28.2288840471
 20
34.8393794877
 30
0.0
 10
28.402661682
 20
35.0136765813
 30
0.0
 10
28.5343034433
 20
35.2008227515
 30
0.0
 10
28.5935710669
 20
35.3357826572
 30
0.0
 10
28.6143833634
 20
35.4032519001
 30
0.0
  0
SPLINE
  5
339
100
AcDbEntity
  8
0
100
AcDbSpline
 62
7
  6
BYLAYER
 70
0
 71
3
 72
11
 73
7
 74
0
 42
0.0000001
 43
0.0000001
 44
0.0000000001
 40
0.0
 40
0.0
 40
0.0
 40
0.0
 40
0.2203383803
 40
0.458137921
 40
0.7175402719
 40
1.0
 40
1.0
 40
1.0
 40
1.0
 10
23.5931486356
 20
35.4032398305
 30
0.0
 10
23.6164905732
 20
35.3275736544
 30
0.0
 10
23.6855319855
 20
35.1761077301
 30
0.0
 10
23.8419866467
 20
34.9690900858
 30
0.0
 10
24.0498154885
 20
34.779231904
 30
0.0
 10
24.2126516561
 20
34.6710765536
 30
0.0
 10
24.3005621524
 20
34.6203225531
 30
0.0
  0
SPLINE
  5
33A
100
AcDbEntity
  8
0
100
AcDbSpline
 62
7
  6
BYLAYER
 70
0
 71
3
 72
23
 73
19
 74
0
 42
0.0000001
 43
0.0000001
 44
0.0000000001
 40
0.0
 40
0.0
 40
0.0
 40
0.0
 40
0.0608983323
 40
0.125471227
 40
0.1930942477
 40
0.2630709996
 40
0.3345717673
 40
0.4067142372
 40
0.47859266
 40
0.5493101306
 40
0.618014436
 40
0.6839362819
 40
0.7464295463
 40
0.8050172451
 40
0.859446002
 40
0.9097483136
 40
0.9563392702
 40
1.0
 40
1.0
 40
1.0
 40
1.0
 10
24.0892382244
 20
34.2747134918
 30
0.0
 10
24.1846450882
 20
34.2196315594
 30
0.0
 10
24.3882918719
 20
34.1181274232
 30
0.0
 10
24.7158962925
 20
33.995419217
 30
0.0
 10
25.0693967837
 20
33.8996752385
 30
0.0
 10
25.4421206582
 20
33.832628214
 30
0.0
 10
25.8271995992
 20
33.795550502
 30
0.0
 10
26.2174337218
 20
33.7891157544
 30
0.0
 10
26.6055474042
 20
33.8134382426
 30
0.0
 10
26.9843032444
 20
33.8680712965
 30
0.0
 10
27.3466465276
 20
33.9520095706
 30
0.0
 10
27.6858538723
 20
34.0636981566
 30
0.0
 10
27.9956629341
 20
34.2010979532
 30
0.0
 10
28.2703819704
 20
34.3617722853
 30
0.0
 10
28.5049309435
 20
34.5429547872
 30
0.0
 10
28.6949870056
 20
34.7416715292
 30
0.0
 10
28.8365716332
 20
34.9545977024
 30
0.0
 10
28.8979318961
 20
35.1075525912
 30
0.0
 10
28.9185712855
 20
35.1837909461
 30
0.0
  0
SPLINE
  5
33B
100
AcDbEntity
  8
0
100
AcDbSpline
 62
7
  6
BYLAYER
 70
0
 71
3
 72
12
 73
8
 74
0
 42
0.0000001
 43
0.0000001
 44
0.0000000001
 40
0.0
 40
0.0
 40
0.0
 40
0.0
 40
0.2667484847
 40
0.524931652
 40
0.7689369062
 40
0.8858946596
 40
1.0
 40
1.0
 40
1.0
 40
1.0
 10
23.5931449124
 20
35.9195390807
 30
0.0
 10
23.5592431227
 20
35.9195389992
 30
0.0
 10
23.4921355956
 20
35.9103878465
 30
0.0
 10
23.401605265
 20
35.8702114804
 30
0.0
 10
23.3418379331
 20
35.8164553323
 30
0.0
 10
23.3094598036
 20
35.7651267563
 30
0.0
 10
23.2988265926
 20
35.7375004885
 30
0.0
 10
23.2950197651
 20
35.7235071029
 30
0.0
  0
SPLINE
  5
33C
100
AcDbEntity
  8
0
100
AcDbSpline
 62
7
  6
BYLAYER
 70
0
 71
3
 72
23
 73
19
 74
0
 42
0.0000001
 43
0.0000001
 44
0.0000000001
 40
0.0
 40
0.0
 40
0.0
 40
0.0
 40
0.0606935614
 40
0.1250199617
 40
0.1923703713
 40
0.2620668109
 40
0.3333005107
 40
0.4052104941
 40
0.4769115058
 40
0.5475248923
 40
0.6162129776
 40
0.6822154758
 40
0.7448877424
 40
0.8037443016
 40
0.858510008
 40
0.9091786626
 40
0.9561069871
 40
1.0
 40
1.0
 40
1.0
 40
1.0
 10
27.9069661234
 20
36.7024684278
 30
0.0
 10
27.8224141385
 20
36.7512834346
 30
0.0
 10
27.6420415121
 20
36.841321917
 30
0.0
 10
27.3519895532
 20
36.9504508457
 30
0.0
 10
27.0390880016
 20
37.0359369173
 30
0.0
 10
26.7091323617
 20
37.0962618713
 30
0.0
 10
26.3680873459
 20
37.1303037981
 30
0.0
 10
26.0222086434
 20
37.1374553836
 30
0.0
 10
25.6778228308
 20
37.1175906995
 30
0.0
 10
25.3412307113
 20
37.071067341
 30
0.0
 10
25.0185841271
 20
36.9987255852
 30
0.0
 10
24.715759079
 20
36.901881461
 30
0.0
 10
24.4382441536
 20
36.7822730215
 30
0.0
 10
24.191044827
 20
36.6419887243
 30
0.0
 10
23.9786442287
 20
36.4834114932
 30
0.0
 10
23.8048665939
 20
36.3091143996
 30
0.0
 10
23.6732248325
 20
36.1219682293
 30
0.0
 10
23.613957209
 20
35.9870083236
 30
0.0
 10
23.5931449124
 20
35.9195390807
 30
0.0
  0
SPLINE
  5
33D
100
AcDbEntity
  8
0
100
AcDbSpline
 62
7
  6
BYLAYER
 70
0
 71
3
 72
11
 73
7
 74
0
 42
0.0000001
 43
0.0000001
 44
0.0000000001
 40
0.0
 40
0.0
 40
0.0
 40
0.0
 40
0.2203383803
 40
0.458137921
 40
0.7175402719
 40
1.0
 40
1.0
 40
1.0
 40
1.0
 10
28.6143796402
 20
35.9195511503
 30
0.0
 10
28.5910377026
 20
35.9952173264
 30
0.0
 10
28.5219962903
 20
36.1466832508
 30
0.0
 10
28.3655416292
 20
36.353700895
 30
0.0
 10
28.1577127873
 20
36.5435590768
 30
0.0
 10
27.9948766197
 20
36.6517144273
 30
0.0
 10
27.9069661234
 20
36.7024684278
 30
0.0
  0
SPLINE
  5
33E
100
AcDbEntity
  8
0
100
AcDbSpline
 62
7
  6
BYLAYER
 70
0
 71
3
 72
9
 73
5
 74
0
 42
0.0000001
 43
0.0000001
 44
0.0000000001
 40
0.0
 40
0.0
 40
0.0
 40
0.0
 40
0.4977783232
 40
1.0
 40
1.0
 40
1.0
 40
1.0
 10
23.2142962494
 20
35.1115913137
 30
0.0
 10
23.2080623682
 20
35.0535425308
 30
0.0
 10
23.2060864073
 20
34.9355367649
 30
0.0
 10
23.2255896862
 20
34.8191703767
 30
0.0
 10
23.2402943608
 20
34.7621316348
 30
0.0
  0
SPLINE
  5
33F
100
AcDbEntity
  8
0
100
AcDbSpline
 62
7
  6
BYLAYER
 70
0
 71
3
 72
12
 73
8
 74
0
 42
0.0000001
 43
0.0000001
 44
0.0000000001
 40
0.0
 40
0.0
 40
0.0
 40
0.0
 40
0.1141144563
 40
0.2310750868
 40
0.4750739448
 40
0.7332522526
 40
1.0
 40
1.0
 40
1.0
 40
1.0
 10
28.9125023095
 20
35.7235223116
 30
0.0
 10
28.9086937997
 20
35.737516303
 30
0.0
 10
28.8980583681
 20
35.7651425576
 30
0.0
 10
28.8656872152
 20
35.8164759488
 30
0.0
 10
28.8059137874
 20
35.8702243793
 30
0.0
 10
28.7153878336
 20
35.910401096
 30
0.0
 10
28.6482810268
 20
35.9195512318
 30
0.0
 10
28.6143796402
 20
35.9195511503
 30
0.0
  0
SPLINE
  5
340
100
AcDbEntity
  8
0
100
AcDbSpline
 62
7
  6
BYLAYER
 70
0
 71
3
 72
13
 73
9
 74
0
 42
0.0000001
 43
0.0000001
 44
0.0000000001
 40
0.0
 40
0.0
 40
0.0
 40
0.0
 40
0.1082094459
 40
0.2200045451
 40
0.4571099584
 40
0.5839527261
 40
0.7167083301
 40
1.0
 40
1.0
 40
1.0
 40
1.0
 10
23.2889606538
 20
35.1837774142
 30
0.0
 10
23.3006574527
 20
35.1405738088
 30
0.0
 10
23.3303008412
 20
35.0542199778
 30
0.0
 10
23.4133634301
 20
34.8839517257
 30
0.0
 10
23.530283733
 20
34.7234687283
 30
0.0
 10
23.6736227206
 20
34.5760508728
 30
0.0
 10
23.8439025847
 20
34.429271401
 30
0.0
 10
23.9877578792
 20
34.333301871
 30
0.0
 10
24.0892382244
 20
34.2747134918
 30
0.0
  0
SPLINE
  5
341
100
AcDbEntity
  8
0
100
AcDbSpline
 62
7
  6
BYLAYER
 70
0
 71
3
 72
9
 73
5
 74
0
 42
0.0000001
 43
0.0000001
 44
0.0000000001
 40
0.0
 40
0.0
 40
0.0
 40
0.0
 40
0.5022213777
 40
1.0
 40
1.0
 40
1.0
 40
1.0
 10
28.9672374638
 20
34.7621454007
 30
0.0
 10
28.9819407494
 20
34.8191820164
 30
0.0
 10
29.0014419673
 20
34.9355438819
 30
0.0
 10
28.999465661
 20
35.0535448321
 30
0.0
 10
28.9932320269
 20
35.1115913137
 30
0.0
  0
SPLINE
  5
342
100
AcDbEntity
  8
0
100
AcDbSpline
 62
7
  6
BYLAYER
 70
0
 71
3
 72
9
 73
5
 74
0
 42
0.0000001
 43
0.0000001
 44
0.0000000001
 40
0.0
 40
0.0
 40
0.0
 40
0.0
 40
0.2453674063
 40
1.0
 40
1.0
 40
1.0
 40
1.0
 10
27.1644416929
 20
15.6162905075
 30
0.0
 10
27.1551242977
 20
15.6109109534
 30
0.0
 10
27.1169020637
 20
15.5894195291
 30
0.0
 10
27.0777245321
 20
15.569635782
 30
0.0
 10
27.0477495778
 20
15.5556217082
 30
0.0
  0
SPLINE
  5
343
100
AcDbEntity
  8
0
100
AcDbSpline
 62
7
  6
BYLAYER
 70
0
 71
3
 72
15
 73
11
 74
0
 42
0.0000001
 43
0.0000001
 44
0.0000000001
 40
0.0
 40
0.0
 40
0.0
 40
0.0
 40
0.1172308717
 40
0.2409686222
 40
0.3692699615
 40
0.49992254
 40
0.6305852944
 40
0.7589133203
 40
0.8826755556
 40
1.0
 40
1.0
 40
1.0
 40
1.0
 10
27.0231485178
 20
15.5443648126
 30
0.0
 10
26.9559034098
 20
15.5142524698
 30
0.0
 10
26.8135565047
 20
15.461309179
 30
0.0
 10
26.5880183204
 20
15.4049017779
 30
0.0
 10
26.3495833843
 20
15.3704033447
 30
0.0
 10
26.1046210367
 20
15.3587462103
 30
0.0
 10
25.8596334566
 20
15.3702354325
 30
0.0
 10
25.6211384875
 20
15.4045857359
 30
0.0
 10
25.3954696115
 20
15.460842686
 30
0.0
 10
25.2530126662
 20
15.5137043019
 30
0.0
 10
25.1856910237
 20
15.5437895783
 30
0.0
  0
SPLINE
  5
344
100
AcDbEntity
  8
0
100
AcDbSpline
 62
7
  6
BYLAYER
 70
0
 71
3
 72
9
 73
5
 74
0
 42
0.0000001
 43
0.0000001
 44
0.0000000001
 40
0.0
 40
0.0
 40
0.0
 40
0.0
 40
0.2557301253
 40
1.0
 40
1.0
 40
1.0
 40
1.0
 10
25.1856910237
 20
15.5437895783
 30
0.0
 10
25.1732398882
 20
15.5493538492
 30
0.0
 10
25.1248171698
 20
15.5716991089
 30
0.0
 10
25.0774822683
 20
15.5964264084
 30
0.0
 10
25.0431083821
 20
15.6162717319
 30
0.0
  0
SPLINE
  5
345
100
AcDbEntity
  8
0
100
AcDbSpline
 62
7
  6
BYLAYER
 70
0
 71
3
 72
15
 73
11
 74
0
 42
0.0000001
 43
0.0000001
 44
0.0000000001
 40
0.0
 40
0.0
 40
0.0
 40
0.0
 40
0.1486045141
 40
0.2894990889
 40
0.4227227968
 40
0.5486417764
 40
0.668000708
 40
0.7819384286
 40
0.8919870976
 40
1.0
 40
1.0
 40
1.0
 40
1.0
 10
19.6054337985
 20
57.9234142032
 30
0.0
 10
19.695662661
 20
57.8713190501
 30
0.0
 10
19.8757589571
 20
57.7770325944
 30
0.0
 10
20.1504820066
 20
57.6645964791
 30
0.0
 10
20.4202950478
 20
57.5859257763
 30
0.0
 10
20.6826824721
 20
57.5419141431
 30
0.0
 10
20.9351810994
 20
57.5331171623
 30
0.0
 10
21.1753623973
 20
57.5599083136
 30
0.0
 10
21.4006655316
 20
57.6222131591
 30
0.0
 10
21.5399140962
 20
57.6874108822
 30
0.0
 10
21.6054972737
 20
57.7252752701
 30
0.0
  0
SPLINE
  5
346
100
AcDbEntity
  8
0
100
AcDbSpline
 62
7
  6
BYLAYER
 70
0
 71
3
 72
15
 73
11
 74
0
 42
0.0000001
 43
0.0000001
 44
0.0000000001
 40
0.0
 40
0.0
 40
0.0
 40
0.0
 40
0.1080132627
 40
0.2180617257
 40
0.3319995369
 40
0.4513614563
 40
0.5772752811
 40
0.7104914696
 40
0.8514274723
 40
1.0
 40
1.0
 40
1.0
 40
1.0
 10
17.6055151812
 20
64.6534888393
 30
0.0
 10
17.5399326372
 20
64.6156248171
 30
0.0
 10
17.4138468875
 20
64.5276322822
 30
0.0
 10
17.2472374955
 20
64.3636710315
 30
0.0
 10
17.103942828
 20
64.1690661242
 30
0.0
 10
16.9853176846
 20
63.9459997699
 30
0.0
 10
16.8922342612
 20
63.6967733007
 30
0.0
 10
16.8254431074
 20
63.4237588701
 30
0.0
 10
16.7854747325
 20
63.1296233434
 30
0.0
 10
16.7770673268
 20
62.926509357
 30
0.0
 10
16.7770673268
 20
62.8223450728
 30
0.0
  0
SPLINE
  5
347
100
AcDbEntity
  8
0
100
AcDbSpline
 62
7
  6
BYLAYER
 70
0
 71
3
 72
20
 73
16
 74
0
 42
0.0000001
 43
0.0000001
 44
0.0000000001
 40
0.0
 40
0.0
 40
0.0
 40
0.0
 40
0.055833903
 40
0.1142016622
 40
0.1748140281
 40
0.2373916919
 40
0.3669942208
 40
0.4999691794
 40
0.6329460926
 40
0.698401028
 40
0.7626075416
 40
0.8251883171
 40
0.8858019907
 40
0.9441528874
 40
1.0
 40
1.0
 40
1.0
 40
1.0
 10
16.7770732148
 20
62.0058601644
 30
0.0
 10
16.7770732148
 20
61.9238144289
 30
0.0
 10
16.7843741746
 20
61.7559387072
 30
0.0
 10
16.8152694238
 20
61.5007030929
 30
0.0
 10
16.8661321576
 20
61.2385796079
 30
0.0
 10
16.9609725348
 20
60.8791938799
 30
0.0
 10
17.1263810853
 20
60.4295761047
 30
0.0
 10
17.3888561372
 20
59.9096708518
 30
0.0
 10
17.6562255957
 20
59.5012506994
 30
0.0
 10
17.8950157671
 20
59.1978206101
 30
0.0
 10
18.0828063704
 20
58.9865378856
 30
0.0
 10
18.278409201
 20
58.7924352402
 30
0.0
 10
18.4799658032
 20
58.6173434471
 30
0.0
 10
18.6855384858
 20
58.4629448478
 30
0.0
 10
18.8272780106
 20
58.3727025066
 30
0.0
 10
18.8983480664
 20
58.3316691613
 30
0.0
  0
SPLINE
  5
348
100
AcDbEntity
  8
0
100
AcDbSpline
 62
7
  6
BYLAYER
 70
0
 71
3
 72
9
 73
5
 74
0
 42
0.0000001
 43
0.0000001
 44
0.0000000001
 40
0.0
 40
0.0
 40
0.0
 40
0.0
 40
0.2575106096
 40
1.0
 40
1.0
 40
1.0
 40
1.0
 10
19.3946805409
 20
64.5680186104
 30
0.0
 10
19.3616682314
 20
64.5842284181
 30
0.0
 10
19.2324548241
 20
64.645067317
 30
0.0
 10
19.0990726064
 20
64.697206544
 30
0.0
 10
18.9981779123
 20
64.7298411805
 30
0.0
  0
SPLINE
  5
349
100
AcDbEntity
  8
0
100
AcDbSpline
 62
7
  6
BYLAYER
 70
0
 71
3
 72
10
 73
6
 74
0
 42
0.0000001
 43
0.0000001
 44
0.0000000001
 40
0.0
 40
0.0
 40
0.0
 40
0.0
 40
0.5192026003
 40
0.7638987867
 40
1.0
 40
1.0
 40
1.0
 40
1.0
 10
18.8994000313
 20
64.7596377602
 30
0.0
 10
18.7728400163
 20
64.7950321733
 30
0.0
 10
18.5817228892
 20
64.8325482811
 30
0.0
 10
18.3285485644
 20
64.8440368701
 30
0.0
 10
18.206772508
 20
64.8367406033
 30
0.0
 10
18.1474199105
 20
64.8297751034
 30
0.0
  0
SPLINE
  5
34A
100
AcDbEntity
  8
0
100
AcDbSpline
 62
7
  6
BYLAYER
 70
0
 71
3
 72
9
 73
5
 74
0
 42
0.0000001
 43
0.0000001
 44
0.0000000001
 40
0.0
 40
0.0
 40
0.0
 40
0.0
 40
0.5034022426
 40
1.0
 40
1.0
 40
1.0
 40
1.0
 10
17.9656290996
 20
64.7971965271
 30
0.0
 10
17.9022661997
 20
64.7817165462
 30
0.0
 10
17.7783220394
 20
64.7423441498
 30
0.0
 10
17.6612394086
 20
64.6856611714
 30
0.0
 10
17.6055151812
 20
64.6534888393
 30
0.0
  0
SPLINE
  5
34B
100
AcDbEntity
  8
0
100
AcDbSpline
 62
7
  6
BYLAYER
 70
0
 71
3
 72
24
 73
20
 74
0
 42
0.0000001
 43
0.0000001
 44
0.0000000001
 40
0.0
 40
0.0
 40
0.0
 40
0.0
 40
0.0743008662
 40
0.144745229
 40
0.2113543892
 40
0.2432856542
 40
0.2743431846
 40
0.3340198227
 40
0.3909874374
 40
0.4460102323
 40
0.500015094
 40
0.5540199373
 40
0.6090418211
 40
0.6660080958
 40
0.7256872757
 40
0.7886407256
 40
0.855248626
 40
0.9257197348
 40
1.0
 40
1.0
 40
1.0
 40
1.0
 10
18.8983480664
 20
58.3316691613
 30
0.0
 10
18.9660201168
 20
58.2925977046
 30
0.0
 10
19.1010896374
 20
58.2218718947
 30
0.0
 10
19.3071196671
 20
58.1375586787
 30
0.0
 10
19.4781269985
 20
58.0876967135
 30
0.0
 10
19.6119383159
 20
58.0613708078
 30
0.0
 10
19.7398855794
 20
58.0443616175
 30
0.0
 10
19.8956581745
 20
58.0389532158
 30
0.0
 10
20.0757740811
 20
58.0590222116
 30
0.0
 10
20.2447882465
 20
58.105775175
 30
0.0
 10
20.4008252265
 20
58.1788250016
 30
0.0
 10
20.5421147088
 20
58.2774231724
 30
0.0
 10
20.6670989207
 20
58.4004209732
 30
0.0
 10
20.7745671031
 20
58.5463626546
 30
0.0
 10
20.8635368408
 20
58.71366409
 30
0.0
 10
20.9333525231
 20
58.9005833027
 30
0.0
 10
20.9834509931
 20
59.1053508503
 30
0.0
 10
21.0134216775
 20
59.3259581166
 30
0.0
 10
21.0197315657
 20
59.47829586
 30
0.0
 10
21.0197315657
 20
59.5564156373
 30
0.0
  0
SPLINE
  5
34C
100
AcDbEntity
  8
0
100
AcDbSpline
 62
7
  6
BYLAYER
 70
0
 71
3
 72
36
 73
32
 74
0
 42
0.0000001
 43
0.0000001
 44
0.0000000001
 40
0.0
 40
0.0
 40
0.0
 40
0.0
 40
0.0325447034
 40
0.0665663753
 40
0.101896411
 40
0.1383719989
 40
0.2139153717
 40
0.2914244095
 40
0.3689344384
 40
0.4444776404
 40
0.4809547294
 40
0.5162851594
 40
0.5502965879
 40
0.5828485398
 40
0.6138429217
 40
0.643228575
 40
0.6710144012
 40
0.6843344519
 40
0.697290037
 40
0.7221840647
 40
0.745948093
 40
0.7689009148
 40
0.7914291791
 40
0.8139574999
 40
0.8369101281
 40
0.8606738899
 40
0.8855693538
 40
0.9118306788
 40
0.9396164479
 40
0.9690137386
 40
1.0
 40
1.0
 40
1.0
 40
1.0
 10
21.0197315657
 20
59.5564156373
 30
0.0
 10
21.0197315657
 20
59.6384629329
 30
0.0
 10
21.0124303342
 20
59.8063418946
 30
0.0
 10
20.9815339019
 20
60.0615825307
 30
0.0
 10
20.9306694287
 20
60.3237108846
 30
0.0
 10
20.8358249157
 20
60.6831048337
 30
0.0
 10
20.6704160827
 20
61.1327201542
 30
0.0
 10
20.4079086451
 20
61.652678181
 30
0.0
 10
20.0888633818
 20
62.1399931723
 30
0.0
 10
19.7821896254
 20
62.5080564235
 30
0.0
 10
19.5183516973
 20
62.7698842074
 30
0.0
 10
19.3167879178
 20
62.944973855
 30
0.0
 10
19.1111982962
 20
63.0993773678
 30
0.0
 10
18.9035032147
 20
63.2316070293
 30
0.0
 10
18.6956665252
 20
63.3404252086
 30
0.0
 10
18.4896293516
 20
63.424737137
 30
0.0
 10
18.3186288671
 20
63.4745911045
 30
0.0
 10
18.1848207762
 20
63.5009125192
 30
0.0
 10
18.0568769877
 20
63.5179174174
 30
0.0
 10
17.9011086628
 20
63.5233210431
 30
0.0
 10
17.7209981562
 20
63.5032471837
 30
0.0
 10
17.5519893198
 20
63.4564904107
 30
0.0
 10
17.3959575025
 20
63.3834378511
 30
0.0
 10
17.2546728655
 20
63.2848380744
 30
0.0
 10
17.1296930635
 20
63.1618397468
 30
0.0
 10
17.0222287372
 20
63.0158985677
 30
0.0
 10
16.9332622262
 20
62.8485985769
 30
0.0
 10
16.8634490959
 20
62.6616816559
 30
0.0
 10
16.8133524626
 20
62.4569171553
 30
0.0
 10
16.7833828793
 20
62.2363135878
 30
0.0
 10
16.7770732148
 20
62.0839785273
 30
0.0
 10
16.7770732148
 20
62.0058601644
 30
0.0
  0
SPLINE
  5
34D
100
AcDbEntity
  8
0
100
AcDbSpline
 62
7
  6
BYLAYER
 70
0
 71
3
 72
9
 73
5
 74
0
 42
0.0000001
 43
0.0000001
 44
0.0000000001
 40
0.0
 40
0.0
 40
0.0
 40
0.0
 40
0.4962311385
 40
1.0
 40
1.0
 40
1.0
 40
1.0
 10
21.6054972737
 20
57.7252752701
 30
0.0
 10
21.6642354071
 20
57.7591876781
 30
0.0
 10
21.7775149232
 20
57.8367326364
 30
0.0
 10
21.8778179656
 20
57.9303947521
 30
0.0
 10
21.9246755706
 20
57.9808467111
 30
0.0
  0
SPLINE
  5
34E
100
AcDbEntity
  8
0
100
AcDbSpline
 62
7
  6
BYLAYER
 70
0
 71
3
 72
9
 73
5
 74
0
 42
0.0000001
 43
0.0000001
 44
0.0000000001
 40
0.0
 40
0.0
 40
0.0
 40
0.0
 40
0.2462883737
 40
1.0
 40
1.0
 40
1.0
 40
1.0
 10
21.9246755706
 20
57.9808467111
 30
0.0
 10
21.9389535031
 20
57.9962198755
 30
0.0
 10
21.9955748145
 20
58.0598855035
 30
0.0
 10
22.0467314451
 20
58.1283717713
 30
0.0
 10
22.0820909313
 20
58.1819652406
 30
0.0
  0
SPLINE
  5
34F
100
AcDbEntity
  8
0
100
AcDbSpline
 62
7
  6
BYLAYER
 70
0
 71
3
 72
9
 73
5
 74
0
 42
0.0000001
 43
0.0000001
 44
0.0000000001
 40
0.0
 40
0.0
 40
0.0
 40
0.0
 40
0.481627454
 40
1.0
 40
1.0
 40
1.0
 40
1.0
 10
22.0820909313
 20
58.1819652406
 30
0.0
 10
22.1446468796
 20
58.2767796922
 30
0.0
 10
22.2543164624
 20
58.4873915022
 30
0.0
 10
22.3257160542
 20
58.713314267
 30
0.0
 10
22.3541581777
 20
58.8322176481
 30
0.0
  0
SPLINE
  5
350
100
AcDbEntity
  8
0
100
AcDbSpline
 62
7
  6
BYLAYER
 70
0
 71
3
 72
9
 73
5
 74
0
 42
0.0000001
 43
0.0000001
 44
0.0000000001
 40
0.0
 40
0.0
 40
0.0
 40
0.0
 40
0.2442068298
 40
1.0
 40
1.0
 40
1.0
 40
1.0
 10
22.3819057496
 20
58.9628385353
 30
0.0
 10
22.3869592628
 20
58.9899178384
 30
0.0
 10
22.405992674
 20
59.1011111199
 30
0.0
 10
22.418519185
 20
59.2133925863
 30
0.0
 10
22.4247270191
 20
59.2984206025
 30
0.0
  0
SPLINE
  5
351
100
AcDbEntity
  8
0
100
AcDbSpline
 62
7
  6
BYLAYER
 70
0
 71
3
 72
23
 73
19
 74
0
 42
0.0000001
 43
0.0000001
 44
0.0000000001
 40
0.0
 40
0.0
 40
0.0
 40
0.0
 40
0.073372915
 40
0.1478711924
 40
0.2228197754
 40
0.2975267195
 40
0.3713083183
 40
0.4435080227
 40
0.513514567
 40
0.5807849702
 40
0.6448695777
 40
0.7054372174
 40
0.7623070837
 40
0.8154880431
 40
0.8652157883
 40
0.9119870982
 40
0.9565758013
 40
1.0
 40
1.0
 40
1.0
 40
1.0
 10
27.6377751252
 20
45.4511354556
 30
0.0
 10
27.4491575715
 20
45.4160257722
 30
0.0
 10
27.0663155762
 20
45.3591609336
 30
0.0
 10
26.4850277344
 20
45.3136723684
 30
0.0
 10
25.8984796813
 20
45.3077028664
 30
0.0
 10
25.3147493504
 20
45.3413632698
 30
0.0
 10
24.7418261336
 20
45.4141709836
 30
0.0
 10
24.1875515408
 20
45.5251258028
 30
0.0
 10
23.6595010637
 20
45.6727357158
 30
0.0
 10
23.1648711953
 20
45.8550008867
 30
0.0
 10
22.7103733133
 20
46.0694659238
 30
0.0
 10
22.3021643043
 20
46.313309314
 30
0.0
 10
21.9457892408
 20
46.5833974968
 30
0.0
 10
21.6461241209
 20
46.8763173147
 30
0.0
 10
21.4074428259
 20
47.188440384
 30
0.0
 10
21.2335181634
 20
47.5159535908
 30
0.0
 10
21.1275771835
 20
47.8542789508
 30
0.0
 10
21.103706955
 20
48.0850682544
 30
0.0
 10
21.1037141996
 20
48.1986149892
 30
0.0
  0
SPLINE
  5
352
100
AcDbEntity
  8
0
100
AcDbSpline
 62
7
  6
BYLAYER
 70
0
 71
3
 72
11
 73
7
 74
0
 42
0.0000001
 43
0.0000001
 44
0.0000000001
 40
0.0
 40
0.0
 40
0.0
 40
0.0
 40
0.2252318636
 40
0.4670209885
 40
0.7255409705
 40
1.0
 40
1.0
 40
1.0
 40
1.0
 10
21.5920832334
 20
49.2896937825
 30
0.0
 10
21.6842329081
 20
49.1783291356
 30
0.0
 10
21.894168037
 20
48.9626388617
 30
0.0
 10
22.2618206926
 20
48.6750623557
 30
0.0
 10
22.6874606057
 20
48.4161326473
 30
0.0
 10
22.9970312221
 20
48.2691855668
 30
0.0
 10
23.1593913228
 20
48.2008917587
 30
0.0
  0
SPLINE
  5
353
100
AcDbEntity
  8
0
100
AcDbSpline
 62
7
  6
BYLAYER
 70
0
 71
3
 72
11
 73
7
 74
0
 42
0.0000001
 43
0.0000001
 44
0.0000000001
 40
0.0
 40
0.0
 40
0.0
 40
0.0
 40
0.2371103024
 40
0.4843024072
 40
0.7394120184
 40
1.0
 40
1.0
 40
1.0
 40
1.0
 10
23.1593913228
 20
48.2008917587
 30
0.0
 10
23.3311336652
 20
48.1286514822
 30
0.0
 10
23.6891096982
 20
47.9977617351
 30
0.0
 10
24.2503072414
 20
47.8449756654
 30
0.0
 10
24.839877241
 20
47.7333884733
 30
0.0
 10
25.242975278
 20
47.6879233007
 30
0.0
 10
25.4471447308
 20
47.672310596
 30
0.0
  0
SPLINE
  5
354
100
AcDbEntity
  8
0
100
AcDbSpline
 62
7
  6
BYLAYER
 70
0
 71
3
 72
16
 73
12
 74
0
 42
0.0000001
 43
0.0000001
 44
0.0000000001
 40
0.0
 40
0.0
 40
0.0
 40
0.0
 40
0.0558420556
 40
0.1142321826
 40
0.2373901217
 40
0.3670294086
 40
0.5000399691
 40
0.633054272
 40
0.7626938694
 40
0.8858552666
 40
1.0
 40
1.0
 40
1.0
 40
1.0
 10
34.705761893
 20
34.4919065881
 30
0.0
 10
34.705761893
 20
34.4239545965
 30
0.0
 10
34.7118144126
 20
34.2848961004
 30
0.0
 10
34.7465560758
 20
33.9979009329
 30
0.0
 10
34.8326446854
 20
33.6278565497
 30
0.0
 10
34.9950813047
 20
33.1862656196
 30
0.0
 10
35.2125391114
 20
32.7555336571
 30
0.0
 10
35.4768133365
 20
32.351867152
 30
0.0
 10
35.7780874354
 20
31.990317416
 30
0.0
 10
36.1050034345
 20
31.6844591259
 30
0.0
 10
36.342595984
 20
31.5179055626
 30
0.0
 10
36.4628845607
 20
31.448455055
 30
0.0
  0
SPLINE
  5
355
100
AcDbEntity
  8
0
100
AcDbSpline
 62
7
  6
BYLAYER
 70
0
 71
3
 72
15
 73
11
 74
0
 42
0.0000001
 43
0.0000001
 44
0.0000000001
 40
0.0
 40
0.0
 40
0.0
 40
0.0
 40
0.1486037745
 40
0.2894995004
 40
0.4227218323
 40
0.5486418163
 40
0.6680006703
 40
0.7819376318
 40
0.8919874939
 40
1.0
 40
1.0
 40
1.0
 40
1.0
 10
36.8164274285
 20
31.2443218809
 30
0.0
 10
36.8837603271
 20
31.2054460972
 30
0.0
 10
37.0181593474
 20
31.1350894024
 30
0.0
 10
37.2231673581
 20
31.0511749862
 30
0.0
 10
37.4245188596
 20
30.9924784782
 30
0.0
 10
37.6203229452
 20
30.9596246914
 30
0.0
 10
37.8087511861
 20
30.9530638096
 30
0.0
 10
37.9879842392
 20
30.9730632837
 30
0.0
 10
38.15612308
 20
31.0195393606
 30
0.0
 10
38.2600297332
 20
31.0682111746
 30
0.0
 10
38.3089709727
 20
31.0964673259
 30
0.0
  0
SPLINE
  5
356
100
AcDbEntity
  8
0
100
AcDbSpline
 62
7
  6
BYLAYER
 70
0
 71
3
 72
15
 73
11
 74
0
 42
0.0000001
 43
0.0000001
 44
0.0000000001
 40
0.0
 40
0.0
 40
0.0
 40
0.0
 40
0.1080124352
 40
0.2180618367
 40
0.3320011043
 40
0.451362035
 40
0.5772693389
 40
0.7104922434
 40
0.8514459498
 40
1.0
 40
1.0
 40
1.0
 40
1.0
 10
35.3239919846
 20
36.2666334543
 30
0.0
 10
35.275051414
 20
36.2383776892
 30
0.0
 10
35.1809482863
 20
36.1727293642
 30
0.0
 10
35.0566276513
 20
36.0503585122
 30
0.0
 10
34.9496922892
 20
35.9051369036
 30
0.0
 10
34.8611654182
 20
35.7386782428
 30
0.0
 10
34.7917046196
 20
35.55269287
 30
0.0
 10
34.7418539078
 20
35.3489479432
 30
0.0
 10
34.7120411798
 20
35.1294444992
 30
0.0
 10
34.7057589491
 20
34.9778719077
 30
0.0
 10
34.7057589491
 20
34.9001490423
 30
0.0
  0
SPLINE
  5
357
100
AcDbEntity
  8
0
100
AcDbSpline
 62
7
  6
BYLAYER
 70
0
 71
3
 72
24
 73
20
 74
0
 42
0.0000001
 43
0.0000001
 44
0.0000000001
 40
0.0
 40
0.0
 40
0.0
 40
0.0
 40
0.0616287284
 40
0.1270712088
 40
0.1956622657
 40
0.2666272216
 40
0.3390608166
 40
0.4120043945
 40
0.4844760055
 40
0.5555135789
 40
0.6242156752
 40
0.6897845998
 40
0.7515749794
 40
0.8091508571
 40
0.8623544999
 40
0.9113846207
 40
0.9568736671
 40
0.9786538049
 40
1.0
 40
1.0
 40
1.0
 40
1.0
 10
38.9272040082
 20
32.4629517378
 30
0.0
 10
38.9272040082
 20
32.5824753201
 30
0.0
 10
38.9115712318
 20
32.8290750573
 30
0.0
 10
38.8470955806
 20
33.2036351219
 30
0.0
 10
38.7420886726
 20
33.5876938388
 30
0.0
 10
38.5987151084
 20
33.9735601089
 30
0.0
 10
38.4197837031
 20
34.3536034635
 30
0.0
 10
38.2088773826
 20
34.7202389082
 30
0.0
 10
37.9701964741
 20
35.0661571943
 30
0.0
 10
37.7085010157
 20
35.3844661547
 30
0.0
 10
37.4289890965
 20
35.6688364503
 30
0.0
 10
37.1371789694
 20
35.9136275698
 30
0.0
 10
36.8387664426
 20
36.1139873182
 30
0.0
 10
36.5394943567
 20
36.2659201607
 30
0.0
 10
36.2449551061
 20
36.3662659826
 30
0.0
 10
35.9607266163
 20
36.4126686307
 30
0.0
 10
35.733422218
 20
36.4046478557
 30
0.0
 10
35.5649117661
 20
36.3692470693
 30
0.0
 10
35.4854203327
 20
36.3424569844
 30
0.0
 10
35.4470777643
 20
36.3268450435
 30
0.0
  0
SPLINE
  5
358
100
AcDbEntity
  8
0
100
AcDbSpline
 62
7
  6
BYLAYER
 70
0
 71
3
 72
14
 73
10
 74
0
 42
0.0000001
 43
0.0000001
 44
0.0000000001
 40
0.0
 40
0.0
 40
0.0
 40
0.0
 40
0.107765891
 40
0.2185945642
 40
0.3337600563
 40
0.4542541746
 40
0.7135928161
 40
0.8534927826
 40
1.0
 40
1.0
 40
1.0
 40
1.0
 10
38.4333887434
 20
31.1814093177
 30
0.0
 10
38.4732077686
 20
31.2132157083
 30
0.0
 10
38.5492028863
 20
31.2839402672
 30
0.0
 10
38.6485366222
 20
31.4072099016
 30
0.0
 10
38.7336485466
 20
31.5477710958
 30
0.0
 10
38.8297476461
 20
31.7617397907
 30
0.0
 10
38.8914831985
 20
32.0017330286
 30
0.0
 10
38.9221857892
 20
32.2581242654
 30
0.0
 10
38.9272040082
 20
32.3936681295
 30
0.0
 10
38.9272040082
 20
32.4629517378
 30
0.0
  0
SPLINE
  5
359
100
AcDbEntity
  8
0
100
AcDbSpline
 62
7
  6
BYLAYER
 70
0
 71
3
 72
9
 73
5
 74
0
 42
0.0000001
 43
0.0000001
 44
0.0000000001
 40
0.0
 40
0.0
 40
0.0
 40
0.0
 40
0.2611804515
 40
1.0
 40
1.0
 40
1.0
 40
1.0
 10
36.4628845607
 20
31.448455055
 30
0.0
 10
36.4940247329
 20
31.4304757853
 30
0.0
 10
36.6147942966
 20
31.3643946444
 30
0.0
 10
36.7420649115
 20
31.3097798467
 30
0.0
 10
36.838814265
 20
31.2783825585
 30
0.0
  0
SPLINE
  5
35A
100
AcDbEntity
  8
0
100
AcDbSpline
 62
7
  6
BYLAYER
 70
0
 71
3
 72
20
 73
16
 74
0
 42
0.0000001
 43
0.0000001
 44
0.0000000001
 40
0.0
 40
0.0
 40
0.0
 40
0.0
 40
0.1322052352
 40
0.1938513698
 40
0.2529727746
 40
0.3101170167
 40
0.365942359
 40
0.4211969701
 40
0.4766655388
 40
0.5331206881
 40
0.5912696994
 40
0.7146962356
 40
0.7809999012
 40
0.8506430422
 40
1.0
 40
1.0
 40
1.0
 40
1.0
 10
36.838814265
 20
31.2783825585
 30
0.0
 10
36.9310088272
 20
31.2484634
 30
0.0
 10
37.0708250661
 20
31.21629523
 30
0.0
 10
37.2563771062
 20
31.2062342922
 30
0.0
 10
37.3868729915
 20
31.2152726154
 30
0.0
 10
37.5108637932
 20
31.2406711623
 30
0.0
 10
37.6273889132
 20
31.282379963
 30
0.0
 10
37.7355255006
 20
31.3400419366
 30
0.0
 10
37.8343689802
 20
31.4132540274
 30
0.0
 10
37.9231785915
 20
31.5013806649
 30
0.0
 10
38.0293546266
 20
31.6404561328
 30
0.0
 10
38.1103639516
 20
31.8053697856
 30
0.0
 10
38.166607584
 20
31.9872159569
 30
0.0
 10
38.2089194956
 20
32.1923554267
 30
0.0
 10
38.220097227
 20
32.3534472835
 30
0.0
 10
38.220097227
 20
32.4629500382
 30
0.0
  0
SPLINE
  5
35B
100
AcDbEntity
  8
0
100
AcDbSpline
 62
7
  6
BYLAYER
 70
0
 71
3
 72
32
 73
28
 74
0
 42
0.0000001
 43
0.0000001
 44
0.0000000001
 40
0.0
 40
0.0
 40
0.0
 40
0.0
 40
0.0325449076
 40
0.0665748604
 40
0.1383517409
 40
0.2139059749
 40
0.2914249298
 40
0.3689459274
 40
0.4444999378
 40
0.516278197
 40
0.582801279
 40
0.6138003885
 40
0.6431900192
 40
0.6709802747
 40
0.6972465327
 40
0.7221445424
 40
0.7459117473
 40
0.7688679436
 40
0.7913995244
 40
0.8139305475
 40
0.836886366
 40
0.8606545278
 40
0.8855524772
 40
0.9118164671
 40
0.9396086241
 40
0.9690141541
 40
1.0
 40
1.0
 40
1.0
 40
1.0
 10
38.220097227
 20
32.4629500382
 30
0.0
 10
38.220097227
 20
32.5309032372
 30
0.0
 10
38.2140444925
 20
32.6699642518
 30
0.0
 10
38.1793016092
 20
32.9569646838
 30
0.0
 10
38.0932100989
 20
33.3270157605
 30
0.0
 10
37.9307679152
 20
33.7686141958
 30
0.0
 10
37.7133040998
 20
34.1993520444
 30
0.0
 10
37.4490189753
 20
34.6030238817
 30
0.0
 10
37.1477478281
 20
34.9645710186
 30
0.0
 10
36.820785769
 20
35.2704418209
 30
0.0
 10
36.5300408557
 20
35.474282818
 30
0.0
 10
36.2950089408
 20
35.5973708067
 30
0.0
 10
36.1243199419
 20
35.6672039375
 30
0.0
 10
35.956712215
 20
35.7160821495
 30
0.0
 10
35.7937078686
 20
35.7434132056
 30
0.0
 10
35.6368470228
 20
35.7488785289
 30
0.0
 10
35.4876482728
 20
35.7322315052
 30
0.0
 10
35.3476522175
 20
35.6935142802
 30
0.0
 10
35.2184067778
 20
35.6329981979
 30
0.0
 10
35.1013795783
 20
35.5513241499
 30
0.0
 10
34.9978433542
 20
35.4494490687
 30
0.0
 10
34.908847795
 20
35.3285468673
 30
0.0
 10
34.8351313234
 20
35.1899824027
 30
0.0
 10
34.7773146493
 20
35.0351468184
 30
0.0
 10
34.7358079058
 20
34.8655249456
 30
0.0
 10
34.710996822
 20
34.6827862041
 30
0.0
 10
34.705761893
 20
34.5566044935
 30
0.0
 10
34.705761893
 20
34.4919065881
 30
0.0
  0
SPLINE
  5
35C
100
AcDbEntity
  8
0
100
AcDbSpline
 62
7
  6
BYLAYER
 70
0
 71
3
 72
23
 73
19
 74
0
 42
0.0000001
 43
0.0000001
 44
0.0000000001
 40
0.0
 40
0.0
 40
0.0
 40
0.0
 40
0.0624864801
 40
0.1250299816
 40
0.1876882555
 40
0.2503992936
 40
0.3131318965
 40
0.3758571622
 40
0.4385381092
 40
0.5011445605
 40
0.5636557621
 40
0.6260565765
 40
0.6883543349
 40
0.7505741716
 40
0.8127663146
 40
0.8750049218
 40
0.9373709804
 40
1.0
 40
1.0
 40
1.0
 40
1.0
 10
17.3521279013
 20
39.5216105221
 30
0.0
 10
17.2490439195
 20
39.7206968704
 30
0.0
 10
17.0621084456
 20
40.1294291444
 30
0.0
 10
16.8443669517
 20
40.7678041987
 30
0.0
 10
16.6923244985
 20
41.4258645391
 30
0.0
 10
16.608848983
 20
42.0967776422
 30
0.0
 10
16.5953479772
 20
42.7729781661
 30
0.0
 10
16.6520170142
 20
43.4468243008
 30
0.0
 10
16.7779608629
 20
44.1107392228
 30
0.0
 10
16.9708836861
 20
44.7575313601
 30
0.0
 10
17.2275014203
 20
45.3806651471
 30
0.0
 10
17.5437624398
 20
45.9744311043
 30
0.0
 10
17.9147736125
 20
46.5342839522
 30
0.0
 10
18.3355646975
 20
47.0567027646
 30
0.0
 10
18.8009869091
 20
47.5393798747
 30
0.0
 10
19.3061605294
 20
47.9809786144
 30
0.0
 10
19.8466321085
 20
48.3810536528
 30
0.0
 10
20.2270069546
 20
48.6195428516
 30
0.0
 10
20.4216037187
 20
48.7318965284
 30
0.0
  0
SPLINE
  5
35D
100
AcDbEntity
  8
0
100
AcDbSpline
 62
7
  6
BYLAYER
 70
0
 71
3
 72
11
 73
7
 74
0
 42
0.0000001
 43
0.0000001
 44
0.0000000001
 40
0.0
 40
0.0
 40
0.0
 40
0.0
 40
0.2650199574
 40
0.5175621604
 40
0.7611321772
 40
1.0
 40
1.0
 40
1.0
 40
1.0
 10
21.0416079132
 20
49.4402381151
 30
0.0
 10
20.9715618189
 20
49.3450384111
 30
0.0
 10
20.846564962
 20
49.1499424918
 30
0.0
 10
20.7071880391
 20
48.8389645467
 30
0.0
 10
20.6226478583
 20
48.5207505151
 30
0.0
 10
20.6037222449
 20
48.3051441309
 30
0.0
 10
20.6037152586
 20
48.1986149587
 30
0.0
  0
SPLINE
  5
35E
100
AcDbEntity
  8
0
100
AcDbSpline
 62
7
  6
BYLAYER
 70
0
 71
3
 72
25
 73
21
 74
0
 42
0.0000001
 43
0.0000001
 44
0.0000000001
 40
0.0
 40
0.0
 40
0.0
 40
0.0
 40
0.0717038526
 40
0.1450398373
 40
0.2192957145
 40
0.2937275635
 40
0.3675855429
 40
0.4401384322
 40
0.5106957633
 40
0.5786336872
 40
0.6434209884
 40
0.7046494198
 40
0.7620715634
 40
0.8156418001
 40
0.8655616197
 40
0.912323591
 40
0.9347875801
 40
0.9567900686
 40
0.9784758223
 40
1.0
 40
1.0
 40
1.0
 40
1.0
 10
28.2346537977
 20
44.8017408789
 30
0.0
 10
28.023678537
 20
44.7505542781
 30
0.0
 10
27.592639691
 20
44.6639987965
 30
0.0
 10
26.9332104321
 20
44.5819766281
 30
0.0
 10
26.2613255906
 20
44.5470534454
 30
0.0
 10
25.5870885408
 20
44.559753901
 30
0.0
 10
24.9205791338
 20
44.6198924076
 30
0.0
 10
24.271776283
 20
44.7265838858
 30
0.0
 10
23.6503673841
 20
44.8782296501
 30
0.0
 10
23.065606108
 20
45.0725760258
 30
0.0
 10
22.5261739199
 20
45.3067746136
 30
0.0
 10
22.0400597407
 20
45.5774620425
 30
0.0
 10
21.6144433945
 20
45.8807887716
 30
0.0
 10
21.2556538781
 20
46.2126241925
 30
0.0
 10
20.9692658884
 20
46.5683994985
 30
0.0
 10
20.792628875
 20
46.8854289318
 30
0.0
 10
20.6943434243
 20
47.1439811597
 30
0.0
 10
20.6421481746
 20
47.3377212127
 30
0.0
 10
20.6107086762
 20
47.5329912495
 30
0.0
 10
20.6037108707
 20
47.66392414
 30
0.0
 10
20.6037150932
 20
47.7290923351
 30
0.0
  0
SPLINE
  5
35F
100
AcDbEntity
  8
0
100
AcDbSpline
 62
7
  6
BYLAYER
 70
0
 71
3
 72
9
 73
5
 74
0
 42
0.0000001
 43
0.0000001
 44
0.0000000001
 40
0.0
 40
0.0
 40
0.0
 40
0.0
 40
0.4392467189
 40
1.0
 40
1.0
 40
1.0
 40
1.0
 10
17.3521275988
 20
39.5216111062
 30
0.0
 10
17.3746662874
 20
39.4780820712
 30
0.0
 10
17.4212892387
 20
39.3765332674
 30
0.0
 10
17.4593574057
 20
39.2714725183
 30
0.0
 10
17.4783985073
 20
39.2118621134
 30
0.0
  0
SPLINE
  5
360
100
AcDbEntity
  8
0
100
AcDbSpline
 62
7
  6
BYLAYER
 70
0
 71
3
 72
23
 73
19
 74
0
 42
0.0000001
 43
0.0000001
 44
0.0000000001
 40
0.0
 40
0.0
 40
0.0
 40
0.0
 40
0.0453628456
 40
0.0935125652
 40
0.144754766
 40
0.1992112659
 40
0.2568485409
 40
0.3174996264
 40
0.3808906797
 40
0.4466633494
 40
0.51438946
 40
0.583590171
 40
0.6537503433
 40
0.7243307975
 40
0.7947823417
 40
0.86455817
 40
0.9331316119
 40
1.0
 40
1.0
 40
1.0
 40
1.0
 10
21.0725078629
 20
46.4268079353
 30
0.0
 10
21.12983006
 20
46.3192831348
 30
0.0
 10
21.2663613017
 20
46.1070765338
 30
0.0
 10
21.5218183612
 20
45.8125082181
 30
0.0
 10
21.8302935832
 20
45.5360436032
 30
0.0
 10
22.1880627356
 20
45.2807266124
 30
0.0
 10
22.5910337843
 20
45.0493233763
 30
0.0
 10
23.0345662162
 20
44.8443931524
 30
0.0
 10
23.5135641386
 20
44.6682162863
 30
0.0
 10
24.0225279652
 20
44.5228284562
 30
0.0
 10
24.5555820087
 20
44.4098794874
 30
0.0
 10
25.1065645219
 20
44.3306547602
 30
0.0
 10
25.6691038585
 20
44.2861015066
 30
0.0
 10
26.2366804571
 20
44.276719099
 30
0.0
 10
26.8027109119
 20
44.3026002239
 30
0.0
 10
27.3606495076
 20
44.3634788436
 30
0.0
 10
27.9039953014
 20
44.4586304752
 30
0.0
 10
28.257650235
 20
44.5454755921
 30
0.0
 10
28.430412774
 20
44.5946198763
 30
0.0
  0
SPLINE
  5
361
100
AcDbEntity
  8
0
100
AcDbSpline
 62
7
  6
BYLAYER
 70
0
 71
3
 72
16
 73
12
 74
0
 42
0.0000001
 43
0.0000001
 44
0.0000000001
 40
0.0
 40
0.0
 40
0.0
 40
0.0
 40
0.1282242928
 40
0.2607412426
 40
0.394896275
 40
0.5279251087
 40
0.6571368831
 40
0.780090993
 40
0.8386080945
 40
0.8948633472
 40
1.0
 40
1.0
 40
1.0
 40
1.0
 10
28.353125917
 20
44.6782722564
 30
0.0
 10
28.0781066001
 20
44.6002410125
 30
0.0
 10
27.5090354811
 20
44.4747192253
 30
0.0
 10
26.6325656479
 20
44.3771330892
 30
0.0
 10
25.7399374339
 20
44.3687954634
 30
0.0
 10
24.8583454521
 20
44.4500074558
 30
0.0
 10
24.0145487981
 20
44.6182845046
 30
0.0
 10
23.3531982645
 20
44.8303319527
 30
0.0
 10
22.8663066273
 20
45.040785987
 30
0.0
 10
22.4306820154
 20
45.2661608672
 30
0.0
 10
22.1293738417
 20
45.4667579883
 30
0.0
 10
21.9474004612
 20
45.6145065799
 30
0.0
  0
SPLINE
  5
362
100
AcDbEntity
  8
0
100
AcDbSpline
 62
7
  6
BYLAYER
 70
0
 71
3
 72
29
 73
25
 74
0
 42
0.0000001
 43
0.0000001
 44
0.0000000001
 40
0.0
 40
0.0
 40
0.0
 40
0.0
 40
0.0534445738
 40
0.0785430105
 40
0.1027288742
 40
0.1262000814
 40
0.1491898494
 40
0.1719581828
 40
0.1947779002
 40
0.2179185732
 40
0.2416320594
 40
0.2661381954
 40
0.2916197768
 40
0.3182155497
 40
0.3460245657
 40
0.4054305766
 40
0.4699524114
 40
0.5391945486
 40
0.6124252403
 40
0.6886705525
 40
0.7667928316
 40
0.8455595197
 40
0.9237060686
 40
1.0
 40
1.0
 40
1.0
 40
1.0
 10
20.6917125583
 20
48.7212672174
 30
0.0
 10
20.5348691094
 20
48.5665781413
 30
0.0
 10
20.3226462936
 20
48.3184323982
 30
0.0
 10
20.1026846402
 20
47.9557855111
 30
0.0
 10
19.9773656573
 20
47.6825202987
 30
0.0
 10
19.8892171977
 20
47.4041712857
 30
0.0
 10
19.8389633924
 20
47.122426697
 30
0.0
 10
19.8269327779
 20
46.8391518336
 30
0.0
 10
19.8533199187
 20
46.5562331496
 30
0.0
 10
19.9178095102
 20
46.2755410769
 30
0.0
 10
20.0199802798
 20
45.9989097919
 30
0.0
 10
20.1589779134
 20
45.7280178073
 30
0.0
 10
20.3339137579
 20
45.4645309193
 30
0.0
 10
20.5435656597
 20
45.2099160691
 30
0.0
 10
20.874952521
 20
44.8770515102
 30
0.0
 10
21.3727552556
 20
44.4936106802
 30
0.0
 10
22.0684744904
 20
44.101911206
 30
0.0
 10
22.8594381148
 20
43.7769293628
 30
0.0
 10
23.7270291048
 20
43.5261396954
 30
0.0
 10
24.6509179158
 20
43.3552998746
 30
0.0
 10
25.6092512496
 20
43.2684321162
 30
0.0
 10
26.5793463918
 20
43.2675983399
 30
0.0
 10
27.5380568927
 20
43.3527853837
 30
0.0
 10
28.1653760848
 20
43.4675970207
 30
0.0
 10
28.4714821188
 20
43.5396607481
 30
0.0
  0
SPLINE
  5
363
100
AcDbEntity
  8
0
100
AcDbSpline
 62
7
  6
BYLAYER
 70
0
 71
3
 72
28
 73
24
 74
0
 42
0.0000001
 43
0.0000001
 44
0.0000000001
 40
0.0
 40
0.0
 40
0.0
 40
0.0
 40
0.0236949632
 40
0.046712458
 40
0.0692520181
 40
0.0915369929
 40
0.1138031717
 40
0.1362878992
 40
0.1592164104
 40
0.1827933105
 40
0.2071919669
 40
0.2325540216
 40
0.2865058684
 40
0.3451655389
 40
0.40852884
 40
0.4762312382
 40
0.5476348219
 40
0.6219012057
 40
0.6980527942
 40
0.7750266957
 40
0.8517236328
 40
0.9270577969
 40
1.0
 40
1.0
 40
1.0
 40
1.0
 10
20.5885748607
 20
48.1897962813
 30
0.0
 10
20.5477072112
 20
48.1132851438
 30
0.0
 10
20.4751216204
 20
47.9579878809
 30
0.0
 10
20.3948044033
 20
47.7169273494
 30
0.0
 10
20.3453966555
 20
47.4728791293
 30
0.0
 10
20.3272541999
 20
47.2272859502
 30
0.0
 10
20.3404703321
 20
46.9815737017
 30
0.0
 10
20.3850210702
 20
46.7372002493
 30
0.0
 10
20.4604989037
 20
46.4955510555
 30
0.0
 10
20.5665019139
 20
46.2580141336
 30
0.0
 10
20.7022689425
 20
46.025813736
 30
0.0
 10
20.9265613519
 20
45.7187915918
 30
0.0
 10
21.2815841766
 20
45.3555750058
 30
0.0
 10
21.8002788399
 20
44.9699791063
 30
0.0
 10
22.4094449797
 20
44.6326142197
 30
0.0
 10
23.0963025128
 20
44.350234749
 30
0.0
 10
23.8465724978
 20
44.1284925456
 30
0.0
 10
24.644512076
 20
43.9719870199
 30
0.0
 10
25.4733122111
 20
43.8839903348
 30
0.0
 10
26.3154454089
 20
43.8663608578
 30
0.0
 10
27.1531231394
 20
43.9194704127
 30
0.0
 10
27.9685089331
 20
44.0421850154
 30
0.0
 10
28.4967119097
 20
44.1713409866
 30
0.0
 10
28.7525972921
 20
44.2476601064
 30
0.0
  0
SPLINE
  5
364
100
AcDbEntity
  8
0
100
AcDbSpline
 62
7
  6
BYLAYER
 70
0
 71
3
 72
9
 73
5
 74
0
 42
0.0000001
 43
0.0000001
 44
0.0000000001
 40
0.0
 40
0.0
 40
0.0
 40
0.0
 40
0.255007178
 40
1.0
 40
1.0
 40
1.0
 40
1.0
 10
16.7666599775
 20
41.101252163
 30
0.0
 10
16.7315154268
 20
41.0588252168
 30
0.0
 10
16.5961844295
 20
40.8904136686
 30
0.0
 10
16.4710638844
 20
40.7137318451
 30
0.0
 10
16.3848546628
 20
40.5778163282
 30
0.0
  0
SPLINE
  5
365
100
AcDbEntity
  8
0
100
AcDbSpline
 62
7
  6
BYLAYER
 70
0
 71
3
 72
34
 73
30
 74
0
 42
0.0000001
 43
0.0000001
 44
0.0000000001
 40
0.0
 40
0.0
 40
0.0
 40
0.0
 40
0.0774105286
 40
0.1564149036
 40
0.2355249157
 40
0.3132446914
 40
0.3881569188
 40
0.4241793988
 40
0.4590555393
 40
0.4926736774
 40
0.5249495962
 40
0.5558308662
 40
0.5852979279
 40
0.6133686642
 40
0.6401097406
 40
0.665638524
 40
0.6901278482
 40
0.7138038691
 40
0.7369393876
 40
0.7598436155
 40
0.782841979
 40
0.8062542963
 40
0.8303719516
 40
0.8554408467
 40
0.8816546291
 40
0.9091517407
 40
0.9380240093
 40
0.9683168065
 40
1.0
 40
1.0
 40
1.0
 40
1.0
 10
28.8572347749
 20
41.09314733
 30
0.0
 10
28.4247752039
 20
41.002073698
 30
0.0
 10
27.5405281176
 20
40.8647878751
 30
0.0
 10
26.19593169
 20
40.7906927202
 30
0.0
 10
24.8485226421
 20
40.8470642477
 30
0.0
 10
23.5363594623
 20
41.0323453008
 30
0.0
 10
22.488947803
 20
41.2932797576
 30
0.0
 10
21.7012643138
 20
41.5639014687
 30
0.0
 10
21.1494287597
 20
41.7919580503
 30
0.0
 10
20.6327909747
 20
42.0460586037
 30
0.0
 10
20.1549839392
 20
42.3244622647
 30
0.0
 10
19.7193863054
 20
42.6252705336
 30
0.0
 10
19.3290402898
 20
42.9463743457
 30
0.0
 10
18.9867974004
 20
43.2856554854
 30
0.0
 10
18.6951045654
 20
43.6407637321
 30
0.0
 10
18.4561802526
 20
44.0093389187
 30
0.0
 10
18.2719299003
 20
44.388857178
 30
0.0
 10
18.1438875276
 20
44.776611004
 30
0.0
 10
18.0733379257
 20
45.1697255378
 30
0.0
 10
18.060899123
 20
45.5651003738
 30
0.0
 10
18.106785544
 20
45.9595748177
 30
0.0
 10
18.2104874736
 20
46.3500206572
 30
0.0
 10
18.3710247861
 20
46.7334565312
 30
0.0
 10
18.5869709622
 20
47.1070815948
 30
0.0
 10
18.8565283791
 20
47.4682834648
 30
0.0
 10
19.1776221441
 20
47.8146189683
 30
0.0
 10
19.547927639
 20
48.1438011148
 30
0.0
 10
19.9647254099
 20
48.453465027
 30
0.0
 10
20.2649559134
 20
48.6414527139
 30
0.0
 10
20.4216037192
 20
48.7318965283
 30
0.0
  0
SPLINE
  5
366
100
AcDbEntity
  8
0
100
AcDbSpline
 62
7
  6
BYLAYER
 70
0
 71
3
 72
25
 73
21
 74
0
 42
0.0000001
 43
0.0000001
 44
0.0000000001
 40
0.0
 40
0.0
 40
0.0
 40
0.0
 40
0.0216349112
 40
0.0434210078
 40
0.0655038169
 40
0.0880196773
 40
0.1347795553
 40
0.1845327171
 40
0.23777534
 40
0.2947371846
 40
0.3554174406
 40
0.4196231714
 40
0.487009284
 40
0.5571113882
 40
0.6293719451
 40
0.7031651011
 40
0.7778208471
 40
0.8526436102
 40
0.9269306679
 40
1.0
 40
1.0
 40
1.0
 40
1.0
 10
20.6037152586
 20
48.1986149587
 30
0.0
 10
20.603711137
 20
48.1357672493
 30
0.0
 10
20.6102148745
 20
48.0095362192
 30
0.0
 10
20.6394480388
 20
47.8212000693
 30
0.0
 10
20.6879914137
 20
47.6342316804
 30
0.0
 10
20.7793510056
 20
47.3846863167
 30
0.0
 10
20.9435742379
 20
47.078150305
 30
0.0
 10
21.2104826112
 20
46.7325163189
 30
0.0
 10
21.5454677999
 20
46.4084498265
 30
0.0
 10
21.9436573898
 20
46.1101302964
 30
0.0
 10
22.399521853
 20
45.841358351
 30
0.0
 10
22.9067660801
 20
45.6056585429
 30
0.0
 10
23.4584020469
 20
45.4061819623
 30
0.0
 10
24.0468162176
 20
45.2456582483
 30
0.0
 10
24.6638551472
 20
45.1263047242
 30
0.0
 10
25.3009431647
 20
45.0497534777
 30
0.0
 10
25.9492134762
 20
45.0170697346
 30
0.0
 10
26.599644208
 20
45.0287302021
 30
0.0
 10
27.243127308
 20
45.0845518631
 30
0.0
 10
27.6663698261
 20
45.1514476908
 30
0.0
 10
27.8746519615
 20
45.1923516365
 30
0.0
  0
SPLINE
  5
367
100
AcDbEntity
  8
0
100
AcDbSpline
 62
7
  6
BYLAYER
 70
0
 71
3
 72
9
 73
5
 74
0
 42
0.0000001
 43
0.0000001
 44
0.0000000001
 40
0.0
 40
0.0
 40
0.0
 40
0.0
 40
0.2457439781
 40
1.0
 40
1.0
 40
1.0
 40
1.0
 10
17.3521428554
 20
39.5215822692
 30
0.0
 10
17.3722989779
 20
39.4826551351
 30
0.0
 10
17.4570375054
 20
39.3256661898
 30
0.0
 10
17.5523986254
 20
39.1744581612
 30
0.0
 10
17.6293119026
 20
39.064065197
 30
0.0
  0
SPLINE
  5
368
100
AcDbEntity
  8
0
100
AcDbSpline
 62
7
  6
BYLAYER
 70
0
 71
3
 72
15
 73
11
 74
0
 42
0.0000001
 43
0.0000001
 44
0.0000000001
 40
0.0
 40
0.0
 40
0.0
 40
0.0
 40
0.1460431679
 40
0.2856044817
 40
0.4185766366
 40
0.5451822851
 40
0.6658423546
 40
0.7812090593
 40
0.8922059796
 40
1.0
 40
1.0
 40
1.0
 40
1.0
 10
34.5961664557
 20
61.6793090329
 30
0.0
 10
34.5961664557
 20
61.4527116279
 30
0.0
 10
34.5801935139
 20
61.009352417
 30
0.0
 10
34.5048021718
 20
60.363547858
 30
0.0
 10
34.3788356708
 20
59.7562862792
 30
0.0
 10
34.2030940735
 20
59.192025856
 30
0.0
 10
33.9787048875
 20
58.6747619242
 30
0.0
 10
33.7069419692
 20
58.2083306045
 30
0.0
 10
33.3896913254
 20
57.7964092119
 30
0.0
 10
33.1465051605
 20
57.5576209279
 30
0.0
 10
33.0189244674
 20
57.4494728043
 30
0.0
  0
SPLINE
  5
369
100
AcDbEntity
  8
0
100
AcDbSpline
 62
7
  6
BYLAYER
 70
0
 71
3
 72
32
 73
28
 74
0
 42
0.0000001
 43
0.0000001
 44
0.0000000001
 40
0.0
 40
0.0
 40
0.0
 40
0.0
 40
0.0213268512
 40
0.042882071
 40
0.064882079
 40
0.0875211769
 40
0.1109650524
 40
0.1353458057
 40
0.1607628798
 40
0.1872817539
 40
0.2149390547
 40
0.2437425716
 40
0.2736770526
 40
0.3047046965
 40
0.3367698827
 40
0.3698002846
 40
0.4383802234
 40
0.5096485081
 40
0.5826541125
 40
0.6563668476
 40
0.7297254555
 40
0.8016835893
 40
0.8712593862
 40
0.9048846506
 40
0.937603458
 40
0.9693375014
 40
1.0
 40
1.0
 40
1.0
 40
1.0
 10
22.5250954009
 20
74.4219769486
 30
0.0
 10
22.6479507549
 20
74.4929125593
 30
0.0
 10
22.9044253997
 20
74.6198332726
 30
0.0
 10
23.3133369157
 20
74.7611941517
 30
0.0
 10
23.7450144502
 20
74.8532587609
 30
0.0
 10
24.1968703816
 20
74.8956532749
 30
0.0
 10
24.6663948386
 20
74.8882367337
 30
0.0
 10
25.1510205858
 20
74.8312729132
 30
0.0
 10
25.6481359612
 20
74.725105386
 30
0.0
 10
26.1551195503
 20
74.5704813964
 30
0.0
 10
26.6692599515
 20
74.368218808
 30
0.0
 10
27.1878599374
 20
74.1195103577
 30
0.0
 10
27.70813934
 20
73.8256667653
 30
0.0
 10
28.2273434554
 20
73.4883186534
 30
0.0
 10
28.7426988192
 20
73.1092623133
 30
0.0
 10
29.4295285437
 20
72.5439501621
 30
0.0
 10
30.2592852291
 20
71.7447937139
 30
0.0
 10
31.1841116064
 20
70.6702458947
 30
0.0
 10
32.0308951104
 20
69.490924133
 30
0.0
 10
32.7815153038
 20
68.2320621948
 30
0.0
 10
33.4199894135
 20
66.9204579663
 30
0.0
 10
33.932664756
 20
65.584187711
 30
0.0
 10
34.2495920228
 20
64.4609455045
 30
0.0
 10
34.4290058008
 20
63.5744559719
 30
0.0
 10
34.5247758571
 20
62.9287834974
 30
0.0
 10
34.5826889808
 20
62.2984200884
 30
0.0
 10
34.5961664557
 20
61.8832723053
 30
0.0
 10
34.5961664557
 20
61.6793090329
 30
0.0
  0
SPLINE
  5
36A
100
AcDbEntity
  8
0
100
AcDbSpline
 62
7
  6
BYLAYER
 70
0
 71
3
 72
15
 73
11
 74
0
 42
0.0000001
 43
0.0000001
 44
0.0000000001
 40
0.0
 40
0.0
 40
0.0
 40
0.0
 40
0.1122810852
 40
0.2259890155
 40
0.3424611096
 40
0.462877048
 40
0.5882090699
 40
0.7192003993
 40
0.8563562275
 40
1.0
 40
1.0
 40
1.0
 40
1.0
 10
17.5753686683
 20
71.564267647
 30
0.0
 10
17.4413556634
 20
71.4868897746
 30
0.0
 10
17.182160163
 20
71.3120547373
 30
0.0
 10
16.8299257583
 20
70.9958187413
 30
0.0
 10
16.5153595287
 20
70.6272446988
 30
0.0
 10
16.2405978444
 20
70.2089962667
 30
0.0
 10
16.0071817095
 20
69.7439947125
 30
0.0
 10
15.8164762278
 20
69.2353272545
 30
0.0
 10
15.669508406
 20
68.6863408699
 30
0.0
 10
15.6027809078
 20
68.3045863634
 30
0.0
 10
15.576420574
 20
68.1083770091
 30
0.0
  0
SPLINE
  5
36B
100
AcDbEntity
  8
0
100
AcDbSpline
 62
7
  6
BYLAYER
 70
0
 71
3
 72
32
 73
28
 74
0
 42
0.0000001
 43
0.0000001
 44
0.0000000001
 40
0.0
 40
0.0
 40
0.0
 40
0.0
 40
0.0306624659
 40
0.0623963807
 40
0.0951150397
 40
0.128740212
 40
0.1983158385
 40
0.2702739376
 40
0.3436326901
 40
0.4173456447
 40
0.4903514599
 40
0.5616199703
 40
0.6302001495
 40
0.6632306545
 40
0.6952959083
 40
0.7263235845
 40
0.7562580473
 40
0.7850615151
 40
0.8127187352
 40
0.8392375229
 40
0.864654509
 40
0.8890351885
 40
0.9124790004
 40
0.9351180509
 40
0.9571180135
 40
0.9786731924
 40
1.0
 40
1.0
 40
1.0
 40
1.0
 10
29.6464395952
 20
58.8215999558
 30
0.0
 10
29.6464395952
 20
59.025563011
 30
0.0
 10
29.6329623767
 20
59.4407097297
 30
0.0
 10
29.5750493202
 20
60.0710710746
 30
0.0
 10
29.4792800176
 20
60.7167411707
 30
0.0
 10
29.2998670389
 20
61.6032280753
 30
0.0
 10
28.9829412506
 20
62.7264686221
 30
0.0
 10
28.4702669414
 20
64.0627388516
 30
0.0
 10
27.8317927116
 20
65.3743454633
 30
0.0
 10
27.081171074
 20
66.6332110117
 30
0.0
 10
26.2343852061
 20
67.8125364608
 30
0.0
 10
25.3095557781
 20
68.8870876303
 30
0.0
 10
24.4797958737
 20
69.686246203
 30
0.0
 10
23.7929637723
 20
70.2515597858
 30
0.0
 10
23.2776067589
 20
70.6306161566
 30
0.0
 10
22.7584020004
 20
70.9679642881
 30
0.0
 10
22.2381222156
 20
71.2618067265
 30
0.0
 10
21.7195229362
 20
71.510514374
 30
0.0
 10
21.2053834658
 20
71.7127753946
 30
0.0
 10
20.6984013705
 20
71.8673984541
 30
0.0
 10
20.2012874297
 20
71.973564758
 30
0.0
 10
19.7166631339
 20
72.0305280927
 30
0.0
 10
19.247139911
 20
72.0379438299
 30
0.0
 10
18.7952850021
 20
71.9955494402
 30
0.0
 10
18.3636085305
 20
71.9034842244
 30
0.0
 10
17.954697659
 20
71.7621241052
 30
0.0
 10
17.6982237981
 20
71.6352030652
 30
0.0
 10
17.5753686683
 20
71.564267647
 30
0.0
  0
SPLINE
  5
36C
100
AcDbEntity
  8
0
100
AcDbSpline
 62
7
  6
BYLAYER
 70
0
 71
3
 72
10
 73
6
 74
0
 42
0.0000001
 43
0.0000001
 44
0.0000000001
 40
0.0
 40
0.0
 40
0.0
 40
0.0
 40
0.4766162533
 40
0.7325650041
 40
1.0
 40
1.0
 40
1.0
 40
1.0
 10
29.2645205072
 20
56.3950332645
 30
0.0
 10
29.3966489331
 20
56.7639266314
 30
0.0
 10
29.5390694394
 20
57.35388032
 30
0.0
 10
29.6313683605
 20
58.1711449556
 30
0.0
 10
29.6464395952
 20
58.6017327321
 30
0.0
 10
29.6464395952
 20
58.8215999558
 30
0.0
  0
SPLINE
  5
36D
100
AcDbEntity
  8
0
100
AcDbSpline
 62
7
  6
BYLAYER
 70
0
 71
3
 72
15
 73
11
 74
0
 42
0.0000001
 43
0.0000001
 44
0.0000000001
 40
0.0
 40
0.0
 40
0.0
 40
0.0
 40
0.1420560512
 40
0.280999667
 40
0.4156709585
 40
0.5450638885
 40
0.6684332004
 40
0.7853382678
 40
0.8957383207
 40
1.0
 40
1.0
 40
1.0
 40
1.0
 10
27.6167705992
 20
16.3161702284
 30
0.0
 10
28.0000590363
 20
16.3521077845
 30
0.0
 10
28.7559855044
 20
16.4506703803
 30
0.0
 10
29.8598881416
 20
16.6803172247
 30
0.0
 10
30.90922067
 20
16.9876007201
 30
0.0
 10
31.8890619875
 20
17.3687353033
 30
0.0
 10
32.7856724733
 20
17.8192741701
 30
0.0
 10
33.5866574325
 20
18.3344969979
 30
0.0
 10
34.280281218
 20
18.9092893218
 30
0.0
 10
34.6744824748
 20
19.340580994
 30
0.0
 10
34.8475054822
 20
19.5639552907
 30
0.0
  0
SPLINE
  5
36E
100
AcDbEntity
  8
0
100
AcDbSpline
 62
7
  6
BYLAYER
 70
0
 71
3
 72
11
 73
7
 74
0
 42
0.0000001
 43
0.0000001
 44
0.0000000001
 40
0.0
 40
0.0
 40
0.0
 40
0.0
 40
0.2689673412
 40
0.5273341555
 40
0.771676041
 40
1.0
 40
1.0
 40
1.0
 40
1.0
 10
27.3023721649
 20
15.6989182709
 30
0.0
 10
27.631497815
 20
15.7392606906
 30
0.0
 10
28.2732943193
 20
15.8517173944
 30
0.0
 10
29.1882458352
 20
16.1200817188
 30
0.0
 10
30.0172221817
 20
16.4798281484
 30
0.0
 10
30.5154687558
 20
16.7875649249
 30
0.0
 10
30.7409047857
 20
16.9561211126
 30
0.0
  0
SPLINE
  5
36F
100
AcDbEntity
  8
0
100
AcDbSpline
 62
7
  6
BYLAYER
 70
0
 71
3
 72
11
 73
7
 74
0
 42
0.0000001
 43
0.0000001
 44
0.0000000001
 40
0.0
 40
0.0
 40
0.0
 40
0.0
 40
0.2294159119
 40
0.4740818935
 40
0.7320134922
 40
1.0
 40
1.0
 40
1.0
 40
1.0
 10
21.5603681352
 20
16.8877041762
 30
0.0
 10
21.7832017297
 20
16.7293413192
 30
0.0
 10
22.2714180456
 20
16.4401829285
 30
0.0
 10
23.0773304421
 20
16.10090086
 30
0.0
 10
23.9616733911
 20
15.8467227696
 30
0.0
 10
24.5803605058
 20
15.7389804596
 30
0.0
 10
24.8972921695
 20
15.6998709121
 30
0.0
  0
SPLINE
  5
370
100
AcDbEntity
  8
0
100
AcDbSpline
 62
7
  6
BYLAYER
 70
0
 71
3
 72
13
 73
9
 74
0
 42
0.0000001
 43
0.0000001
 44
0.0000000001
 40
0.0
 40
0.0
 40
0.0
 40
0.0
 40
0.2690444885
 40
0.5280343547
 40
0.6520079601
 40
0.7716398458
 40
0.8874245756
 40
1.0
 40
1.0
 40
1.0
 40
1.0
 10
34.1220430255
 20
18.3047729893
 30
0.0
 10
34.1798885848
 20
18.3047731283
 30
0.0
 10
34.2940265862
 20
18.3206608697
 30
0.0
 10
34.4237435054
 20
18.3798118445
 30
0.0
 10
34.5083571954
 20
18.4477986598
 30
0.0
 10
34.5593998284
 20
18.5064112512
 30
0.0
 10
34.5971803039
 20
18.5715176109
 30
0.0
 10
34.6128973555
 20
18.6184818363
 30
0.0
 10
34.6180400914
 20
18.6421333117
 30
0.0
  0
LINE
  5
371
100
AcDbEntity
  8
0
100
AcDbLine
 62
7
  6
BYLAYER
 10
34.8110877719
 20
19.5300976218
 11
34.6180400914
 21
18.6421333117
  0
SPLINE
  5
372
100
AcDbEntity
  8
0
100
AcDbSpline
 62
7
  6
BYLAYER
 70
0
 71
3
 72
11
 73
7
 74
0
 42
0.0000001
 43
0.0000001
 44
0.0000000001
 40
0.0
 40
0.0
 40
0.0
 40
0.0
 40
0.2323749737
 40
0.478252141
 40
0.7351916226
 40
1.0
 40
1.0
 40
1.0
 40
1.0
 10
19.4512126331
 20
17.8223910994
 30
0.0
 10
19.8145043677
 20
17.6165313811
 30
0.0
 10
20.5913001743
 20
17.2429656074
 30
0.0
 10
21.8413959243
 20
16.8084738013
 30
0.0
 10
23.1857349675
 20
16.4900659262
 30
0.0
 10
24.1158793881
 20
16.3607166357
 30
0.0
 10
24.5896428609
 20
16.3162669317
 30
0.0
  0
SPLINE
  5
373
100
AcDbEntity
  8
0
100
AcDbSpline
 62
7
  6
BYLAYER
 70
0
 71
3
 72
10
 73
6
 74
0
 42
0.0000001
 43
0.0000001
 44
0.0000000001
 40
0.0
 40
0.0
 40
0.0
 40
0.0
 40
0.2340546051
 40
0.6044863605
 40
1.0
 40
1.0
 40
1.0
 40
1.0
 10
17.3599050349
 20
19.5639552907
 30
0.0
 10
17.4906734428
 20
19.3951320714
 30
0.0
 10
17.8555486678
 20
18.9797206408
 30
0.0
 10
18.5484473339
 20
18.3807478578
 30
0.0
 10
19.1372573621
 20
18.0002942486
 30
0.0
 10
19.4512126331
 20
17.8223910994
 30
0.0
  0
SPLINE
  5
374
100
AcDbEntity
  8
0
100
AcDbSpline
 62
7
  6
BYLAYER
 70
0
 71
3
 72
11
 73
7
 74
0
 42
0.0000001
 43
0.0000001
 44
0.0000000001
 40
0.0
 40
0.0
 40
0.0
 40
0.0
 40
0.2413563737
 40
0.4866713799
 40
0.7387716784
 40
1.0
 40
1.0
 40
1.0
 40
1.0
 10
15.8981876641
 20
22.6018760311
 30
0.0
 10
15.9107508136
 20
22.3940930516
 30
0.0
 10
15.9712720711
 20
21.9764656335
 30
0.0
 10
16.1640982508
 20
21.366532584
 30
0.0
 10
16.454367423
 20
20.777601433
 30
0.0
 10
16.7043036213
 20
20.410342756
 30
0.0
 10
16.8422709884
 20
20.2322256138
 30
0.0
  0
LINE
  5
375
100
AcDbEntity
  8
0
100
AcDbLine
 62
7
  6
BYLAYER
 10
17.5893787525
 20
18.6420923798
 11
17.3981307432
 21
19.5217765929
  0
SPLINE
  5
376
100
AcDbEntity
  8
0
100
AcDbSpline
 62
7
  6
BYLAYER
 70
0
 71
3
 72
13
 73
9
 74
0
 42
0.0000001
 43
0.0000001
 44
0.0000000001
 40
0.0
 40
0.0
 40
0.0
 40
0.0
 40
0.1125775087
 40
0.2283674766
 40
0.3479994793
 40
0.4719710821
 40
0.7309597898
 40
1.0
 40
1.0
 40
1.0
 40
1.0
 10
17.5893787525
 20
18.6420923798
 30
0.0
 10
17.5945215759
 20
18.6184405272
 30
0.0
 10
17.6102430339
 20
18.5714760887
 30
0.0
 10
17.6480235593
 20
18.5063689261
 30
0.0
 10
17.6990623218
 20
18.4477518353
 30
0.0
 10
17.7836798433
 20
18.3797706586
 30
0.0
 10
17.9133944664
 20
18.3206218362
 30
0.0
 10
18.0275312372
 20
18.3047343028
 30
0.0
 10
18.0853757311
 20
18.3047344419
 30
0.0
  0
SPLINE
  5
377
100
AcDbEntity
  8
0
100
AcDbSpline
 62
7
  6
BYLAYER
 70
0
 71
3
 72
11
 73
7
 74
0
 42
0.0000001
 43
0.0000001
 44
0.0000000001
 40
0.0
 40
0.0
 40
0.0
 40
0.0
 40
0.2612282049
 40
0.5133283852
 40
0.7586433635
 40
1.0
 40
1.0
 40
1.0
 40
1.0
 10
35.3651395287
 20
20.2322256138
 30
0.0
 10
35.5031070088
 20
20.4103429017
 30
0.0
 10
35.7530433115
 20
20.7776019342
 30
0.0
 10
36.0433128627
 20
21.3665335795
 30
0.0
 10
36.2361389029
 20
21.9764676492
 30
0.0
 10
36.2966599761
 20
22.3940958341
 30
0.0
 10
36.3092230283
 20
22.6018793103
 30
0.0
  0
SPLINE
  5
378
100
AcDbEntity
  8
0
100
AcDbSpline
 62
7
  6
BYLAYER
 70
0
 71
3
 72
9
 73
5
 74
0
 42
0.0000001
 43
0.0000001
 44
0.0000000001
 40
0.0
 40
0.0
 40
0.0
 40
0.0
 40
0.5171923552
 40
1.0
 40
1.0
 40
1.0
 40
1.0
 10
7.3555977153
 20
33.2038390095
 30
0.0
 10
7.3387838806
 20
33.180549896
 30
0.0
 10
7.3116733333
 20
33.1310660841
 30
0.0
 10
7.3017178388
 20
33.0751838123
 30
0.0
 10
7.3017178437
 20
33.0483691621
 30
0.0
  0
SPLINE
  5
379
100
AcDbEntity
  8
0
100
AcDbSpline
 62
7
  6
BYLAYER
 70
0
 71
3
 72
15
 73
11
 74
0
 42
0.0000001
 43
0.0000001
 44
0.0000000001
 40
0.0
 40
0.0
 40
0.0
 40
0.0
 40
0.1141215042
 40
0.2373450237
 40
0.3669706836
 40
0.4999994085
 40
0.633028218
 40
0.7626540997
 40
0.8858780511
 40
1.0
 40
1.0
 40
1.0
 40
1.0
 10
26.5986898118
 20
17.0043325612
 30
0.0
 10
26.5648205385
 20
16.9847753487
 30
0.0
 10
26.4907244202
 20
16.9502851932
 30
0.0
 10
26.3700895901
 20
16.9135927335
 30
0.0
 10
26.2394595465
 20
16.8910342804
 30
0.0
 10
26.1037835878
 20
16.8834050466
 30
0.0
 10
25.9681075148
 20
16.8910336107
 30
0.0
 10
25.8374771105
 20
16.9135914673
 30
0.0
 10
25.7168417204
 20
16.9502833341
 30
0.0
 10
25.6427450615
 20
16.9847730611
 30
0.0
 10
25.6088755591
 20
17.0043301816
 30
0.0
  0
SPLINE
  5
37A
100
AcDbEntity
  8
0
100
AcDbSpline
 62
7
  6
BYLAYER
 70
0
 71
3
 72
11
 73
7
 74
0
 42
0.0000001
 43
0.0000001
 44
0.0000000001
 40
0.0
 40
0.0
 40
0.0
 40
0.0
 40
0.2897087928
 40
0.5490965701
 40
0.782221438
 40
1.0
 40
1.0
 40
1.0
 40
1.0
 10
7.5067298108
 20
27.4553724681
 30
0.0
 10
7.4760160308
 20
27.4731020859
 30
0.0
 10
7.4202938998
 20
27.5114774741
 30
0.0
 10
7.3536977456
 20
27.5814604135
 30
0.0
 10
7.3115702967
 20
27.6588794898
 30
0.0
 10
7.3017178368
 20
27.7144448242
 30
0.0
 10
7.3017178437
 20
27.7411034508
 30
0.0
  0
SPLINE
  5
37B
100
AcDbEntity
  8
0
100
AcDbSpline
 62
7
  6
BYLAYER
 70
0
 71
3
 72
10
 73
6
 74
0
 42
0.0000001
 43
0.0000001
 44
0.0000000001
 40
0.0
 40
0.0
 40
0.0
 40
0.0
 40
0.2680020867
 40
0.5241440847
 40
1.0
 40
1.0
 40
1.0
 40
1.0
 10
18.8825766265
 20
18.6513269069
 30
0.0
 10
18.6823681903
 20
18.7669146865
 30
0.0
 10
18.2986766302
 20
19.0072678026
 30
0.0
 10
17.6063004997
 20
19.5223551961
 30
0.0
 10
17.1485277421
 20
19.9648431085
 30
0.0
 10
16.8870300805
 20
20.2812425371
 30
0.0
  0
SPLINE
  5
37C
100
AcDbEntity
  8
0
100
AcDbSpline
 62
7
  6
BYLAYER
 70
0
 71
3
 72
11
 73
7
 74
0
 42
0.0000001
 43
0.0000001
 44
0.0000000001
 40
0.0
 40
0.0
 40
0.0
 40
0.0
 40
0.2670851119
 40
0.5205237349
 40
0.7634820107
 40
1.0
 40
1.0
 40
1.0
 40
1.0
 10
16.8870300805
 20
20.2812425371
 30
0.0
 10
16.7419928357
 20
20.4567305362
 30
0.0
 10
16.4802198618
 20
20.81694684
 30
0.0
 10
16.1760304103
 20
21.3950454335
 30
0.0
 10
15.9753026077
 20
21.9895359376
 30
0.0
 10
15.9119927022
 20
22.3957949355
 30
0.0
 10
15.8987853692
 20
22.5969722143
 30
0.0
  0
SPLINE
  5
37D
100
AcDbEntity
  8
0
100
AcDbSpline
 62
7
  6
BYLAYER
 70
0
 71
3
 72
11
 73
7
 74
0
 42
0.0000001
 43
0.0000001
 44
0.0000000001
 40
0.0
 40
0.0
 40
0.0
 40
0.0
 40
0.2177787502
 40
0.4509036854
 40
0.7102914186
 40
1.0
 40
1.0
 40
1.0
 40
1.0
 10
7.3017178437
 20
33.0483691621
 30
0.0
 10
7.3017178485
 20
33.0217106853
 30
0.0
 10
7.3115701589
 20
32.9661456772
 30
0.0
 10
7.3536971891
 20
32.8887269982
 30
0.0
 10
7.4202926203
 20
32.8187442893
 30
0.0
 10
7.4760142099
 20
32.7803689228
 30
0.0
 10
7.5067277363
 20
32.7626393772
 30
0.0
  0
SPLINE
  5
37E
100
AcDbEntity
  8
0
100
AcDbSpline
 62
7
  6
BYLAYER
 70
0
 71
3
 72
10
 73
6
 74
0
 42
0.0000001
 43
0.0000001
 44
0.0000000001
 40
0.0
 40
0.0
 40
0.0
 40
0.0
 40
0.2694160873
 40
0.5260165206
 40
1.0
 40
1.0
 40
1.0
 40
1.0
 10
19.3308439737
 20
17.911214488
 30
0.0
 10
19.129764849
 20
18.0273049484
 30
0.0
 10
18.7455867324
 20
18.2693343906
 30
0.0
 10
18.0584033775
 20
18.790067222
 30
0.0
 10
17.6100554326
 20
19.2410180234
 30
0.0
 10
17.3599219833
 20
19.5639596664
 30
0.0
  0
SPLINE
  5
37F
100
AcDbEntity
  8
0
100
AcDbSpline
 62
7
  6
BYLAYER
 70
0
 71
3
 72
9
 73
5
 74
0
 42
0.0000001
 43
0.0000001
 44
0.0000000001
 40
0.0
 40
0.0
 40
0.0
 40
0.0
 40
0.2439315899
 40
1.0
 40
1.0
 40
1.0
 40
1.0
 10
16.8422858854
 20
20.2322294602
 30
0.0
 10
16.8824741471
 20
20.1803470793
 30
0.0
 10
17.0512335219
 20
19.9707737936
 30
0.0
 10
17.2353989282
 20
19.773733266
 30
0.0
 10
17.3812679081
 20
19.6319649543
 30
0.0
  0
SPLINE
  5
380
100
AcDbEntity
  8
0
100
AcDbSpline
 62
7
  6
BYLAYER
 70
0
 71
3
 72
9
 73
5
 74
0
 42
0.0000001
 43
0.0000001
 44
0.0000000001
 40
0.0
 40
0.0
 40
0.0
 40
0.0
 40
0.4828414929
 40
1.0
 40
1.0
 40
1.0
 40
1.0
 10
17.3812679081
 20
19.6319649543
 30
0.0
 10
17.6043447274
 20
19.4151592698
 30
0.0
 10
18.0995924378
 20
18.9996853247
 30
0.0
 10
18.6413418018
 20
18.648231822
 30
0.0
 10
18.9298897543
 20
18.4816423527
 30
0.0
  0
SPLINE
  5
381
100
AcDbEntity
  8
0
100
AcDbSpline
 62
7
  6
BYLAYER
 70
0
 71
3
 72
11
 73
7
 74
0
 42
0.0000001
 43
0.0000001
 44
0.0000000001
 40
0.0
 40
0.0
 40
0.0
 40
0.0
 40
0.2657364011
 40
0.5232034673
 40
0.7689095168
 40
1.0
 40
1.0
 40
1.0
 40
1.0
 10
24.5890203678
 20
16.3611357159
 30
0.0
 10
24.1144983828
 20
16.4049984167
 30
0.0
 10
23.1834331493
 20
16.5325936444
 30
0.0
 10
21.8385899606
 20
16.8464510509
 30
0.0
 10
20.5906034076
 20
17.2735117174
 30
0.0
 10
19.8153961583
 20
17.6400958733
 30
0.0
 10
19.453350454
 20
17.8417446018
 30
0.0
  0
SPLINE
  5
382
100
AcDbEntity
  8
0
100
AcDbSpline
 62
7
  6
BYLAYER
 70
0
 71
3
 72
15
 73
11
 74
0
 42
0.0000001
 43
0.0000001
 44
0.0000000001
 40
0.0
 40
0.0
 40
0.0
 40
0.0
 40
0.140514829
 40
0.2783279339
 40
0.4124409084
 40
0.5419008101
 40
0.6659031573
 40
0.7838179651
 40
0.8952314821
 40
1.0
 40
1.0
 40
1.0
 40
1.0
 10
27.6180404516
 20
16.8317153812
 30
0.0
 10
27.9852344455
 20
16.8637091098
 30
0.0
 10
28.7107648434
 20
16.9504770202
 30
0.0
 10
29.7748405406
 20
17.1502788059
 30
0.0
 10
30.7944849389
 20
17.4163575522
 30
0.0
 10
31.7574102626
 20
17.74559216
 30
0.0
 10
32.6520145639
 20
18.1340237176
 30
0.0
 10
33.4676073204
 20
18.5771142864
 30
0.0
 10
34.1942795017
 20
19.0695864798
 30
0.0
 10
34.6269614425
 20
19.4385659049
 30
0.0
 10
34.8241266268
 20
19.6300111552
 30
0.0
  0
SPLINE
  5
383
100
AcDbEntity
  8
0
100
AcDbSpline
 62
7
  6
BYLAYER
 70
0
 71
3
 72
9
 73
5
 74
0
 42
0.0000001
 43
0.0000001
 44
0.0000000001
 40
0.0
 40
0.0
 40
0.0
 40
0.0
 40
0.2563585431
 40
1.0
 40
1.0
 40
1.0
 40
1.0
 10
34.8241266268
 20
19.6300111552
 30
0.0
 10
34.8737797004
 20
19.6782237498
 30
0.0
 10
35.0643711104
 20
19.8694341626
 30
0.0
 10
35.2421879968
 20
20.0735146855
 30
0.0
 10
35.3651305538
 20
20.2322279312
 30
0.0
  0
SPLINE
  5
384
100
AcDbEntity
  8
0
100
AcDbSpline
 62
7
  6
BYLAYER
 70
0
 71
3
 72
11
 73
7
 74
0
 42
0.0000001
 43
0.0000001
 44
0.0000000001
 40
0.0
 40
0.0
 40
0.0
 40
0.0
 40
0.2367614603
 40
0.4798188745
 40
0.7331809907
 40
1.0
 40
1.0
 40
1.0
 40
1.0
 10
36.3092994884
 20
22.6075515072
 30
0.0
 10
36.2968100582
 20
22.4078513001
 30
0.0
 10
36.235518593
 20
22.0045804729
 30
0.0
 10
36.0392530353
 20
21.4140480865
 30
0.0
 10
35.7408854246
 20
20.8394707891
 30
0.0
 10
35.4836506233
 20
20.4810458928
 30
0.0
 10
35.3410356743
 20
20.3063810416
 30
0.0
  0
SPLINE
  5
385
100
AcDbEntity
  8
0
100
AcDbSpline
 62
7
  6
BYLAYER
 70
0
 71
3
 72
15
 73
11
 74
0
 42
0.0000001
 43
0.0000001
 44
0.0000000001
 40
0.0
 40
0.0
 40
0.0
 40
0.0
 40
0.1015570165
 40
0.2105150367
 40
0.326977411
 40
0.4506195974
 40
0.580773661
 40
0.7165068718
 40
0.856666279
 40
1.0
 40
1.0
 40
1.0
 40
1.0
 10
35.3410356743
 20
20.3063810416
 30
0.0
 10
35.1567183059
 20
20.080641973
 30
0.0
 10
34.7365670809
 20
19.6430411243
 30
0.0
 10
33.9998821889
 20
19.058273581
 30
0.0
 10
33.146189763
 20
18.5303612006
 30
0.0
 10
32.1882500746
 20
18.0669063447
 30
0.0
 10
31.140084313
 20
17.6744212314
 30
0.0
 10
30.0171598457
 20
17.3586469435
 30
0.0
 10
28.8360947163
 20
17.1241400229
 30
0.0
 10
28.0277753928
 20
17.0251109867
 30
0.0
 10
27.6179949204
 20
16.9896468537
 30
0.0
  0
SPLINE
  5
386
100
AcDbEntity
  8
0
100
AcDbSpline
 62
7
  6
BYLAYER
 70
0
 71
3
 72
9
 73
5
 74
0
 42
0.0000001
 43
0.0000001
 44
0.0000000001
 40
0.0
 40
0.0
 40
0.0
 40
0.0
 40
0.245197453
 40
1.0
 40
1.0
 40
1.0
 40
1.0
 10
34.8475022316
 20
19.5639561299
 30
0.0
 10
34.8176220963
 20
19.5253778119
 30
0.0
 10
34.693420691
 20
19.3698624431
 30
0.0
 10
34.5601382693
 20
19.2216485329
 30
0.0
 10
34.4554063248
 20
19.113967911
 30
0.0
  0
SPLINE
  5
387
100
AcDbEntity
  8
0
100
AcDbSpline
 62
7
  6
BYLAYER
 70
0
 71
3
 72
9
 73
5
 74
0
 42
0.0000001
 43
0.0000001
 44
0.0000000001
 40
0.0
 40
0.0
 40
0.0
 40
0.0
 40
0.484228089
 40
1.0
 40
1.0
 40
1.0
 40
1.0
 10
34.4554063248
 20
19.113967911
 30
0.0
 10
34.2743750145
 20
18.9278397513
 30
0.0
 10
33.8742881506
 20
18.568481745
 30
0.0
 10
33.435944557
 20
18.2577162476
 30
0.0
 10
33.2027328832
 20
18.109063227
 30
0.0
  0
SPLINE
  5
388
100
AcDbEntity
  8
0
100
AcDbSpline
 62
7
  6
BYLAYER
 70
0
 71
3
 72
11
 73
7
 74
0
 42
0.0000001
 43
0.0000001
 44
0.0000000001
 40
0.0
 40
0.0
 40
0.0
 40
0.0
 40
0.230692799
 40
0.4763250715
 40
0.7339454239
 40
1.0
 40
1.0
 40
1.0
 40
1.0
 10
32.8037921405
 20
17.8696540423
 30
0.0
 10
32.4390833595
 20
17.6635582646
 30
0.0
 10
31.6565684568
 20
17.2889589263
 30
0.0
 10
30.3945406673
 20
16.8531824557
 30
0.0
 10
29.0323787431
 20
16.5335289122
 30
0.0
 10
28.0886816352
 20
16.4042904201
 30
0.0
 10
27.6075768714
 20
16.3601442115
 30
0.0
  0
SPLINE
  5
389
100
AcDbEntity
  8
0
100
AcDbSpline
 62
7
  6
BYLAYER
 70
0
 71
3
 72
11
 73
7
 74
0
 42
0.0000001
 43
0.0000001
 44
0.0000000001
 40
0.0
 40
0.0
 40
0.0
 40
0.0
 40
0.2661040756
 40
0.523211451
 40
0.7686204811
 40
1.0
 40
1.0
 40
1.0
 40
1.0
 10
24.7497471357
 20
15.8608531184
 30
0.0
 10
24.4833016002
 20
15.8966624053
 30
0.0
 10
23.9620003639
 20
15.9885339182
 30
0.0
 10
23.2109459142
 20
16.1898732633
 30
0.0
 10
22.5150632602
 20
16.4490591999
 30
0.0
 10
22.0827199293
 20
16.6641944078
 30
0.0
 10
21.880277233
 20
16.7810721089
 30
0.0
  0
SPLINE
  5
38A
100
AcDbEntity
  8
0
100
AcDbSpline
 62
7
  6
BYLAYER
 70
0
 71
3
 72
11
 73
7
 74
0
 42
0.0000001
 43
0.0000001
 44
0.0000000001
 40
0.0
 40
0.0
 40
0.0
 40
0.0
 40
0.228509596
 40
0.4731868732
 40
0.7314388666
 40
1.0
 40
1.0
 40
1.0
 40
1.0
 10
30.5549446796
 20
16.9201131032
 30
0.0
 10
30.3439639143
 20
16.78396811
 30
0.0
 10
29.8863234771
 20
16.5334887361
 30
0.0
 10
29.1387939072
 20
16.2340076293
 30
0.0
 10
28.3215946711
 20
16.0032394624
 30
0.0
 10
27.7509404456
 20
15.9002940848
 30
0.0
 10
27.458469021
 20
15.8609618995
 30
0.0
  0
SPLINE
  5
38B
100
AcDbEntity
  8
0
100
AcDbSpline
 62
7
  6
BYLAYER
 70
0
 71
3
 72
13
 73
9
 74
0
 42
0.0000001
 43
0.0000001
 44
0.0000000001
 40
0.0
 40
0.0
 40
0.0
 40
0.0
 40
0.2865950142
 40
0.5528924197
 40
0.6747917299
 40
0.7888280924
 40
0.8964559215
 40
1.0
 40
1.0
 40
1.0
 40
1.0
 10
25.7537386424
 20
14.8438469178
 30
0.0
 10
25.7344144146
 20
14.8438468713
 30
0.0
 10
25.696944087
 20
14.8387868725
 30
0.0
 10
25.6546995031
 20
14.8195966798
 30
0.0
 10
25.6287926227
 20
14.7974721146
 30
0.0
 10
25.6145813312
 20
14.7789158019
 30
0.0
 10
25.6057903758
 20
14.7585782455
 30
0.0
 10
25.6037392171
 20
14.7442749612
 30
0.0
 10
25.6037392574
 20
14.7372932998
 30
0.0
  0
SPLINE
  5
38C
100
AcDbEntity
  8
0
100
AcDbSpline
 62
7
  6
BYLAYER
 70
0
 71
3
 72
13
 73
9
 74
0
 42
0.0000001
 43
0.0000001
 44
0.0000000001
 40
0.0
 40
0.0
 40
0.0
 40
0.0
 40
0.1035440297
 40
0.2111720332
 40
0.3252085473
 40
0.4471079709
 40
0.7134054087
 40
1.0
 40
1.0
 40
1.0
 40
1.0
 10
26.6037392574
 20
14.7372957036
 30
0.0
 10
26.6037392171
 20
14.7442773763
 30
0.0
 10
26.6016878685
 20
14.7585806719
 30
0.0
 10
26.5928966784
 20
14.7789181924
 30
0.0
 10
26.5786851723
 20
14.7974744391
 30
0.0
 10
26.5527780363
 20
14.8195988409
 30
0.0
 10
26.5105332859
 20
14.8387888205
 30
0.0
 10
26.473062882
 20
14.8438486469
 30
0.0
 10
26.4537386423
 20
14.8438486005
 30
0.0
  0
SPLINE
  5
38D
100
AcDbEntity
  8
0
100
AcDbSpline
 62
7
  6
BYLAYER
 70
0
 71
3
 72
15
 73
11
 74
0
 42
0.0000001
 43
0.0000001
 44
0.0000000001
 40
0.0
 40
0.0
 40
0.0
 40
0.0
 40
0.1141218459
 40
0.2373456403
 40
0.3669714004
 40
0.5000001252
 40
0.6330288321
 40
0.7626545379
 40
0.885878274
 40
1.0
 40
1.0
 40
1.0
 40
1.0
 10
25.6088755591
 20
22.311595893
 30
0.0
 10
25.6427449328
 20
22.2920388467
 30
0.0
 10
25.7168412783
 20
22.2575492252
 30
0.0
 10
25.8374761676
 20
22.2208574226
 30
0.0
 10
25.9681060431
 20
22.1982995066
 30
0.0
 10
26.1037816333
 20
22.1906707774
 30
0.0
 10
26.2394571923
 20
22.1982997306
 30
0.0
 10
26.3700869855
 20
22.2208578681
 30
0.0
 10
26.490721723
 20
22.2575498981
 30
0.0
 10
26.5648179377
 20
22.2920396607
 30
0.0
 10
26.598687223
 20
22.3115967779
 30
0.0
  0
SPLINE
  5
38E
100
AcDbEntity
  8
0
100
AcDbSpline
 62
7
  6
BYLAYER
 70
0
 71
3
 72
12
 73
8
 74
0
 42
0.0000001
 43
0.0000001
 44
0.0000000001
 40
0.0
 40
0.0
 40
0.0
 40
0.0
 40
0.2662270866
 40
0.524000116
 40
0.7695720866
 40
0.8868747596
 40
1.0
 40
1.0
 40
1.0
 40
1.0
 10
24.5892444538
 20
16.9896630116
 30
0.0
 10
24.0645573289
 20
17.0350769422
 30
0.0
 10
23.0351715267
 20
17.1715521432
 30
0.0
 10
21.5499642126
 20
17.516103511
 30
0.0
 10
20.3865436876
 20
17.9171134475
 30
0.0
 10
19.5266965919
 20
18.3020897444
 30
0.0
 10
19.1227871343
 20
18.5142214558
 30
0.0
 10
18.9283758747
 20
18.6250519449
 30
0.0
  0
SPLINE
  5
38F
100
AcDbEntity
  8
0
100
AcDbSpline
 62
7
  6
BYLAYER
 70
0
 71
3
 72
12
 73
8
 74
0
 42
0.0000001
 43
0.0000001
 44
0.0000000001
 40
0.0
 40
0.0
 40
0.0
 40
0.0
 40
0.1131354614
 40
0.2304427927
 40
0.4760121231
 40
0.7337758217
 40
1.0
 40
1.0
 40
1.0
 40
1.0
 10
18.975388924
 20
18.4555395454
 30
0.0
 10
19.1682168699
 20
18.3456116759
 30
0.0
 10
19.5688138794
 20
18.1351915287
 30
0.0
 10
20.4215460523
 20
17.7532510577
 30
0.0
 10
21.5752599267
 20
17.3552403464
 30
0.0
 10
23.0480687046
 20
17.0129487346
 30
0.0
 10
24.0688799607
 20
16.8770718397
 30
0.0
 10
24.5892150102
 20
16.8317301149
 30
0.0
  0
SPLINE
  5
390
100
AcDbEntity
  8
0
100
AcDbSpline
 62
7
  6
BYLAYER
 70
0
 71
3
 72
11
 73
7
 74
0
 42
0.0000001
 43
0.0000001
 44
0.0000000001
 40
0.0
 40
0.0
 40
0.0
 40
0.0
 40
0.2897052857
 40
0.5490919933
 40
0.7822182543
 40
1.0
 40
1.0
 40
1.0
 40
1.0
 10
7.5775096524
 20
32.7625984188
 30
0.0
 10
7.5467940492
 20
32.7803316794
 30
0.0
 10
7.4910681869
 20
32.818713352
 30
0.0
 10
7.4244679284
 20
32.8887062858
 30
0.0
 10
7.3823387368
 20
32.9661356049
 30
0.0
 10
7.3724858239
 20
33.0217074313
 30
0.0
 10
7.3724858314
 20
33.0483693265
 30
0.0
  0
SPLINE
  5
391
100
AcDbEntity
  8
0
100
AcDbSpline
 62
7
  6
BYLAYER
 70
0
 71
3
 72
15
 73
11
 74
0
 42
0.0000001
 43
0.0000001
 44
0.0000000001
 40
0.0
 40
0.0
 40
0.0
 40
0.0
 40
0.1141231812
 40
0.2373468278
 40
0.366971913
 40
0.4999994099
 40
0.6330269884
 40
0.76265231
 40
0.885876356
 40
1.0
 40
1.0
 40
1.0
 40
1.0
 10
26.5987571373
 20
22.3524615581
 30
0.0
 10
26.5648817049
 20
22.3329036848
 30
0.0
 10
26.4907743584
 20
22.2984113801
 30
0.0
 10
26.3701225884
 20
22.2617167799
 30
0.0
 10
26.2394758518
 20
22.2391573928
 30
0.0
 10
26.1037832934
 20
22.2315277052
 30
0.0
 10
25.9680906174
 20
22.2391567333
 30
0.0
 10
25.8374435235
 20
22.2617154907
 30
0.0
 10
25.7167911925
 20
22.2984095317
 30
0.0
 10
25.6426833545
 20
22.3329014702
 30
0.0
 10
25.6088076437
 20
22.3524591785
 30
0.0
  0
SPLINE
  5
392
100
AcDbEntity
  8
0
100
AcDbSpline
 62
7
  6
BYLAYER
 70
0
 71
3
 72
9
 73
5
 74
0
 42
0.0000001
 43
0.0000001
 44
0.0000000001
 40
0.0
 40
0.0
 40
0.0
 40
0.0
 40
0.2539303945
 40
1.0
 40
1.0
 40
1.0
 40
1.0
 10
7.4137721096
 20
39.8804313942
 30
0.0
 10
7.4121240395
 20
39.8777852971
 30
0.0
 10
7.4057872998
 20
39.8672702353
 30
0.0
 10
7.4000794227
 20
39.856373653
 30
0.0
 10
7.3962322133
 20
39.8480617392
 30
0.0
  0
SPLINE
  5
393
100
AcDbEntity
  8
0
100
AcDbSpline
 62
7
  6
BYLAYER
 70
0
 71
3
 72
9
 73
5
 74
0
 42
0.0000001
 43
0.0000001
 44
0.0000000001
 40
0.0
 40
0.0
 40
0.0
 40
0.0
 40
0.5078601242
 40
1.0
 40
1.0
 40
1.0
 40
1.0
 10
7.3962322133
 20
39.8480617392
 30
0.0
 10
7.389397892
 20
39.833296156
 30
0.0
 10
7.3784514477
 20
39.8029679103
 30
0.0
 10
7.3735655672
 20
39.7710611565
 30
0.0
 10
7.3727770107
 20
39.7553139868
 30
0.0
  0
SPLINE
  5
394
100
AcDbEntity
  8
0
100
AcDbSpline
 62
7
  6
BYLAYER
 70
0
 71
3
 72
9
 73
5
 74
0
 42
0.0000001
 43
0.0000001
 44
0.0000000001
 40
0.0
 40
0.0
 40
0.0
 40
0.0
 40
0.4921411205
 40
1.0
 40
1.0
 40
1.0
 40
1.0
 10
7.3727768308
 20
39.7320679657
 30
0.0
 10
7.3735650935
 20
39.7163217733
 30
0.0
 10
7.3784499476
 20
39.6844170255
 30
0.0
 10
7.3893946915
 20
39.6540904266
 30
0.0
 10
7.3962280262
 20
39.6393256026
 30
0.0
  0
SPLINE
  5
395
100
AcDbEntity
  8
0
100
AcDbSpline
 62
7
  6
BYLAYER
 70
0
 71
3
 72
10
 73
6
 74
0
 42
0.0000001
 43
0.0000001
 44
0.0000000001
 40
0.0
 40
0.0
 40
0.0
 40
0.0
 40
0.4622861554
 40
0.7216672593
 40
1.0
 40
1.0
 40
1.0
 40
1.0
 10
7.3962280262
 20
39.6393256026
 30
0.0
 10
7.4130380095
 20
39.6030041793
 30
0.0
 10
7.4516302482
 20
39.5517545445
 30
0.0
 10
7.5175317709
 20
39.4955295089
 30
0.0
 10
7.556641042
 20
39.4699664645
 30
0.0
 10
7.5775096524
 20
39.4579182392
 30
0.0
  0
SPLINE
  5
396
100
AcDbEntity
  8
0
100
AcDbSpline
 62
7
  6
BYLAYER
 70
0
 71
3
 72
15
 73
11
 74
0
 42
0.0000001
 43
0.0000001
 44
0.0000000001
 40
0.0
 40
0.0
 40
0.0
 40
0.0
 40
0.1141236058
 40
0.2373475862
 40
0.3669728832
 40
0.5000004526
 40
0.6330279586
 40
0.7626530685
 40
0.8858767805
 40
1.0
 40
1.0
 40
1.0
 40
1.0
 10
25.6088076437
 20
29.047778999
 30
0.0
 10
25.6426833431
 20
29.0282212972
 30
0.0
 10
25.7167911435
 20
28.9937293627
 30
0.0
 10
25.8374434331
 20
28.957035336
 30
0.0
 10
25.9680904902
 20
28.9344765692
 30
0.0
 10
26.103783157
 20
28.9268475257
 30
0.0
 10
26.2394757246
 20
28.9344771978
 30
0.0
 10
26.370122498
 20
28.9570365755
 30
0.0
 10
26.4907743094
 20
28.9937311901
 30
0.0
 10
26.5648816936
 20
29.0282234987
 30
0.0
 10
26.5987571373
 20
29.0477813785
 30
0.0
  0
SPLINE
  5
397
100
AcDbEntity
  8
0
100
AcDbSpline
 62
7
  6
BYLAYER
 70
0
 71
3
 72
11
 73
7
 74
0
 42
0.0000001
 43
0.0000001
 44
0.0000000001
 40
0.0
 40
0.0
 40
0.0
 40
0.0
 40
0.2897048043
 40
0.5490913404
 40
0.7822177947
 40
1.0
 40
1.0
 40
1.0
 40
1.0
 10
7.7189260039
 20
42.6014380027
 30
0.0
 10
7.6750473915
 20
42.5761048252
 30
0.0
 10
7.5954405276
 20
42.5212740736
 30
0.0
 10
7.5002992341
 20
42.4212849091
 30
0.0
 10
7.440115971
 20
42.3106726678
 30
0.0
 10
7.4260407119
 20
42.2312852597
 30
0.0
 10
7.4260407189
 20
42.1931972482
 30
0.0
  0
SPLINE
  5
398
100
AcDbEntity
  8
0
100
AcDbSpline
 62
7
  6
BYLAYER
 70
0
 71
3
 72
20
 73
16
 74
0
 42
0.0000001
 43
0.0000001
 44
0.0000000001
 40
0.0
 40
0.0
 40
0.0
 40
0.0
 40
0.1569565458
 40
0.3072161746
 40
0.448432698
 40
0.5151322746
 40
0.5790083451
 40
0.6399996224
 40
0.6981228592
 40
0.7534852927
 40
0.8062967693
 40
0.8568745524
 40
0.9056497288
 40
0.9531535437
 40
1.0
 40
1.0
 40
1.0
 40
1.0
 10
23.8978915808
 20
36.4732851086
 30
0.0
 10
23.3486862439
 20
36.5438867734
 30
0.0
 10
22.2795574285
 20
36.7352692405
 30
0.0
 10
20.7580262605
 20
37.1793836407
 30
0.0
 10
19.5918522402
 20
37.6759546566
 30
0.0
 10
18.7531023805
 20
38.1421252724
 30
0.0
 10
18.1880257278
 20
38.5141208958
 30
0.0
 10
17.6789979219
 20
38.9124506161
 30
0.0
 10
17.2296409588
 20
39.3344584312
 30
0.0
 10
16.8432046515
 20
39.7772915649
 30
0.0
 10
16.5225299867
 20
40.2379554864
 30
0.0
 10
16.2701815113
 20
40.7133444081
 30
0.0
 10
16.0881765553
 20
41.2001207812
 30
0.0
 10
15.978305798
 20
41.694616516
 30
0.0
 10
15.9537097286
 20
42.0279707983
 30
0.0
 10
15.9537097159
 20
42.1932397402
 30
0.0
  0
SPLINE
  5
399
100
AcDbEntity
  8
0
100
AcDbSpline
 62
7
  6
BYLAYER
 70
0
 71
3
 72
11
 73
7
 74
0
 42
0.0000001
 43
0.0000001
 44
0.0000000001
 40
0.0
 40
0.0
 40
0.0
 40
0.0
 40
0.2293899625
 40
0.4751491639
 40
0.7334512697
 40
1.0
 40
1.0
 40
1.0
 40
1.0
 10
46.2563324253
 20
30.5583782362
 30
0.0
 10
46.1525414296
 20
30.4984548346
 30
0.0
 10
45.9279692674
 20
30.3905459543
 30
0.0
 10
45.5639082647
 20
30.2684017544
 30
0.0
 10
45.1696675657
 20
30.1831452755
 30
0.0
 10
44.896615031
 20
30.1526985964
 30
0.0
 10
44.7576249254
 20
30.144010983
 30
0.0
  0
SPLINE
  5
39A
100
AcDbEntity
  8
0
100
AcDbSpline
 62
7
  6
BYLAYER
 70
0
 71
3
 72
11
 73
7
 74
0
 42
0.0000001
 43
0.0000001
 44
0.0000000001
 40
0.0
 40
0.0
 40
0.0
 40
0.0
 40
0.21837211
 40
0.45393655
 40
0.7136900673
 40
1.0
 40
1.0
 40
1.0
 40
1.0
 10
46.9782767043
 20
31.4482443974
 30
0.0
 10
46.9648960241
 20
31.3632727086
 30
0.0
 10
46.909556622
 20
31.1902199283
 30
0.0
 10
46.7547526577
 20
30.9524230753
 30
0.0
 10
46.5330882124
 20
30.7358723602
 30
0.0
 10
46.3540030133
 20
30.6147680399
 30
0.0
 10
46.2563324253
 20
30.5583782362
 30
0.0
  0
SPLINE
  5
39B
100
AcDbEntity
  8
0
100
AcDbSpline
 62
7
  6
BYLAYER
 70
0
 71
3
 72
11
 73
7
 74
0
 42
0.0000001
 43
0.0000001
 44
0.0000000001
 40
0.0
 40
0.0
 40
0.0
 40
0.0
 40
0.2897052857
 40
0.5490919933
 40
0.7822182543
 40
1.0
 40
1.0
 40
1.0
 40
1.0
 10
7.7189318919
 20
39.3354458429
 30
0.0
 10
7.6750524586
 20
39.3607790724
 30
0.0
 10
7.5954440839
 20
39.4156100332
 30
0.0
 10
7.5003008575
 20
39.5155999387
 30
0.0
 10
7.440116298
 20
39.6262132516
 30
0.0
 10
7.4260407083
 20
39.7056015751
 30
0.0
 10
7.4260407189
 20
39.7436899968
 30
0.0
  0
SPLINE
  5
39C
100
AcDbEntity
  8
0
100
AcDbSpline
 62
7
  6
BYLAYER
 70
0
 71
3
 72
15
 73
11
 74
0
 42
0.0000001
 43
0.0000001
 44
0.0000000001
 40
0.0
 40
0.0
 40
0.0
 40
0.0
 40
0.1141231812
 40
0.2373468278
 40
0.366971913
 40
0.4999994099
 40
0.6330269884
 40
0.76265231
 40
0.885876356
 40
1.0
 40
1.0
 40
1.0
 40
1.0
 10
26.8108885829
 20
29.1294303793
 30
0.0
 10
26.762495108
 20
29.1014905603
 30
0.0
 10
26.6566274702
 20
29.0522158393
 30
0.0
 10
26.4842677986
 20
28.9997949819
 30
0.0
 10
26.2976296036
 20
28.9675672861
 30
0.0
 10
26.1037830916
 20
28.9566677324
 30
0.0
 10
25.9099364116
 20
28.9675663439
 30
0.0
 10
25.723297706
 20
28.9997931401
 30
0.0
 10
25.5509372332
 20
29.0522131988
 30
0.0
 10
25.4450688931
 20
29.1014873966
 30
0.0
 10
25.3966750205
 20
29.1294269799
 30
0.0
  0
SPLINE
  5
39D
100
AcDbEntity
  8
0
100
AcDbSpline
 62
7
  6
BYLAYER
 70
0
 71
3
 72
15
 73
11
 74
0
 42
0.0000001
 43
0.0000001
 44
0.0000000001
 40
0.0
 40
0.0
 40
0.0
 40
0.0
 40
0.1141469224
 40
0.2373360366
 40
0.366976904
 40
0.5000005214
 40
0.6330240662
 40
0.7626647219
 40
0.8858535023
 40
1.0
 40
1.0
 40
1.0
 40
1.0
 10
32.1141791379
 20
30.5582917165
 30
0.0
 10
32.0173714247
 20
30.6141824113
 30
0.0
 10
31.8056564661
 20
30.7127544322
 30
0.0
 10
31.4609177314
 20
30.8175544862
 30
0.0
 10
31.0876662552
 20
30.8820233221
 30
0.0
 10
30.6999631905
 20
30.9038003188
 30
0.0
 10
30.3122604358
 20
30.8820214819
 30
0.0
 10
29.9390098752
 20
30.8175508739
 30
0.0
 10
29.5942726247
 20
30.7127491811
 30
0.0
 10
29.3825589631
 20
30.6141761028
 30
0.0
 10
29.2857520131
 20
30.5582849178
 30
0.0
  0
SPLINE
  5
39E
100
AcDbEntity
  8
0
100
AcDbSpline
 62
7
  6
BYLAYER
 70
0
 71
3
 72
9
 73
5
 74
0
 42
0.0000001
 43
0.0000001
 44
0.0000000001
 40
0.0
 40
0.0
 40
0.0
 40
0.0
 40
0.2444205649
 40
1.0
 40
1.0
 40
1.0
 40
1.0
 10
45.7422605484
 20
30.378209754
 30
0.0
 10
45.7043897241
 20
30.3908806837
 30
0.0
 10
45.548511026
 20
30.4398938303
 30
0.0
 10
45.3892247542
 20
30.4779209479
 30
0.0
 10
45.2679313244
 20
30.5008916868
 30
0.0
  0
SPLINE
  5
39F
100
AcDbEntity
  8
0
100
AcDbSpline
 62
7
  6
BYLAYER
 70
0
 71
3
 72
23
 73
19
 74
0
 42
0.0000001
 43
0.0000001
 44
0.0000000001
 40
0.0
 40
0.0
 40
0.0
 40
0.0
 40
0.0428135004
 40
0.0873950506
 40
0.1351783771
 40
0.1870885091
 40
0.2435344052
 40
0.304491129
 40
0.3695894517
 40
0.4381967448
 40
0.5094936536
 40
0.5825294208
 40
0.656270407
 40
0.7296594684
 40
0.8016495826
 40
0.8712467175
 40
0.9376204021
 40
1.0
 40
1.0
 40
1.0
 40
1.0
 10
35.4204143331
 20
36.4262223022
 30
0.0
 10
35.4962190742
 20
36.4699981261
 30
0.0
 10
35.66334167
 20
36.5394254688
 30
0.0
 10
35.93918709
 20
36.5798838424
 30
0.0
 10
36.2354175901
 20
36.5580755941
 30
0.0
 10
36.5454321348
 20
36.4756916003
 30
0.0
 10
36.8631579079
 20
36.3352811264
 30
0.0
 10
37.1822678012
 20
36.1400654683
 30
0.0
 10
37.496262331
 20
35.8942280302
 30
0.0
 10
37.7986440576
 20
35.6030098683
 30
0.0
 10
38.0830522242
 20
35.2725808242
 30
0.0
 10
38.3434254457
 20
34.909946575
 30
0.0
 10
38.5742397423
 20
34.5228480994
 30
0.0
 10
38.7705732353
 20
34.1195368892
 30
0.0
 10
38.9282248453
 20
33.708628671
 30
0.0
 10
39.0438784832
 20
33.2987815607
 30
0.0
 10
39.1149485292
 20
32.8988229301
 30
0.0
 10
39.1322646509
 20
32.6354006067
 30
0.0
 10
39.1322646509
 20
32.5078589007
 30
0.0
  0
SPLINE
  5
3A0
100
AcDbEntity
  8
0
100
AcDbSpline
 62
7
  6
BYLAYER
 70
0
 71
3
 72
11
 73
7
 74
0
 42
0.0000001
 43
0.0000001
 44
0.0000000001
 40
0.0
 40
0.0
 40
0.0
 40
0.0
 40
0.2177825102
 40
0.4509091639
 40
0.7102957096
 40
1.0
 40
1.0
 40
1.0
 40
1.0
 10
43.8825417868
 20
26.1610680317
 30
0.0
 10
43.8495551455
 20
26.180112451
 30
0.0
 10
43.78783841
 20
26.2319971043
 30
0.0
 10
43.7221337177
 20
26.3394270494
 30
0.0
 10
43.6831090166
 20
26.4718210688
 30
0.0
 10
43.6754269712
 20
26.5681814851
 30
0.0
 10
43.6754269712
 20
26.6188498582
 30
0.0
  0
SPLINE
  5
3A1
100
AcDbEntity
  8
0
100
AcDbSpline
 62
7
  6
BYLAYER
 70
0
 71
3
 72
14
 73
10
 74
0
 42
0.0000001
 43
0.0000001
 44
0.0000000001
 40
0.0
 40
0.0
 40
0.0
 40
0.0
 40
0.1080369937
 40
0.2181218304
 40
0.3321005481
 40
0.4514995879
 40
0.5774472889
 40
0.7107155971
 40
1.0
 40
1.0
 40
1.0
 40
1.0
 10
33.1901398951
 20
28.8701053549
 30
0.0
 10
33.1245640838
 20
28.9079655933
 30
0.0
 10
32.9984777601
 20
28.9959456853
 30
0.0
 10
32.8318815972
 20
29.1599148749
 30
0.0
 10
32.6885787209
 20
29.3545173949
 30
0.0
 10
32.5699470043
 20
29.5775712448
 30
0.0
 10
32.4768570217
 20
29.8268227787
 30
0.0
 10
32.3853590013
 20
30.2008821186
 30
0.0
 10
32.3616890326
 20
30.4984949734
 30
0.0
 10
32.3616890326
 20
30.7012472053
 30
0.0
  0
SPLINE
  5
3A2
100
AcDbEntity
  8
0
100
AcDbSpline
 62
7
  6
BYLAYER
 70
0
 71
3
 72
15
 73
11
 74
0
 42
0.0000001
 43
0.0000001
 44
0.0000000001
 40
0.0
 40
0.0
 40
0.0
 40
0.0
 40
0.1080123381
 40
0.2180614805
 40
0.3320057003
 40
0.4513563258
 40
0.5772595486
 40
0.7104998709
 40
0.8514745518
 40
1.0
 40
1.0
 40
1.0
 40
1.0
 10
42.3825681568
 20
23.5629787193
 30
0.0
 10
42.4481476875
 20
23.525117218
 30
0.0
 10
42.587395078
 20
23.4599416085
 30
0.0
 10
42.8126809988
 20
23.3976004492
 30
0.0
 10
43.0528541034
 20
23.3708673521
 30
0.0
 10
43.3053264368
 20
23.3796013594
 30
0.0
 10
43.5676923421
 20
23.4236312884
 30
0.0
 10
43.8375536672
 20
23.5022843752
 30
0.0
 10
44.1122495161
 20
23.6147773425
 30
0.0
 10
44.2923541796
 20
23.7090211534
 30
0.0
 10
44.3825308084
 20
23.7610843435
 30
0.0
  0
SPLINE
  5
3A3
100
AcDbEntity
  8
0
100
AcDbSpline
 62
7
  6
BYLAYER
 70
0
 71
3
 72
15
 73
11
 74
0
 42
0.0000001
 43
0.0000001
 44
0.0000000001
 40
0.0
 40
0.0
 40
0.0
 40
0.0
 40
0.1287551044
 40
0.2596265749
 40
0.3909553357
 40
0.5211137022
 40
0.648492951
 40
0.7715960822
 40
0.8891256545
 40
1.0
 40
1.0
 40
1.0
 40
1.0
 10
53.7197624848
 20
46.8911648449
 30
0.0
 10
53.9388612673
 20
46.635763963
 30
0.0
 10
54.3588139609
 20
46.1016354384
 30
0.0
 10
54.9242169186
 20
45.2493415703
 30
0.0
 10
55.4223601495
 20
44.3517962313
 30
0.0
 10
55.8439592211
 20
43.4258607657
 30
0.0
 10
56.1811285972
 20
42.4887007043
 30
0.0
 10
56.4276708863
 20
41.5576649922
 30
0.0
 10
56.5788905146
 20
40.650140503
 30
0.0
 10
56.6154271922
 20
40.0528434467
 30
0.0
 10
56.6154271922
 20
39.7630725121
 30
0.0
  0
SPLINE
  5
3A4
100
AcDbEntity
  8
0
100
AcDbSpline
 62
7
  6
BYLAYER
 70
0
 71
3
 72
13
 73
9
 74
0
 42
0.0000001
 43
0.0000001
 44
0.0000000001
 40
0.0
 40
0.0
 40
0.0
 40
0.0
 40
0.1080841974
 40
0.2182170065
 40
0.3322483999
 40
0.4516832801
 40
0.7106139387
 40
1.0
 40
1.0
 40
1.0
 40
1.0
 10
32.1953426044
 20
47.4654866223
 30
0.0
 10
32.2281299279
 20
47.4844143369
 30
0.0
 10
32.2977418464
 20
47.5170235032
 30
0.0
 10
32.4103953795
 20
47.5481384636
 30
0.0
 10
32.53047646
 20
47.5615477686
 30
0.0
 10
32.7033715591
 20
47.5555579874
 30
0.0
 10
32.9330885479
 20
47.5002010684
 30
0.0
 10
33.1075543645
 20
47.4171194325
 30
0.0
 10
33.1953376923
 20
47.3664388512
 30
0.0
  0
SPLINE
  5
3A5
100
AcDbEntity
  8
0
100
AcDbSpline
 62
7
  6
BYLAYER
 70
0
 71
3
 72
13
 73
9
 74
0
 42
0.0000001
 43
0.0000001
 44
0.0000000001
 40
0.0
 40
0.0
 40
0.0
 40
0.0
 40
0.1080841974
 40
0.2182170065
 40
0.3322483999
 40
0.4516832801
 40
0.7106139387
 40
1.0
 40
1.0
 40
1.0
 40
1.0
 10
45.1353428254
 20
54.9363546382
 30
0.0
 10
45.168130149
 20
54.9552823528
 30
0.0
 10
45.2377420674
 20
54.987891519
 30
0.0
 10
45.3503956005
 20
55.0190064795
 30
0.0
 10
45.470476681
 20
55.0324157845
 30
0.0
 10
45.6433717801
 20
55.0264260033
 30
0.0
 10
45.8730887689
 20
54.9710690843
 30
0.0
 10
46.0475545855
 20
54.8879874484
 30
0.0
 10
46.1353379133
 20
54.837306867
 30
0.0
  0
SPLINE
  5
3A6
100
AcDbEntity
  8
0
100
AcDbSpline
 62
7
  6
BYLAYER
 70
0
 71
3
 72
15
 73
11
 74
0
 42
0.0000001
 43
0.0000001
 44
0.0000000001
 40
0.0
 40
0.0
 40
0.0
 40
0.0
 40
0.1141543519
 40
0.237325601
 40
0.366974755
 40
0.4999984147
 40
0.6330222943
 40
0.7626720931
 40
0.8858443543
 40
1.0
 40
1.0
 40
1.0
 40
1.0
 10
53.7870118433
 20
29.19073159
 30
0.0
 10
53.9806396649
 20
29.3025219976
 30
0.0
 10
54.36308928
 20
29.5706164739
 30
0.0
 10
54.8893190677
 20
30.0629471429
 30
0.0
 10
55.3742682549
 20
30.6449187298
 30
0.0
 10
55.7996709727
 20
31.2946996175
 30
0.0
 10
56.1496935179
 20
31.9880024685
 30
0.0
 10
56.41121939
 20
32.6989710938
 30
0.0
 10
56.5744748804
 20
33.4008707952
 30
0.0
 10
56.6154271922
 20
33.8661335238
 30
0.0
 10
56.6154271922
 20
34.089717874
 30
0.0
  0
SPLINE
  5
3A7
100
AcDbEntity
  8
0
100
AcDbSpline
 62
7
  6
BYLAYER
 70
0
 71
3
 72
11
 73
7
 74
0
 42
0.0000001
 43
0.0000001
 44
0.0000000001
 40
0.0
 40
0.0
 40
0.0
 40
0.0
 40
0.2372428334
 40
0.4999989082
 40
0.7627555772
 40
1.0
 40
1.0
 40
1.0
 40
1.0
 10
32.2202670876
 20
40.3269956897
 30
0.0
 10
32.2403452001
 20
40.3154038483
 30
0.0
 10
32.2783385859
 20
40.2834249819
 30
0.0
 10
32.3226830794
 20
40.2228266975
 30
0.0
 10
32.3529908604
 20
40.1541240917
 30
0.0
 10
32.3616890326
 20
40.1052312869
 30
0.0
 10
32.3616890326
 20
40.0820470554
 30
0.0
  0
SPLINE
  5
3A8
100
AcDbEntity
  8
0
100
AcDbSpline
 62
7
  6
BYLAYER
 70
0
 71
3
 72
14
 73
10
 74
0
 42
0.0000001
 43
0.0000001
 44
0.0000000001
 40
0.0
 40
0.0
 40
0.0
 40
0.0
 40
0.2892633979
 40
0.4225629345
 40
0.5485077999
 40
0.6678904832
 40
0.7818704106
 40
0.8919552009
 40
1.0
 40
1.0
 40
1.0
 40
1.0
 10
39.1322646509
 20
32.5078589007
 30
0.0
 10
39.1322646509
 20
32.3520049258
 30
0.0
 10
39.1140597142
 20
32.1232112121
 30
0.0
 10
39.0437306576
 20
31.8356490368
 30
0.0
 10
38.9721809121
 20
31.6440232572
 30
0.0
 10
38.8809488971
 20
31.4725815716
 30
0.0
 10
38.7708180118
 20
31.3229692228
 30
0.0
 10
38.6427370088
 20
31.1969184747
 30
0.0
 10
38.545802196
 20
31.1292881505
 30
0.0
 10
38.495390159
 20
31.1001761395
 30
0.0
  0
SPLINE
  5
3A9
100
AcDbEntity
  8
0
100
AcDbSpline
 62
7
  6
BYLAYER
 70
0
 71
3
 72
15
 73
11
 74
0
 42
0.0000001
 43
0.0000001
 44
0.0000000001
 40
0.0
 40
0.0
 40
0.0
 40
0.0
 40
0.1287551044
 40
0.2596265749
 40
0.3909553357
 40
0.5211137022
 40
0.648492951
 40
0.7715960822
 40
0.8891256545
 40
1.0
 40
1.0
 40
1.0
 40
1.0
 10
40.7797622637
 20
39.4202968291
 30
0.0
 10
40.9988610463
 20
39.1648959472
 30
0.0
 10
41.4188137399
 20
38.6307674225
 30
0.0
 10
41.9842166976
 20
37.7784735545
 30
0.0
 10
42.4823599285
 20
36.8809282155
 30
0.0
 10
42.9039590001
 20
35.9549927499
 30
0.0
 10
43.2411283762
 20
35.0178326884
 30
0.0
 10
43.4876706653
 20
34.0867969764
 30
0.0
 10
43.6388902936
 20
33.1792724871
 30
0.0
 10
43.6754269712
 20
32.5819754308
 30
0.0
 10
43.6754269712
 20
32.2922044963
 30
0.0
  0
SPLINE
  5
3AA
100
AcDbEntity
  8
0
100
AcDbSpline
 62
7
  6
BYLAYER
 70
0
 71
3
 72
15
 73
11
 74
0
 42
0.0000001
 43
0.0000001
 44
0.0000000001
 40
0.0
 40
0.0
 40
0.0
 40
0.0
 40
0.1141464977
 40
0.2373352781
 40
0.3669759338
 40
0.4999994786
 40
0.633023096
 40
0.7626639634
 40
0.8858530776
 40
1.0
 40
1.0
 40
1.0
 40
1.0
 10
29.2857520131
 20
33.0077921692
 30
0.0
 10
29.3825589631
 20
33.0636833542
 30
0.0
 10
29.5942726247
 20
33.1622564325
 30
0.0
 10
29.9390098752
 20
33.2670581252
 30
0.0
 10
30.3122604358
 20
33.3315287333
 30
0.0
 10
30.6999631905
 20
33.3533075702
 30
0.0
 10
31.0876662552
 20
33.3315305735
 30
0.0
 10
31.4609177314
 20
33.2670617376
 30
0.0
 10
31.8056564661
 20
33.1622616836
 30
0.0
 10
32.0173714247
 20
33.0636896627
 30
0.0
 10
32.1141791379
 20
33.0077989679
 30
0.0
  0
SPLINE
  5
3AB
100
AcDbEntity
  8
0
100
AcDbSpline
 62
7
  6
BYLAYER
 70
0
 71
3
 72
15
 73
11
 74
0
 42
0.0000001
 43
0.0000001
 44
0.0000000001
 40
0.0
 40
0.0
 40
0.0
 40
0.0
 40
0.1141242661
 40
0.2373486253
 40
0.3669740476
 40
0.5000015346
 40
0.6330288076
 40
0.7626536034
 40
0.8858770013
 40
1.0
 40
1.0
 40
1.0
 40
1.0
 10
54.4941156805
 20
32.8649854124
 30
0.0
 10
54.4941156805
 20
32.8091049237
 30
0.0
 10
54.4838553303
 20
32.692782444
 30
0.0
 10
54.4430735923
 20
32.5173027797
 30
0.0
 10
54.3776646824
 20
32.3395546422
 30
0.0
 10
54.2901807787
 20
32.1662285341
 30
0.0
 10
54.1838189007
 20
32.0038019184
 30
0.0
 10
54.0625901332
 20
31.8582822265
 30
0.0
 10
53.9310124775
 20
31.7352249912
 30
0.0
 10
53.8354053009
 20
31.6681786504
 30
0.0
 10
53.7870118433
 20
31.6402388414
 30
0.0
  0
SPLINE
  5
3AC
100
AcDbEntity
  8
0
100
AcDbSpline
 62
7
  6
BYLAYER
 70
0
 71
3
 72
15
 73
11
 74
0
 42
0.0000001
 43
0.0000001
 44
0.0000000001
 40
0.0
 40
0.0
 40
0.0
 40
0.0
 40
0.1141236058
 40
0.2373475862
 40
0.3669728832
 40
0.5000004526
 40
0.6330279586
 40
0.7626530685
 40
0.8858767805
 40
1.0
 40
1.0
 40
1.0
 40
1.0
 10
25.3966750205
 20
31.5789342313
 30
0.0
 10
25.4450688769
 20
31.5509946574
 30
0.0
 10
25.5509371632
 20
31.5017204651
 30
0.0
 10
25.7232975769
 20
31.4493004271
 30
0.0
 10
25.9099362298
 20
31.4170736174
 30
0.0
 10
26.1037828968
 20
31.4061749837
 30
0.0
 10
26.2976294218
 20
31.4170745153
 30
0.0
 10
26.4842676695
 20
31.4493021977
 30
0.0
 10
26.6566274002
 20
31.5017230758
 30
0.0
 10
26.7624950918
 20
31.5509978023
 30
0.0
 10
26.8108885829
 20
31.5789376307
 30
0.0
  0
SPLINE
  5
3AD
100
AcDbEntity
  8
0
100
AcDbSpline
 62
7
  6
BYLAYER
 70
0
 71
3
 72
11
 73
7
 74
0
 42
0.0000001
 43
0.0000001
 44
0.0000000001
 40
0.0
 40
0.0
 40
0.0
 40
0.0
 40
0.289702809
 40
0.549088757
 40
0.7822160314
 40
1.0
 40
1.0
 40
1.0
 40
1.0
 10
44.3825308084
 20
26.2105915949
 30
0.0
 10
44.338652607
 20
26.1852586548
 30
0.0
 10
44.2513647276
 20
26.1437332757
 30
0.0
 10
44.1172013754
 20
26.1113340407
 30
0.0
 10
43.991316759
 20
26.1145203404
 30
0.0
 10
43.9155273424
 20
26.1420242393
 30
0.0
 10
43.8825417868
 20
26.1610680317
 30
0.0
  0
SPLINE
  5
3AE
100
AcDbEntity
  8
0
100
AcDbSpline
 62
7
  6
BYLAYER
 70
0
 71
3
 72
15
 73
11
 74
0
 42
0.0000001
 43
0.0000001
 44
0.0000000001
 40
0.0
 40
0.0
 40
0.0
 40
0.0
 40
0.1485262567
 40
0.2895015863
 40
0.4227423164
 40
0.5486456673
 40
0.6679961316
 40
0.7819399209
 40
0.8919884213
 40
1.0
 40
1.0
 40
1.0
 40
1.0
 10
41.5541154595
 20
25.3941173966
 30
0.0
 10
41.5541154595
 20
25.2899858491
 30
0.0
 10
41.562550169
 20
25.0868796196
 30
0.0
 10
41.6024776238
 20
24.7927265047
 30
0.0
 10
41.6692954387
 20
24.5196815038
 30
0.0
 10
41.7623514345
 20
24.2704409443
 30
0.0
 10
41.8810290955
 20
24.0474183118
 30
0.0
 10
42.0242737412
 20
23.8527827765
 30
0.0
 10
42.1909133407
 20
23.688846283
 30
0.0
 10
42.3169864834
 20
23.6008414576
 30
0.0
 10
42.3825681568
 20
23.5629787193
 30
0.0
  0
SPLINE
  5
3AF
100
AcDbEntity
  8
0
100
AcDbSpline
 62
7
  6
BYLAYER
 70
0
 71
3
 72
9
 73
5
 74
0
 42
0.0000001
 43
0.0000001
 44
0.0000000001
 40
0.0
 40
0.0
 40
0.0
 40
0.0
 40
0.4903042648
 40
1.0
 40
1.0
 40
1.0
 40
1.0
 10
38.3352703607
 20
31.0252515762
 30
0.0
 10
38.2751312439
 20
31.0031309603
 30
0.0
 10
38.1481273413
 20
30.9691825866
 30
0.0
 10
38.0173394776
 20
30.957296335
 30
0.0
 10
37.9507345216
 20
30.9562845031
 30
0.0
  0
SPLINE
  5
3B0
100
AcDbEntity
  8
0
100
AcDbSpline
 62
7
  6
BYLAYER
 70
0
 71
3
 72
13
 73
9
 74
0
 42
0.0000001
 43
0.0000001
 44
0.0000000001
 40
0.0
 40
0.0
 40
0.0
 40
0.0
 40
0.2893860865
 40
0.5483167756
 40
0.6677516453
 40
0.7817830245
 40
0.8919158241
 40
1.0
 40
1.0
 40
1.0
 40
1.0
 10
31.0740261807
 20
46.1417063895
 30
0.0
 10
30.9862428454
 20
46.1923869752
 30
0.0
 10
30.8117770061
 20
46.2754686106
 30
0.0
 10
30.5820600027
 20
46.3308255264
 30
0.0
 10
30.4091649008
 20
46.3368153141
 30
0.0
 10
30.2890838354
 20
46.3234059867
 30
0.0
 10
30.1764303167
 20
46.2922910374
 30
0.0
 10
30.1068184093
 20
46.2596818724
 30
0.0
 10
30.0740310927
 20
46.2407541609
 30
0.0
  0
SPLINE
  5
3B1
100
AcDbEntity
  8
0
100
AcDbSpline
 62
7
  6
BYLAYER
 70
0
 71
3
 72
15
 73
11
 74
0
 42
0.0000001
 43
0.0000001
 44
0.0000000001
 40
0.0
 40
0.0
 40
0.0
 40
0.0
 40
0.1108743455
 40
0.2284039178
 40
0.351507049
 40
0.4788862978
 40
0.6090446643
 40
0.7403734251
 40
0.8712448956
 40
1.0
 40
1.0
 40
1.0
 40
1.0
 10
41.5541154595
 20
31.0674720346
 30
0.0
 10
41.5541154595
 20
31.3572429692
 30
0.0
 10
41.5175787819
 20
31.9545400255
 30
0.0
 10
41.3663591536
 20
32.8620645148
 30
0.0
 10
41.1198168646
 20
33.7931002268
 30
0.0
 10
40.7826474885
 20
34.7302602883
 30
0.0
 10
40.3610484169
 20
35.6561957539
 30
0.0
 10
39.862905186
 20
36.5537410929
 30
0.0
 10
39.2975022283
 20
37.4060349609
 30
0.0
 10
38.8775495347
 20
37.9401634856
 30
0.0
 10
38.6584507521
 20
38.1955643675
 30
0.0
  0
SPLINE
  5
3B2
100
AcDbEntity
  8
0
100
AcDbSpline
 62
7
  6
BYLAYER
 70
0
 71
3
 72
9
 73
5
 74
0
 42
0.0000001
 43
0.0000001
 44
0.0000000001
 40
0.0
 40
0.0
 40
0.0
 40
0.0
 40
0.5089298052
 40
1.0
 40
1.0
 40
1.0
 40
1.0
 10
35.03664115
 20
36.0480274141
 30
0.0
 10
35.0699065474
 20
36.1012954645
 30
0.0
 10
35.1429616004
 20
36.2014224346
 30
0.0
 10
35.231327979
 20
36.2884981265
 30
0.0
 10
35.278011698
 20
36.3271341814
 30
0.0
  0
SPLINE
  5
3B3
100
AcDbEntity
  8
0
100
AcDbSpline
 62
7
  6
BYLAYER
 70
0
 71
3
 72
11
 73
7
 74
0
 42
0.0000001
 43
0.0000001
 44
0.0000000001
 40
0.0
 40
0.0
 40
0.0
 40
0.0
 40
0.2177817009
 40
0.4509079353
 40
0.7102947134
 40
1.0
 40
1.0
 40
1.0
 40
1.0
 10
7.4260407189
 20
42.1931972482
 30
0.0
 10
7.426040726
 20
42.1551088344
 30
0.0
 10
7.4401162812
 20
42.0757205238
 30
0.0
 10
7.5003008451
 20
41.9651072057
 30
0.0
 10
7.5954440832
 20
41.8651173049
 30
0.0
 10
7.6750524586
 20
41.8102863238
 30
0.0
 10
7.7189318919
 20
41.7849530943
 30
0.0
  0
SPLINE
  5
3B4
100
AcDbEntity
  8
0
100
AcDbSpline
 62
7
  6
BYLAYER
 70
0
 71
3
 72
11
 73
7
 74
0
 42
0.0000001
 43
0.0000001
 44
0.0000000001
 40
0.0
 40
0.0
 40
0.0
 40
0.0
 40
0.2350381995
 40
0.4765287953
 40
0.7301038841
 40
1.0
 40
1.0
 40
1.0
 40
1.0
 10
15.9537097159
 20
42.1932397402
 30
0.0
 10
15.9537096981
 20
42.4266227448
 30
0.0
 10
16.0033905209
 20
42.9011603921
 30
0.0
 10
16.2239681634
 20
43.5963932406
 30
0.0
 10
16.5857612416
 20
44.2686678905
 30
0.0
 10
16.9057758783
 20
44.6813184186
 30
0.0
 10
17.0843957042
 20
44.881109598
 30
0.0
  0
SPLINE
  5
3B5
100
AcDbEntity
  8
0
100
AcDbSpline
 62
7
  6
BYLAYER
 70
0
 71
3
 72
10
 73
6
 74
0
 42
0.0000001
 43
0.0000001
 44
0.0000000001
 40
0.0
 40
0.0
 40
0.0
 40
0.0
 40
0.2767570353
 40
0.535616265
 40
1.0
 40
1.0
 40
1.0
 40
1.0
 10
44.0140264017
 20
53.6125744054
 30
0.0
 10
43.9576803145
 20
53.6451050981
 30
0.0
 10
43.8451464323
 20
53.7024889357
 30
0.0
 10
43.6243234398
 20
53.7835324846
 30
0.0
 10
43.4523602444
 20
53.8093487454
 30
0.0
 10
43.3432988503
 20
53.8044483545
 30
0.0
  0
SPLINE
  5
3B6
100
AcDbEntity
  8
0
100
AcDbSpline
 62
7
  6
BYLAYER
 70
0
 71
3
 72
15
 73
11
 74
0
 42
0.0000001
 43
0.0000001
 44
0.0000000001
 40
0.0
 40
0.0
 40
0.0
 40
0.0
 40
0.1108743455
 40
0.2284039178
 40
0.351507049
 40
0.4788862978
 40
0.6090446643
 40
0.7403734251
 40
0.8712448956
 40
1.0
 40
1.0
 40
1.0
 40
1.0
 10
54.4941156805
 20
38.5383400505
 30
0.0
 10
54.4941156805
 20
38.828110985
 30
0.0
 10
54.457579003
 20
39.4254080414
 30
0.0
 10
54.3063593746
 20
40.3329325306
 30
0.0
 10
54.0598170856
 20
41.2639682427
 30
0.0
 10
53.7226477095
 20
42.2011283041
 30
0.0
 10
53.3010486379
 20
43.1270637697
 30
0.0
 10
52.802905407
 20
44.0246091087
 30
0.0
 10
52.2375024493
 20
44.8769029767
 30
0.0
 10
51.8175497557
 20
45.4110315014
 30
0.0
 10
51.5984509731
 20
45.6664323833
 30
0.0
  0
SPLINE
  5
3B7
100
AcDbEntity
  8
0
100
AcDbSpline
 62
7
  6
BYLAYER
 70
0
 71
3
 72
27
 73
23
 74
0
 42
0.0000001
 43
0.0000001
 44
0.0000000001
 40
0.0
 40
0.0
 40
0.0
 40
0.0
 40
0.0214633354
 40
0.0431939634
 40
0.0654422557
 40
0.0884293055
 40
0.1123383682
 40
0.1373102057
 40
0.1907474579
 40
0.2193470513
 40
0.2491800826
 40
0.3123442181
 40
0.3797053344
 40
0.4504042929
 40
0.5233843408
 40
0.5974650182
 40
0.6714096773
 40
0.7439864372
 40
0.814037027
 40
0.8805403006
 40
0.942697873
 40
1.0
 40
1.0
 40
1.0
 40
1.0
 10
27.0606172476
 20
74.7311319189
 30
0.0
 10
27.1666396977
 20
74.7923407328
 30
0.0
 10
27.3888109274
 20
74.9009312184
 30
0.0
 10
27.7444021526
 20
75.0179086429
 30
0.0
 10
28.1207744496
 20
75.0889470834
 30
0.0
 10
28.5153256408
 20
75.1135900867
 30
0.0
 10
28.9255282164
 20
75.0919122329
 30
0.0
 10
29.5026727593
 20
74.9995738944
 30
0.0
 10
30.0882616175
 20
74.814328203
 30
0.0
 10
30.670133963
 20
74.5516461897
 30
0.0
 10
31.2800649252
 20
74.2201992217
 30
0.0
 10
32.036482723
 20
73.7012208156
 30
0.0
 10
32.9023637113
 20
72.9444890915
 30
0.0
 10
33.722483176
 20
72.060581784
 30
0.0
 10
34.4766125974
 20
71.0713751409
 30
0.0
 10
35.1461853332
 20
70.0012614242
 30
0.0
 10
35.714611502
 20
68.8767301021
 30
0.0
 10
36.1678569331
 20
67.7255940439
 30
0.0
 10
36.4946795385
 20
66.576274828
 30
0.0
 10
36.6870460785
 20
65.4567898932
 30
0.0
 10
36.7400097847
 20
64.3947310106
 30
0.0
 10
36.6784609082
 20
63.7129066607
 30
0.0
 10
36.6209335469
 20
63.3911694195
 30
0.0
  0
SPLINE
  5
3B8
100
AcDbEntity
  8
0
100
AcDbSpline
 62
7
  6
BYLAYER
 70
0
 71
3
 72
11
 73
7
 74
0
 42
0.0000001
 43
0.0000001
 44
0.0000000001
 40
0.0
 40
0.0
 40
0.0
 40
0.0
 40
0.2294861542
 40
0.4681006774
 40
0.7233029195
 40
1.0
 40
1.0
 40
1.0
 40
1.0
 10
17.6055151957
 20
64.6534888141
 30
0.0
 10
17.702216708
 20
64.7093154741
 30
0.0
 10
17.914883925
 20
64.7983554606
 30
0.0
 10
18.2656870938
 20
64.8522867972
 30
0.0
 10
18.6422961203
 20
64.8284213692
 30
0.0
 10
18.8945744225
 20
64.7645765444
 30
0.0
 10
19.022270288
 20
64.7219256697
 30
0.0
  0
SPLINE
  5
3B9
100
AcDbEntity
  8
0
100
AcDbSpline
 62
7
  6
BYLAYER
 70
0
 71
3
 72
9
 73
5
 74
0
 42
0.0000001
 43
0.0000001
 44
0.0000000001
 40
0.0
 40
0.0
 40
0.0
 40
0.0
 40
0.2441239656
 40
1.0
 40
1.0
 40
1.0
 40
1.0
 10
19.022270288
 20
64.7219256697
 30
0.0
 10
19.0485140488
 20
64.71316016
 30
0.0
 10
19.1554565783
 20
64.6755908305
 30
0.0
 10
19.2601120664
 20
64.6315930001
 30
0.0
 10
19.3377208167
 20
64.5953114266
 30
0.0
  0
SPLINE
  5
3BA
100
AcDbEntity
  8
0
100
AcDbSpline
 62
7
  6
BYLAYER
 70
0
 71
3
 72
15
 73
11
 74
0
 42
0.0000001
 43
0.0000001
 44
0.0000000001
 40
0.0
 40
0.0
 40
0.0
 40
0.0
 40
0.1141540665
 40
0.2373241489
 40
0.3669721401
 40
0.499995094
 40
0.633018716
 40
0.7626666501
 40
0.8858388605
 40
1.0
 40
1.0
 40
1.0
 40
1.0
 10
19.0399100718
 20
64.7819401431
 30
0.0
 10
19.2722528993
 20
64.6477851668
 30
0.0
 10
19.7311830581
 20
64.3260855881
 30
0.0
 10
20.3626388363
 20
63.7352998918
 30
0.0
 10
20.9445646331
 20
63.036956053
 30
0.0
 10
21.4550377384
 20
62.25723979
 30
0.0
 10
21.8750585682
 20
61.4253015281
 30
0.0
 10
22.1888868384
 20
60.5721610952
 30
0.0
 10
22.3847899738
 20
59.7298932272
 30
0.0
 10
22.433970974
 20
59.1715754209
 30
0.0
 10
22.4339450348
 20
58.9032665192
 30
0.0
  0
SPLINE
  5
3BB
100
AcDbEntity
  8
0
100
AcDbSpline
 62
7
  6
BYLAYER
 70
0
 71
3
 72
9
 73
5
 74
0
 42
0.0000001
 43
0.0000001
 44
0.0000000001
 40
0.0
 40
0.0
 40
0.0
 40
0.0
 40
0.2542647316
 40
1.0
 40
1.0
 40
1.0
 40
1.0
 10
22.4177572559
 20
59.217076946
 30
0.0
 10
22.415804295
 20
59.1971869296
 30
0.0
 10
22.4073898416
 20
59.1190359188
 30
0.0
 10
22.3959958832
 20
59.0411991214
 30
0.0
 10
22.3856788057
 20
58.9834980907
 30
0.0
  0
SPLINE
  5
3BC
100
AcDbEntity
  8
0
100
AcDbSpline
 62
7
  6
BYLAYER
 70
0
 71
3
 72
24
 73
20
 74
0
 42
0.0000001
 43
0.0000001
 44
0.0000000001
 40
0.0
 40
0.0
 40
0.0
 40
0.0
 40
0.0216544015
 40
0.0434586793
 40
0.0880326171
 40
0.1347997821
 40
0.1845353141
 40
0.2377361613
 40
0.2946365317
 40
0.3552411963
 40
0.4193652087
 40
0.4866734717
 40
0.5567110706
 40
0.6289285018
 40
0.7027124702
 40
0.7774008284
 40
0.85229887
 40
0.9267423349
 40
1.0
 40
1.0
 40
1.0
 40
1.0
 10
18.0096848408
 20
69.5056124806
 30
0.0
 10
18.088410014
 20
69.5510672593
 30
0.0
 10
18.2512141491
 20
69.6342606906
 30
0.0
 10
18.5961686826
 20
69.7682900556
 30
0.0
 10
19.062940675
 20
69.8724967901
 30
0.0
 10
19.6577770476
 20
69.8927075749
 30
0.0
 10
20.2833579629
 20
69.8104366307
 30
0.0
 10
20.9310870506
 20
69.6277182884
 30
0.0
 10
21.5925002067
 20
69.3476387783
 30
0.0
 10
22.2588804982
 20
68.9742944115
 30
0.0
 10
22.9213838757
 20
68.5129338683
 30
0.0
 10
23.5710888753
 20
67.9698909236
 30
0.0
 10
24.1991429064
 20
67.352590431
 30
0.0
 10
24.796988202
 20
66.66953054
 30
0.0
 10
25.3564147722
 20
65.9300917627
 30
0.0
 10
25.8696959047
 20
65.144466845
 30
0.0
 10
26.3298465308
 20
64.3234025919
 30
0.0
 10
26.7303588319
 20
63.4783397394
 30
0.0
 10
26.9565364498
 20
62.9003452698
 30
0.0
 10
27.0580014262
 20
62.6100290761
 30
0.0
  0
SPLINE
  5
3BD
100
AcDbEntity
  8
0
100
AcDbSpline
 62
7
  6
BYLAYER
 70
0
 71
3
 72
13
 73
9
 74
0
 42
0.0000001
 43
0.0000001
 44
0.0000000001
 40
0.0
 40
0.0
 40
0.0
 40
0.0
 40
0.1136036376
 40
0.2284753105
 40
0.3458000712
 40
0.4666406104
 40
0.7220491497
 40
1.0
 40
1.0
 40
1.0
 40
1.0
 10
15.0398517551
 20
67.7909817687
 30
0.0
 10
14.939666998
 20
67.7331434408
 30
0.0
 10
14.7455364857
 20
67.6035136742
 30
0.0
 10
14.4797108575
 20
67.3712107636
 30
0.0
 10
14.2398969294
 20
67.1021692391
 30
0.0
 10
13.9515912404
 20
66.6892274562
 30
0.0
 10
13.6654827502
 20
66.0819724106
 30
0.0
 10
13.5292952789
 20
65.5531711849
 30
0.0
 10
13.4794780011
 20
65.2745546595
 30
0.0
  0
SPLINE
  5
3BE
100
AcDbEntity
  8
0
100
AcDbSpline
 62
7
  6
BYLAYER
 70
0
 71
3
 72
12
 73
8
 74
0
 42
0.0000001
 43
0.0000001
 44
0.0000000001
 40
0.0
 40
0.0
 40
0.0
 40
0.0
 40
0.2160534597
 40
0.3331654089
 40
0.4561660361
 40
0.7186527328
 40
1.0
 40
1.0
 40
1.0
 40
1.0
 10
23.3945845751
 20
49.0878195132
 30
0.0
 10
23.5704181519
 20
49.0578044148
 30
0.0
 10
23.8363965912
 20
48.9777336592
 30
0.0
 10
24.1787728174
 20
48.8203602991
 30
0.0
 10
24.5400221931
 20
48.6151402158
 30
0.0
 10
24.9846826895
 20
48.2871008628
 30
0.0
 10
25.3087715501
 20
47.9745060222
 30
0.0
 10
25.4664448193
 20
47.8039327185
 30
0.0
  0
SPLINE
  5
3BF
100
AcDbEntity
  8
0
100
AcDbSpline
 62
7
  6
BYLAYER
 70
0
 71
3
 72
11
 73
7
 74
0
 42
0.0000001
 43
0.0000001
 44
0.0000000001
 40
0.0
 40
0.0
 40
0.0
 40
0.0
 40
0.2803904836
 40
0.5421332459
 40
0.7822759987
 40
1.0
 40
1.0
 40
1.0
 40
1.0
 10
20.0141031779
 20
50.3737077793
 30
0.0
 10
20.1450993997
 20
50.2412231913
 30
0.0
 10
20.4127563361
 20
49.9986607313
 30
0.0
 10
20.8402377142
 20
49.7001324753
 30
0.0
 10
21.2699168197
 20
49.4860753087
 30
0.0
 10
21.564321745
 20
49.4002485717
 30
0.0
 10
21.7069307408
 20
49.3759049673
 30
0.0
  0
SPLINE
  5
3C0
100
AcDbEntity
  8
0
100
AcDbSpline
 62
7
  6
BYLAYER
 70
0
 71
3
 72
9
 73
5
 74
0
 42
0.0000001
 43
0.0000001
 44
0.0000000001
 40
0.0
 40
0.0
 40
0.0
 40
0.0
 40
0.244184089
 40
1.0
 40
1.0
 40
1.0
 40
1.0
 10
50.5949046492
 20
46.0087207699
 30
0.0
 10
50.6733090935
 20
45.9437931242
 30
0.0
 10
50.9897466969
 20
45.6723087507
 30
0.0
 10
51.2877111924
 20
45.3794755291
 30
0.0
 10
51.5023680278
 20
45.1488115314
 30
0.0
  0
SPLINE
  5
3C1
100
AcDbEntity
  8
0
100
AcDbSpline
 62
7
  6
BYLAYER
 70
0
 71
3
 72
15
 73
11
 74
0
 42
0.0000001
 43
0.0000001
 44
0.0000000001
 40
0.0
 40
0.0
 40
0.0
 40
0.0
 40
0.1318556964
 40
0.2662516587
 40
0.4008138186
 40
0.5331594858
 40
0.6610275134
 40
0.7824161661
 40
0.8957374683
 40
1.0
 40
1.0
 40
1.0
 40
1.0
 10
51.683074794
 20
44.9496191386
 30
0.0
 10
51.9302475394
 20
44.6701709074
 30
0.0
 10
52.4005551715
 20
44.0798149306
 30
0.0
 10
53.0200687706
 20
43.1280150938
 30
0.0
 10
53.5484497478
 20
42.1210626489
 30
0.0
 10
53.9717334422
 20
41.0854799977
 30
0.0
 10
54.278866335
 20
40.0483553665
 30
0.0
 10
54.461759555
 20
39.0365235592
 30
0.0
 10
54.515558642
 20
38.0763996969
 30
0.0
 10
54.4615763255
 20
37.4600458445
 30
0.0
 10
54.4096525605
 20
37.1696482228
 30
0.0
  0
SPLINE
  5
3C2
100
AcDbEntity
  8
0
100
AcDbSpline
 62
7
  6
BYLAYER
 70
0
 71
3
 72
13
 73
9
 74
0
 42
0.0000001
 43
0.0000001
 44
0.0000000001
 40
0.0
 40
0.0
 40
0.0
 40
0.0
 40
0.2779670966
 40
0.5333525135
 40
0.6542019879
 40
0.7715322043
 40
0.8863942701
 40
1.0
 40
1.0
 40
1.0
 40
1.0
 10
54.4096525605
 20
37.1696482228
 30
0.0
 10
54.3660597975
 20
36.925843971
 30
0.0
 10
54.2469081269
 20
36.463146287
 30
0.0
 10
53.9965601513
 20
35.9317902323
 30
0.0
 10
53.7442658287
 20
35.5704971195
 30
0.0
 10
53.5344687088
 20
35.3350418602
 30
0.0
 10
53.3018405375
 20
35.1318126825
 30
0.0
 10
53.1319979854
 20
35.0183684905
 30
0.0
 10
53.0443357332
 20
34.9677567961
 30
0.0
  0
SPLINE
  5
3C3
100
AcDbEntity
  8
0
100
AcDbSpline
 62
7
  6
BYLAYER
 70
0
 71
3
 72
11
 73
7
 74
0
 42
0.0000001
 43
0.0000001
 44
0.0000000001
 40
0.0
 40
0.0
 40
0.0
 40
0.0
 40
0.276868324
 40
0.5321518617
 40
0.7706567503
 40
1.0
 40
1.0
 40
1.0
 40
1.0
 10
22.3745666396
 20
58.9250120772
 30
0.0
 10
22.3478450794
 20
58.7923045283
 30
0.0
 10
22.2772687599
 20
58.5403783515
 30
0.0
 10
22.1095502867
 20
58.2001771667
 30
0.0
 10
21.8867671578
 20
57.9217460381
 30
0.0
 10
21.7026101841
 20
57.7813394676
 30
0.0
 10
21.6054972591
 20
57.7252752953
 30
0.0
  0
SPLINE
  5
3C4
100
AcDbEntity
  8
0
100
AcDbSpline
 62
7
  6
BYLAYER
 70
0
 71
3
 72
27
 73
23
 74
0
 42
0.0000001
 43
0.0000001
 44
0.0000000001
 40
0.0
 40
0.0
 40
0.0
 40
0.0
 40
0.0573014403
 40
0.1194582313
 40
0.1859615323
 40
0.2560125105
 40
0.3285901961
 40
0.4025361101
 40
0.4766180992
 40
0.5495992021
 40
0.6202987305
 40
0.6876598866
 40
0.7508235911
 40
0.7806562682
 40
0.8092554229
 40
0.8626917194
 40
0.8876631148
 40
0.9115717483
 40
0.9345584341
 40
0.956806432
 40
0.9785368186
 40
1.0
 40
1.0
 40
1.0
 40
1.0
 10
13.4794780011
 20
65.2745546595
 30
0.0
 10
13.4219513274
 20
64.9528212641
 30
0.0
 10
13.3604009262
 20
64.2710055135
 30
0.0
 10
13.4133636235
 20
63.2089547782
 30
0.0
 10
13.6057258549
 20
62.089471225
 30
0.0
 10
13.9325497004
 20
60.940144251
 30
0.0
 10
14.3857996795
 20
59.788994172
 30
0.0
 10
14.9542355492
 20
58.6644452779
 30
0.0
 10
15.6238216041
 20
57.5943153752
 30
0.0
 10
16.3779649613
 20
56.6050981298
 30
0.0
 10
17.198095421
 20
55.7211879582
 30
0.0
 10
18.0639819475
 20
54.9644607909
 30
0.0
 10
18.820400665
 20
54.4454912525
 30
0.0
 10
19.4303277751
 20
54.1140517516
 30
0.0
 10
20.0121938909
 20
53.8513800139
 30
0.0
 10
20.597774108
 20
53.6661426451
 30
0.0
 10
21.1749087926
 20
53.5738085874
 30
0.0
 10
21.5851045256
 20
53.5521341316
 30
0.0
 10
21.9796492757
 20
53.5767788877
 30
0.0
 10
22.356016603
 20
53.6478162028
 30
0.0
 10
22.7116033556
 20
53.7647946193
 30
0.0
 10
22.9337727421
 20
53.8733835341
 30
0.0
 10
23.0397945603
 20
53.9345916945
 30
0.0
  0
SPLINE
  5
3C5
100
AcDbEntity
  8
0
100
AcDbSpline
 62
7
  6
BYLAYER
 70
0
 71
3
 72
9
 73
5
 74
0
 42
0.0000001
 43
0.0000001
 44
0.0000000001
 40
0.0
 40
0.0
 40
0.0
 40
0.0
 40
0.4966020552
 40
1.0
 40
1.0
 40
1.0
 40
1.0
 10
21.6054972591
 20
57.7252752953
 30
0.0
 10
21.549771736
 20
57.6931044455
 30
0.0
 10
21.4326861324
 20
57.6364284708
 30
0.0
 10
21.3087439979
 20
57.5970538033
 30
0.0
 10
21.2453831681
 20
57.581568448
 30
0.0
  0
SPLINE
  5
3C6
100
AcDbEntity
  8
0
100
AcDbSpline
 62
7
  6
BYLAYER
 70
0
 71
3
 72
9
 73
5
 74
0
 42
0.0000001
 43
0.0000001
 44
0.0000000001
 40
0.0
 40
0.0
 40
0.0
 40
0.0
 40
0.2439262762
 40
1.0
 40
1.0
 40
1.0
 40
1.0
 10
19.9783346255
 20
57.7366340365
 30
0.0
 10
19.9494530226
 20
57.748874969
 30
0.0
 10
19.8318252102
 20
57.800876601
 30
0.0
 10
19.7173342225
 20
57.8599009139
 30
0.0
 10
19.6327261258
 20
57.9078085842
 30
0.0
  0
SPLINE
  5
3C7
100
AcDbEntity
  8
0
100
AcDbSpline
 62
7
  6
BYLAYER
 70
0
 71
3
 72
9
 73
5
 74
0
 42
0.0000001
 43
0.0000001
 44
0.0000000001
 40
0.0
 40
0.0
 40
0.0
 40
0.0
 40
0.255231568
 40
1.0
 40
1.0
 40
1.0
 40
1.0
 10
16.777211954
 20
62.8545028109
 30
0.0
 10
16.7774568145
 20
62.882620727
 30
0.0
 10
16.7796684083
 20
62.9927705479
 30
0.0
 10
16.786965496
 20
63.102834003
 30
0.0
 10
16.7955710868
 20
63.184432966
 30
0.0
  0
SPLINE
  5
3C8
100
AcDbEntity
  8
0
100
AcDbSpline
 62
7
  6
BYLAYER
 70
0
 71
3
 72
13
 73
9
 74
0
 42
0.0000001
 43
0.0000001
 44
0.0000000001
 40
0.0
 40
0.0
 40
0.0
 40
0.0
 40
0.277955902
 40
0.5333539206
 40
0.6541964342
 40
0.7715238288
 40
0.8863952802
 40
1.0
 40
1.0
 40
1.0
 40
1.0
 10
25.6608240701
 20
57.0633850345
 30
0.0
 10
25.6110058165
 20
56.784763052
 30
0.0
 10
25.4748271416
 20
56.2559651773
 30
0.0
 10
25.1887204024
 20
55.648709662
 30
0.0
 10
24.9004062676
 20
55.2357819365
 30
0.0
 10
24.660609303
 20
54.9667181924
 30
0.0
 10
24.3947665411
 20
54.7344269388
 30
0.0
 10
24.2006360169
 20
54.604797133
 30
0.0
 10
24.1004522491
 20
54.546954561
 30
0.0
  0
SPLINE
  5
3C9
100
AcDbEntity
  8
0
100
AcDbSpline
 62
7
  6
BYLAYER
 70
0
 71
3
 72
11
 73
7
 74
0
 42
0.0000001
 43
0.0000001
 44
0.0000000001
 40
0.0
 40
0.0
 40
0.0
 40
0.0
 40
0.2738821938
 40
0.5338858883
 40
0.77662867
 40
1.0
 40
1.0
 40
1.0
 40
1.0
 10
25.1488210658
 20
61.5077698606
 30
0.0
 10
25.2849064136
 20
61.1183962895
 30
0.0
 10
25.5131039594
 20
60.345661832
 30
0.0
 10
25.7208584592
 20
59.1920436968
 30
0.0
 10
25.7817226393
 20
58.0972923621
 30
0.0
 10
25.7200340465
 20
57.394532753
 30
0.0
 10
25.6608240701
 20
57.0633850345
 30
0.0
  0
SPLINE
  5
3CA
100
AcDbEntity
  8
0
100
AcDbSpline
 62
7
  6
BYLAYER
 70
0
 71
3
 72
20
 73
16
 74
0
 42
0.0000001
 43
0.0000001
 44
0.0000000001
 40
0.0
 40
0.0
 40
0.0
 40
0.0
 40
0.0516500598
 40
0.1063750199
 40
0.163998641
 40
0.2243043877
 40
0.2869700215
 40
0.3516032353
 40
0.4849026205
 40
0.6203636935
 40
0.7538639899
 40
0.8186674739
 40
0.8815443006
 40
0.942097938
 40
1.0
 40
1.0
 40
1.0
 40
1.0
 10
44.2980676883
 20
31.3317568225
 30
0.0
 10
44.3315878652
 20
31.5192274276
 30
0.0
 10
44.3781344812
 20
31.9095784976
 30
0.0
 10
44.3894239363
 20
32.5150029882
 30
0.0
 10
44.3440588566
 20
33.1507911608
 30
0.0
 10
44.2426680083
 20
33.8095857844
 30
0.0
 10
44.0864885149
 20
34.484098129
 30
0.0
 10
43.8045958238
 20
35.4033588538
 30
0.0
 10
43.3274367663
 20
36.5402840542
 30
0.0
 10
42.5879625428
 20
37.8299806289
 30
0.0
 10
41.8472145021
 20
38.8173533563
 30
0.0
 10
41.1953045321
 20
39.5270216841
 30
0.0
 10
40.6909420607
 20
40.004729408
 30
0.0
 10
40.1722026561
 20
40.4275401923
 30
0.0
 10
39.8119964192
 20
40.6756704964
 30
0.0
 10
39.6308336027
 20
40.7886334306
 30
0.0
  0
SPLINE
  5
3CB
100
AcDbEntity
  8
0
100
AcDbSpline
 62
7
  6
BYLAYER
 70
0
 71
3
 72
11
 73
7
 74
0
 42
0.0000001
 43
0.0000001
 44
0.0000000001
 40
0.0
 40
0.0
 40
0.0
 40
0.0
 40
0.2339319521
 40
0.479418251
 40
0.7353739901
 40
1.0
 40
1.0
 40
1.0
 40
1.0
 10
39.4613269838
 20
41.0128280088
 30
0.0
 10
39.6422848917
 20
40.9116336492
 30
0.0
 10
40.00331867
 20
40.6863162146
 30
0.0
 10
40.5256635497
 20
40.295413883
 30
0.0
 10
41.0366447771
 20
39.8474062919
 30
0.0
 10
41.3612655612
 20
39.5189310706
 30
0.0
 10
41.5204661126
 20
39.3467055302
 30
0.0
  0
SPLINE
  5
3CC
100
AcDbEntity
  8
0
100
AcDbSpline
 62
7
  6
BYLAYER
 70
0
 71
3
 72
13
 73
9
 74
0
 42
0.0000001
 43
0.0000001
 44
0.0000000001
 40
0.0
 40
0.0
 40
0.0
 40
0.0
 40
0.1136036376
 40
0.2284753105
 40
0.3458000712
 40
0.4666406104
 40
0.7220491497
 40
1.0
 40
1.0
 40
1.0
 40
1.0
 10
23.0397945603
 20
53.9345916945
 30
0.0
 10
23.1399793173
 20
53.9924300225
 30
0.0
 10
23.3341098296
 20
54.122059789
 30
0.0
 10
23.5999354578
 20
54.3543626996
 30
0.0
 10
23.8397493859
 20
54.6234042241
 30
0.0
 10
24.1280550749
 20
55.036346007
 30
0.0
 10
24.4141635651
 20
55.6436010526
 30
0.0
 10
24.5503510364
 20
56.1724022784
 30
0.0
 10
24.6001683143
 20
56.4510188037
 30
0.0
  0
SPLINE
  5
3CD
100
AcDbEntity
  8
0
100
AcDbSpline
 62
7
  6
BYLAYER
 70
0
 71
3
 72
9
 73
5
 74
0
 42
0.0000001
 43
0.0000001
 44
0.0000000001
 40
0.0
 40
0.0
 40
0.0
 40
0.0
 40
0.2541801534
 40
1.0
 40
1.0
 40
1.0
 40
1.0
 10
17.1289199686
 20
64.1967992614
 30
0.0
 10
17.1408434249
 20
64.2148733484
 30
0.0
 10
17.1891392276
 20
64.2850524462
 30
0.0
 10
17.2430976562
 20
64.351366015
 30
0.0
 10
17.2863420998
 20
64.3979113729
 30
0.0
  0
SPLINE
  5
3CE
100
AcDbEntity
  8
0
100
AcDbSpline
 62
7
  6
BYLAYER
 70
0
 71
3
 72
9
 73
5
 74
0
 42
0.0000001
 43
0.0000001
 44
0.0000000001
 40
0.0
 40
0.0
 40
0.0
 40
0.0
 40
0.5037612635
 40
1.0
 40
1.0
 40
1.0
 40
1.0
 10
17.2863420998
 20
64.3979113729
 30
0.0
 10
17.3332076004
 20
64.4483541887
 30
0.0
 10
17.4335066864
 20
64.5420159562
 30
0.0
 10
17.5467753896
 20
64.6195777914
 30
0.0
 10
17.6055151957
 20
64.6534888141
 30
0.0
  0
SPLINE
  5
3CF
100
AcDbEntity
  8
0
100
AcDbSpline
 62
7
  6
BYLAYER
 70
0
 71
3
 72
11
 73
7
 74
0
 42
0.0000001
 43
0.0000001
 44
0.0000000001
 40
0.0
 40
0.0
 40
0.0
 40
0.0
 40
0.2325130524
 40
0.475722686
 40
0.7312935673
 40
1.0
 40
1.0
 40
1.0
 40
1.0
 10
43.6850657397
 20
29.8117356347
 30
0.0
 10
43.7609073978
 20
29.9149271601
 30
0.0
 10
43.901516692
 20
30.1370811869
 30
0.0
 10
44.0730423074
 20
30.5025204663
 30
0.0
 10
44.2082357916
 20
30.903892793
 30
0.0
 10
44.2720182652
 20
31.1860684171
 30
0.0
 10
44.2980676883
 20
31.3317568225
 30
0.0
  0
SPLINE
  5
3D0
100
AcDbEntity
  8
0
100
AcDbSpline
 62
7
  6
BYLAYER
 70
0
 71
3
 72
21
 73
17
 74
0
 42
0.0000001
 43
0.0000001
 44
0.0000000001
 40
0.0
 40
0.0
 40
0.0
 40
0.0
 40
0.0687295796
 40
0.1341899247
 40
0.2559203704
 40
0.3133504865
 40
0.3692670024
 40
0.4244249207
 40
0.4796370495
 40
0.5357154635
 40
0.5934140131
 40
0.6533724481
 40
0.7161032314
 40
0.781973863
 40
0.8512151081
 40
1.0
 40
1.0
 40
1.0
 40
1.0
 10
15.7036160637
 20
63.5098474884
 30
0.0
 10
15.7211833769
 20
63.6080974124
 30
0.0
 10
15.7641444832
 20
63.7985894041
 30
0.0
 10
15.8818499496
 20
64.1514504308
 30
0.0
 10
16.0497878562
 20
64.4693604228
 30
0.0
 10
16.2678279698
 20
64.7332915748
 30
0.0
 10
16.4495607506
 20
64.8984830967
 30
0.0
 10
16.6511034675
 20
65.033140104
 30
0.0
 10
16.8708559884
 20
65.1359773108
 30
0.0
 10
17.1068613179
 20
65.2063299865
 30
0.0
 10
17.3571933602
 20
65.2435740058
 30
0.0
 10
17.6198167922
 20
65.2477491489
 30
0.0
 10
17.8927199465
 20
65.2188435147
 30
0.0
 10
18.1739086378
 20
65.1572875861
 30
0.0
 10
18.5663569071
 20
65.0293526772
 30
0.0
 10
18.8527978927
 20
64.8899788986
 30
0.0
 10
19.0399100718
 20
64.7819401431
 30
0.0
  0
SPLINE
  5
3D1
100
AcDbEntity
  8
0
100
AcDbSpline
 62
7
  6
BYLAYER
 70
0
 71
3
 72
31
 73
27
 74
0
 42
0.0000001
 43
0.0000001
 44
0.0000000001
 40
0.0
 40
0.0
 40
0.0
 40
0.0
 40
0.0279593028
 40
0.0544126
 40
0.079463306
 40
0.1033451773
 40
0.1263769831
 40
0.1489385096
 40
0.1714491997
 40
0.1943363315
 40
0.2179941694
 40
0.2427491355
 40
0.2688507634
 40
0.2964608117
 40
0.3256672036
 40
0.3564830231
 40
0.3888668538
 40
0.4227222688
 40
0.4942368997
 40
0.5696232201
 40
0.6470869005
 40
0.7246662877
 40
0.8003889751
 40
0.872435427
 40
0.9393009355
 40
1.0
 40
1.0
 40
1.0
 40
1.0
 10
22.3760302516
 20
58.2157259749
 30
0.0
 10
22.3561839582
 20
58.1047302412
 30
0.0
 10
22.3065873274
 20
57.8904476723
 30
0.0
 10
22.1986027869
 20
57.5879020372
 30
0.0
 10
22.0596716334
 20
57.316405917
 30
0.0
 10
21.8911078766
 20
57.078799024
 30
0.0
 10
21.6942462251
 20
56.8776940204
 30
0.0
 10
21.4711315828
 20
56.7152603607
 30
0.0
 10
21.2240447402
 20
56.5936168374
 30
0.0
 10
20.9558946676
 20
56.5138725258
 30
0.0
 10
20.6695981198
 20
56.4768465306
 30
0.0
 10
20.3681591696
 20
56.4824087297
 30
0.0
 10
20.0545311777
 20
56.5304209493
 30
0.0
 10
19.7316300808
 20
56.6200073494
 30
0.0
 10
19.4024953956
 20
56.7503463423
 30
0.0
 10
19.07010935
 20
56.919959332
 30
0.0
 10
18.7376277257
 20
57.1273381648
 30
0.0
 10
18.2901828952
 20
57.4573913868
 30
0.0
 10
17.752316407
 20
57.9530193633
 30
0.0
 10
17.1670133301
 20
58.6457197412
 30
0.0
 10
16.6518173052
 20
59.4215422708
 30
0.0
 10
16.2261044389
 20
60.2513321224
 30
0.0
 10
15.9057683701
 20
61.1040447689
 30
0.0
 10
15.7028110047
 20
61.9481149842
 30
0.0
 10
15.6248190222
 20
62.7520814826
 30
0.0
 10
15.6605301738
 20
63.2688780605
 30
0.0
 10
15.7036160637
 20
63.5098474884
 30
0.0
  0
SPLINE
  5
3D2
100
AcDbEntity
  8
0
100
AcDbSpline
 62
7
  6
BYLAYER
 70
0
 71
3
 72
27
 73
23
 74
0
 42
0.0000001
 43
0.0000001
 44
0.0000000001
 40
0.0
 40
0.0
 40
0.0
 40
0.0
 40
0.0573014403
 40
0.1194582313
 40
0.1859615323
 40
0.2560125105
 40
0.3285901961
 40
0.4025361101
 40
0.4766180992
 40
0.5495992021
 40
0.6202987305
 40
0.6876598866
 40
0.7508235911
 40
0.7806562682
 40
0.8092554229
 40
0.8626917194
 40
0.8876631148
 40
0.9115717483
 40
0.9345584341
 40
0.956806432
 40
0.9785368186
 40
1.0
 40
1.0
 40
1.0
 40
1.0
 10
24.6001683143
 20
56.4510188037
 30
0.0
 10
24.657694988
 20
56.7727521991
 30
0.0
 10
24.7192453891
 20
57.4545679497
 30
0.0
 10
24.6662826919
 20
58.516618685
 30
0.0
 10
24.4739204604
 20
59.6361022382
 30
0.0
 10
24.1470966149
 20
60.7854292122
 30
0.0
 10
23.6938466358
 20
61.9365792913
 30
0.0
 10
23.1254107661
 20
63.0611281853
 30
0.0
 10
22.4558247112
 20
64.131258088
 30
0.0
 10
21.7016813541
 20
65.1204753334
 30
0.0
 10
20.8815508944
 20
66.004385505
 30
0.0
 10
20.0156643678
 20
66.7611126723
 30
0.0
 10
19.2592456503
 20
67.2800822107
 30
0.0
 10
18.6493185402
 20
67.6115217116
 30
0.0
 10
18.0674524245
 20
67.8741934493
 30
0.0
 10
17.4818722073
 20
68.0594308181
 30
0.0
 10
16.9047375227
 20
68.1517648758
 30
0.0
 10
16.4945417897
 20
68.1734393316
 30
0.0
 10
16.0999970396
 20
68.1487945756
 30
0.0
 10
15.7236297123
 20
68.0777572604
 30
0.0
 10
15.3680429597
 20
67.960778844
 30
0.0
 10
15.1458735732
 20
67.8521899292
 30
0.0
 10
15.0398517551
 20
67.7909817687
 30
0.0
  0
ELLIPSE
  5
3D3
100
AcDbEntity
  8
0
100
AcDbEllipse
 62
7
  6
BYLAYER
 10
11.643446847
 20
42.4021776453
 30
0.0
 11
-0.0214162884
 21
0.4999995303
 31
0.0
 40
0.0301984672
 41
-0.001293305
 42
0.6141761941
  0
ELLIPSE
  5
3D4
100
AcDbEntity
  8
0
100
AcDbEllipse
 62
7
  6
BYLAYER
 10
11.6434321968
 20
44.4337395699
 30
0.0
 11
-0.0214162884
 21
0.4999995303
 31
0.0
 40
0.0301984672
 41
0.6141761941
 42
1.7224602691
  0
ELLIPSE
  5
3D5
100
AcDbEntity
  8
0
100
AcDbEllipse
 62
7
  6
BYLAYER
 10
12.2796924229
 20
44.4337410992
 30
0.0
 11
0.0214138935
 21
0.4999996331
 31
0.0
 40
0.0302052536
 41
-1.7224599779
 42
-0.6141759029
  0
ELLIPSE
  5
3D6
100
AcDbEntity
  8
0
100
AcDbEllipse
 62
7
  6
BYLAYER
 10
12.2797070732
 20
42.4021791746
 30
0.0
 11
0.0214138935
 21
0.4999996331
 31
0.0
 40
0.0302052536
 41
-0.6141759029
 42
0.0012935973
  0
ELLIPSE
  5
3D7
100
AcDbEntity
  8
0
100
AcDbEllipse
 62
7
  6
BYLAYER
 10
25.78564135
 20
34.2373625549
 30
0.0
 11
-0.0214162884
 21
0.4999995303
 31
0.0
 40
0.0301984672
 41
-0.001293305
 42
0.6141761941
  0
ELLIPSE
  5
3D8
100
AcDbEntity
  8
0
100
AcDbEllipse
 62
7
  6
BYLAYER
 10
25.7856266997
 20
36.2689244795
 30
0.0
 11
-0.0214162884
 21
0.4999995303
 31
0.0
 40
0.0301984672
 41
0.6141761941
 42
1.7224602691
  0
ELLIPSE
  5
3D9
100
AcDbEntity
  8
0
100
AcDbEllipse
 62
7
  6
BYLAYER
 10
26.4218869259
 20
36.2689260088
 30
0.0
 11
0.0214138935
 21
0.4999996331
 31
0.0
 40
0.0302052536
 41
-1.7224599779
 42
-0.6141759029
  0
ELLIPSE
  5
3DA
100
AcDbEntity
  8
0
100
AcDbEllipse
 62
7
  6
BYLAYER
 10
26.4219015761
 20
34.2373640842
 30
0.0
 11
0.0214138935
 21
0.4999996331
 31
0.0
 40
0.0302052536
 41
-0.6141759029
 42
0.0012935973
  0
ENDSEC
  0
SECTION
  2
OBJECTS
  0
DICTIONARY
  5
C
100
AcDbDictionary
280
0
281
1
  3
ACAD_GROUP
350
D
  3
ACAD_MLINESTYLE
350
17
  3
ACAD_LAYOUT
350
1A
  3
ACAD_PLOTSETTINGS
350
19
  3
ACAD_PLOTSTYLENAME
350
E
  0
DICTIONARY
  5
D
102
{ACAD_REACTORS
330
C
102
}
100
AcDbDictionary
280
0
281
1
  0
ACDBDICTIONARYWDFLT
  5
E
102
{ACAD_REACTORS
330
C
102
}
100
AcDbDictionary
281
1
  3
Normal
350
F
100
AcDbDictionaryWithDefault
340
F
  0
DICTIONARY
  5
17
102
{ACAD_REACTORS
330
C
102
}
100
AcDbDictionary
280
0
281
1
  3
Standard
350
18
  0
DICTIONARY
  5
19
102
{ACAD_REACTORS
330
C
102
}
100
AcDbDictionary
281
1
  0
DICTIONARY
  5
1A
102
{ACAD_REACTORS
330
C
102
}
100
AcDbDictionary
281
1
  3
Model
350
3DB
  3
Layout1
350
3DC
  0
ACDBPLACEHOLDER
  5
F
102
{ACAD_REACTORS
330
E
102
}
  0
MLINESTYLE
  5
18
102
{ACAD_REACTORS
330
17
102
}
100
AcDbMlineStyle
  2
STANDARD
 70
0
  3

 62
256
 51
90.0
 52
90.0
 71
2
 49
0.5
 62
256
  6
BYLAYER
 49
-0.5
 62
256
  6
BYLAYER
  0
LAYOUT
  5
3DB
102
{ACAD_REACTORS
330
1A
102
}
100
AcDbPlotSettings
  1

  2
none_device
  4

  6

 40
0.0
 41
0.0
 42
0.0
 43
0.0
 44
210.0
 45
297.0
 46
0.0
 47
0.0
 48
0.0
 49
0.0
140
0.0
141
0.0
142
1.0
143
1.0
 70
1024
 72
1
 73
0
 74
0
  7

 75
0
147
1.0
148
0.0
149
0.0
100
AcDbLayout
  1
Model
 70
0
 71
0
 10
0.0
 20
0.0
 11
210.0
 21
297.0
 12
0.0
 22
0.0
 32
0.0
 14
0.0
 24
0.0
 34
0.0
 15
0.0
 25
0.0
 35
0.0
146
0.0
 13
0.0
 23
0.0
 33
0.0
 16
1.0
 26
0.0
 36
0.0
 17
0.0
 27
1.0
 37
0.0
 76
0
330
210
345
0
346
0
  0
LAYOUT
  5
3DC
102
{ACAD_REACTORS
330
1A
102
}
100
AcDbPlotSettings
  1

  2
none_device
  4

  6

 40
0.0
 41
0.0
 42
0.0
 43
0.0
 44
210.0
 45
297.0
 46
0.0
 47
0.0
 48
0.0
 49
0.0
140
0.0
141
0.0
142
1.0
143
1.0
 70
0
 72
1
 73
0
 74
0
  7

 75
0
147
1.0
148
0.0
149
0.0
100
AcDbLayout
  1
Layout1
 70
0
 71
1
 10
0.0
 20
0.0
 11
210.0
 21
297.0
 12
0.0
 22
0.0
 32
0.0
 14
0.0
 24
0.0
 34
0.0
 15
0.0
 25
0.0
 35
0.0
146
0.0
 13
0.0
 23
0.0
 33
0.0
 16
1.0
 26
0.0
 36
0.0
 17
0.0
 27
1.0
 37
0.0
 76
0
330
211
345
0
346
0
  0
ENDSEC
  0
EOF
