999
DXF file: C:\Users\sesa63760\Dev\_Creo\CAD\MCADPD0004082_3D-CAD\drw0001_1.dxf
999
Pro/ENGINEER 2019471 by Parametric Technology Corporation
  0
SECTION
  2
HEADER
  9
$ACADVER
  1
AC1024
  9
$DWGCODEPAGE
  3
ANSI_1252
  9
$EXTMAX
 10
327.8362879194
 20
463.6541786289
 30
0.0
  9
$EXTMIN
 10
0.0
 20
0.0
 30
0.0
  9
$LIMMIN
 10
0.0
 20
0.0
  9
$LIMMAX
 10
327.8362879194
 20
463.6541786289
  9
$VIEWCTR
 10
163.9181439597
 20
231.8270893144
  9
$VIEWSIZE
 40
463.6541786289
  9
$CLAYER
  8
0
  9
$LTSCALE
 40
30.2233834958
  9
$CELTYPE
  6
BYLAYER
  9
$DIMSCALE
 40
1.0
  9
$DIMASZ
 40
3.9028129514
  9
$DIMEXO
 40
1.0
  9
$DIMDLI
 40
20.8816104153
  9
$DIMEXE
 40
1.0
  9
$DIMCEN
 40
4.945644572
  9
$DIMLFAC
 40
1.0
  9
$DIMBLK
  1
_FILLED
  9
$DIMALT
 70
0
  9
$DIMALTF
 40
0.0393700787
  9
$DIMTXT
 40
5.463938132
  9
$DIMTOL
 70
1
  9
$DIMLIM
 70
0
  9
$DIMTFAC
 40
1.0
  9
$DIMTP
 40
0.01
  9
$DIMTM
 40
0.01
  9
$DIMGAP
 40
0.625
  9
$DIMDSEP
 70
46
  9
$AUNITS
 70
0
  9
$PDMODE
 70
3
  9
$PDSIZE
 40
0.3125
  9
$HANDSEED
  5
2B8
  9
$TILEMODE
 70
1
  9
$MEASUREMENT
 70
1
  9
$INSUNITS
 70
4
  0
ENDSEC
  0
SECTION
  2
CLASSES
  0
CLASS
  1
ACDBDICTIONARYWDFLT
  2
AcDbDictionaryWithDefault
  3
AutoCAD 2000
 90
0
 91
1
280
0
281
0
  0
CLASS
  1
ACDBPLACEHOLDER
  2
AcDbPlaceHolder
  3
AutoCAD 2000
 90
0
 91
1
280
0
281
0
  0
CLASS
  1
LAYOUT
  2
AcDbLayout
  3
AutoCAD 2000
 90
0
 91
0
280
0
281
0
  0
ENDSEC
  0
SECTION
  2
TABLES
  0
TABLE
  2
VPORT
  5
8
100
AcDbSymbolTable
 70
2
  0
VPORT
  5
1F4
100
AcDbSymbolTableRecord
100
AcDbViewportTableRecord
  2
*ACTIVE
 70
0
 10
0.0
 20
0.0
 11
1.0
 21
1.0
 12
163.9181439597
 22
231.8270893144
 13
0.0
 23
0.0
 14
1.0
 24
1.0
 15
0.0
 25
0.0
 16
0.0
 26
0.0
 36
1.0
 17
0.0
 27
0.0
 37
0.0
 40
463.6541786289
 41
0.7070707071
 42
50.0
 43
0.0
 44
0.0
 50
0.0
 51
0.0
 71
0
 72
100
 73
1
 74
1
 75
0
 76
0
 77
0
 78
0
  0
ENDTAB
  0
TABLE
  2
LTYPE
  5
5
100
AcDbSymbolTable
 70
6
  0
LTYPE
  5
14
100
AcDbSymbolTableRecord
100
AcDbLinetypeTableRecord
  2
BYBLOCK
 70
0
  3

 72
65
 73
0
 40
0.0
  0
LTYPE
  5
15
100
AcDbSymbolTableRecord
100
AcDbLinetypeTableRecord
  2
BYLAYER
 70
0
  3

 72
65
 73
0
 40
0.0
  0
LTYPE
  5
16
100
AcDbSymbolTableRecord
100
AcDbLinetypeTableRecord
  2
CONTINUOUS
 70
64
  3
Solid line
 72
65
 73
0
 40
0.0
  0
LTYPE
  5
1F5
100
AcDbSymbolTableRecord
100
AcDbLinetypeTableRecord
  2
CENTER
 70
64
  3
____ _ ____ _ ____ _ ____ _ ____ _ ____ _ ____
 72
65
 73
4
 40
0.6
 49
0.375
 74
0
 49
-0.075
 74
0
 49
0.075
 74
0
 49
-0.075
 74
0
  0
LTYPE
  5
1F6
100
AcDbSymbolTableRecord
100
AcDbLinetypeTableRecord
  2
HIDDEN
 70
64
  3
- - - - - - - - - - - - - - - - - - - -
 72
65
 73
2
 40
0.2
 49
0.1
 74
0
 49
-0.1
 74
0
  0
LTYPE
  5
1F7
100
AcDbSymbolTableRecord
100
AcDbLinetypeTableRecord
  2
PHANTOM
 70
64
  3
_____ _ _ _____ _ _ _____ _ _ _____
 72
65
 73
6
 40
0.8
 49
0.45
 74
0
 49
-0.05
 74
0
 49
0.1
 74
0
 49
-0.05
 74
0
 49
0.1
 74
0
 49
-0.05
 74
0
  0
LTYPE
  5
1F8
100
AcDbSymbolTableRecord
100
AcDbLinetypeTableRecord
  2
DOT
 70
64
  3
. . . . . . . . . . . . . . . . . . . .
 72
65
 73
2
 40
0.2
 49
0.1
 74
0
 49
-0.1
 74
0
  0
LTYPE
  5
1F9
100
AcDbSymbolTableRecord
100
AcDbLinetypeTableRecord
  2
DASHED
 70
64
  3
- - - - - - - - - - - - - - - - - - - -
 72
65
 73
2
 40
0.2
 49
0.1
 74
0
 49
-0.1
 74
0
  0
ENDTAB
  0
TABLE
  2
LAYER
  5
2
100
AcDbSymbolTable
 70
36
  0
LAYER
  5
10
100
AcDbSymbolTableRecord
100
AcDbLayerTableRecord
  2
0
 70
0
 62
7
  6
CONTINUOUS
370
-3
390
F
  0
LAYER
  5
1FA
100
AcDbSymbolTableRecord
100
AcDbLayerTableRecord
  2
DEFAULT_1
 70
0
 62
7
  6
CENTER
370
-3
390
F
  0
LAYER
  5
1FB
100
AcDbSymbolTableRecord
100
AcDbLayerTableRecord
  2
DEFAULT_2
 70
0
 62
7
  6
HIDDEN
370
-3
390
F
  0
LAYER
  5
1FC
100
AcDbSymbolTableRecord
100
AcDbLayerTableRecord
  2
DEFAULT_3
 70
0
 62
7
  6
PHANTOM
370
-3
390
F
  0
LAYER
  5
1FD
100
AcDbSymbolTableRecord
100
AcDbLayerTableRecord
  2
00_COMPONENTS
 70
0
 62
7
  6
CONTINUOUS
370
-3
390
F
  0
LAYER
  5
1FE
100
AcDbSymbolTableRecord
100
AcDbLayerTableRecord
  2
01_1_DEFAULT_DATUMS
 70
0
 62
7
  6
CONTINUOUS
370
-3
390
F
  0
LAYER
  5
1FF
100
AcDbSymbolTableRecord
100
AcDbLayerTableRecord
  2
01_PLANES
 70
0
 62
7
  6
CONTINUOUS
370
-3
390
F
  0
LAYER
  5
200
100
AcDbSymbolTableRecord
100
AcDbLayerTableRecord
  2
02_COORD_SYS
 70
0
 62
7
  6
CONTINUOUS
370
-3
390
F
  0
LAYER
  5
201
100
AcDbSymbolTableRecord
100
AcDbLayerTableRecord
  2
03_AXES
 70
0
 62
7
  6
CONTINUOUS
370
-3
390
F
  0
LAYER
  5
202
100
AcDbSymbolTableRecord
100
AcDbLayerTableRecord
  2
04_POINTS
 70
0
 62
7
  6
CONTINUOUS
370
-3
390
F
  0
LAYER
  5
203
100
AcDbSymbolTableRecord
100
AcDbLayerTableRecord
  2
05_CURVES
 70
0
 62
7
  6
CONTINUOUS
370
-3
390
F
  0
LAYER
  5
204
100
AcDbSymbolTableRecord
100
AcDbLayerTableRecord
  2
06_SURFS
 70
0
 62
7
  6
CONTINUOUS
370
-3
390
F
  0
LAYER
  5
205
100
AcDbSymbolTableRecord
100
AcDbLayerTableRecord
  2
07_COSMETICS
 70
0
 62
7
  6
CONTINUOUS
370
-3
390
F
  0
LAYER
  5
206
100
AcDbSymbolTableRecord
100
AcDbLayerTableRecord
  2
10_NOTES
 70
0
 62
7
  6
CONTINUOUS
370
-3
390
F
  0
LAYER
  5
207
100
AcDbSymbolTableRecord
100
AcDbLayerTableRecord
  2
11_NOTES_PUB
 70
0
 62
7
  6
CONTINUOUS
370
-3
390
F
  0
LAYER
  5
208
100
AcDbSymbolTableRecord
100
AcDbLayerTableRecord
  2
13_REF_GTOL
 70
0
 62
7
  6
CONTINUOUS
370
-3
390
F
  0
LAYER
  5
209
100
AcDbSymbolTableRecord
100
AcDbLayerTableRecord
  2
16_MISC
 70
0
 62
7
  6
CONTINUOUS
370
-3
390
F
  0
LAYER
  5
20A
100
AcDbSymbolTableRecord
100
AcDbLayerTableRecord
  2
17_NO_PRINT
 70
0
 62
7
  6
CONTINUOUS
370
-3
390
F
  0
LAYER
  5
20B
100
AcDbSymbolTableRecord
100
AcDbLayerTableRecord
  2
18_DATUM_CAMS_JOINTS
 70
0
 62
7
  6
CONTINUOUS
370
-3
390
F
  0
LAYER
  5
20C
100
AcDbSymbolTableRecord
100
AcDbLayerTableRecord
  2
19_DATUM_FUNCTIONAL
 70
0
 62
7
  6
CONTINUOUS
370
-3
390
F
  0
LAYER
  5
20D
100
AcDbSymbolTableRecord
100
AcDbLayerTableRecord
  2
20_DATUM_KINEMATIC_SCHEME
 70
0
 62
7
  6
CONTINUOUS
370
-3
390
F
  0
ENDTAB
  0
TABLE
  2
STYLE
  5
3
100
AcDbSymbolTable
 70
1
  0
STYLE
  5
11
100
AcDbSymbolTableRecord
100
AcDbTextStyleTableRecord
  2
STANDARD
 70
0
 40
0.0
 41
1.0
 50
0.0
 71
0
 42
0.2
  3
ARIAL.TTF
  4

  0
STYLE
  5
20E
100
AcDbSymbolTableRecord
100
AcDbTextStyleTableRecord
  2
TEXTSTYLE_1
 70
0
 40
0.0
 41
0.8
 50
0.0
 71
0
 42
0.2
  3
gdt
  4

  0
ENDTAB
  0
TABLE
  2
VIEW
  5
6
100
AcDbSymbolTable
 70
0
  0
ENDTAB
  0
TABLE
  2
UCS
  5
7
100
AcDbSymbolTable
 70
0
  0
ENDTAB
  0
TABLE
  2
APPID
  5
9
100
AcDbSymbolTable
 70
1
  0
APPID
  5
20F
100
AcDbSymbolTableRecord
100
AcDbRegAppTableRecord
  2
ACAD
 70
0
  0
ENDTAB
  0
TABLE
  2
BLOCK_RECORD
  5
1
100
AcDbSymbolTable
 70
0
  0
BLOCK_RECORD
  5
210
100
AcDbSymbolTableRecord
100
AcDbBlockTableRecord
  2
*Model_Space
  0
BLOCK_RECORD
  5
211
100
AcDbSymbolTableRecord
100
AcDbBlockTableRecord
  2
*Paper_Space
  0
BLOCK_RECORD
  5
212
100
AcDbSymbolTableRecord
100
AcDbBlockTableRecord
  2
_FILLED
  0
ENDTAB
  0
TABLE
  2
DIMSTYLE
  5
A
100
AcDbSymbolTable
 70
1
100
AcDbDimStyleTable
 71
0
  0
DIMSTYLE
105
213
100
AcDbSymbolTableRecord
100
AcDbDimStyleTableRecord
  2
STANDARD
 70
0
  3

  4

 40
1.0
 41
3.9028129514
 42
1.0
 43
0.38
 44
1.0
 45
0.0
 46
0.0
 47
0.01
 48
0.01
140
5.463938132
141
0.09
142
0.0
143
25.4
144
1.0
145
0.0
146
1.0
147
0.625
 71
1
 72
0
 73
0
 74
0
 75
0
 76
0
 77
1
 78
8
 79
2
170
0
171
1
172
0
173
0
174
0
175
0
176
0
177
0
178
0
270
2
179
2
271
2
272
2
273
2
274
2
275
0
280
0
281
0
282
0
283
1
284
8
285
0
286
0
287
3
288
0
340
11
278
46
341
212
342
212
343
212
344
212
  0
ENDTAB
  0
ENDSEC
  0
SECTION
  2
BLOCKS
  0
BLOCK
  5
20
100
AcDbEntity
  8
0
100
AcDbBlockBegin
  2
*Model_Space
 70
0
 10
0.0
 20
0.0
 30
0.0
  3
*Model_Space
  1

  0
ENDBLK
  5
21
100
AcDbEntity
  8
0
100
AcDbBlockEnd
  0
BLOCK
  5
1C
100
AcDbEntity
  8
0
100
AcDbBlockBegin
  2
*Paper_Space
 70
0
 10
0.0
 20
0.0
 30
0.0
  3
*Paper_Space
  1

  0
ENDBLK
  5
1D
100
AcDbEntity
  8
0
100
AcDbBlockEnd
  0
BLOCK
  5
214
100
AcDbEntity
  8
0
100
AcDbBlockBegin
  2
_FILLED
 70
64
 10
0.0
 20
0.0
  3
_FILLED
  1

  0
SOLID
  5
215
100
AcDbEntity
  8
0
  6
BYBLOCK
 62
0
100
AcDbTrace
 10
0.0
 20
0.0
 11
-1.0
 21
0.25
 12
-1.0
 22
-0.25
 13
-1.0
 23
-0.25
  0
ENDBLK
  5
216
100
AcDbEntity
  8
0
  6
BYBLOCK
 62
0
100
AcDbBlockEnd
  0
ENDSEC
  0
SECTION
  2
ENTITIES
  0
LINE
  5
217
100
AcDbEntity
  8
0
100
AcDbLine
 62
7
  6
BYLAYER
 10
38.0327812447
 20
194.7593401181
 11
38.0327812447
 21
197.2088473695
  0
LINE
  5
218
100
AcDbEntity
  8
0
100
AcDbLine
 62
7
  6
BYLAYER
 10
49.3465368471
 20
188.2274880458
 11
49.3465368471
 21
190.6769952972
  0
LINE
  5
219
100
AcDbEntity
  8
0
100
AcDbLine
 62
7
  6
BYLAYER
 10
71.9740480518
 20
175.1637839012
 11
71.9740480518
 21
177.6132911526
  0
LINE
  5
21A
100
AcDbEntity
  8
0
100
AcDbLine
 62
7
  6
BYLAYER
 10
117.2290704612
 20
146.5868683605
 11
105.9153148588
 21
153.1187204328
  0
LINE
  5
21B
100
AcDbEntity
  8
0
100
AcDbLine
 62
7
  6
BYLAYER
 10
117.2290704612
 20
149.0363756119
 11
105.9153148588
 21
155.5682276842
  0
LINE
  5
21C
100
AcDbEntity
  8
0
100
AcDbLine
 62
7
  6
BYLAYER
 10
38.0327812447
 20
194.7593401181
 11
49.3465368471
 21
188.2274880458
  0
LINE
  5
21D
100
AcDbEntity
  8
0
100
AcDbLine
 62
7
  6
BYLAYER
 10
71.9740480518
 20
175.1637839012
 11
83.2878036541
 21
168.6319318288
  0
LINE
  5
21E
100
AcDbEntity
  8
0
100
AcDbLine
 62
7
  6
BYLAYER
 10
38.0327812447
 20
197.2088473695
 11
49.3465368471
 21
190.6769952972
  0
LINE
  5
21F
100
AcDbEntity
  8
0
100
AcDbLine
 62
7
  6
BYLAYER
 10
71.9740480518
 20
177.6132911526
 11
83.2878036541
 21
171.0814390802
  0
LINE
  5
220
100
AcDbEntity
  8
0
100
AcDbLine
 62
7
  6
BYLAYER
 10
77.8220456841
 20
214.0573481425
 11
77.8220456841
 21
216.5068553939
  0
LINE
  5
221
100
AcDbEntity
  8
0
100
AcDbLine
 62
7
  6
BYLAYER
 10
83.2878036541
 20
168.6319318288
 11
83.2878036541
 21
171.0814390802
  0
LINE
  5
222
100
AcDbEntity
  8
0
100
AcDbLine
 62
7
  6
BYLAYER
 10
90.8535320915
 20
212.1914198781
 11
90.8535320915
 21
214.6409271295
  0
LINE
  5
223
100
AcDbEntity
  8
0
100
AcDbLine
 62
7
  6
BYLAYER
 10
105.9153148588
 20
155.5682276842
 11
105.9153148588
 21
153.1187204328
  0
LINE
  5
224
100
AcDbEntity
  8
0
100
AcDbLine
 62
7
  6
BYLAYER
 10
111.5428597734
 20
225.7398260378
 11
111.5428597734
 21
227.3728308721
  0
LINE
  5
225
100
AcDbEntity
  8
0
100
AcDbLine
 62
7
  6
BYLAYER
 10
111.7633124912
 20
194.4617919256
 11
111.7633124912
 21
196.9112991769
  0
LINE
  5
226
100
AcDbEntity
  8
0
100
AcDbLine
 62
7
  6
BYLAYER
 10
147.4223101033
 20
179.5321595165
 11
158.7360657056
 21
173.0003074441
  0
LINE
  5
227
100
AcDbEntity
  8
0
100
AcDbLine
 62
7
  6
BYLAYER
 10
124.7947988986
 20
195.0453709125
 11
113.4810432962
 21
201.5772229848
  0
LINE
  5
228
100
AcDbEntity
  8
0
100
AcDbLine
 62
7
  6
BYLAYER
 10
90.8535320915
 20
214.6409271295
 11
79.5397764892
 21
221.1727792018
  0
LINE
  5
229
100
AcDbEntity
  8
0
100
AcDbLine
 62
7
  6
BYLAYER
 10
117.2290704612
 20
149.0363756119
 11
117.2290704612
 21
146.5868683605
  0
LINE
  5
22A
100
AcDbEntity
  8
0
100
AcDbLine
 62
7
  6
BYLAYER
 10
124.7303825482
 20
229.9652021552
 11
124.7303825482
 21
228.3321973209
  0
LINE
  5
22B
100
AcDbEntity
  8
0
100
AcDbLine
 62
7
  6
BYLAYER
 10
124.7947988986
 20
192.5958636611
 11
124.7947988986
 21
195.0453709125
  0
LINE
  5
22C
100
AcDbEntity
  8
0
100
AcDbLine
 62
7
  6
BYLAYER
 10
127.558895048
 20
219.7591826165
 11
127.558895048
 21
252.9091807519
  0
LINE
  5
22D
100
AcDbEntity
  8
0
100
AcDbLine
 62
7
  6
BYLAYER
 10
128.9731144983
 20
252.0926992429
 11
128.9731144983
 21
218.9427011074
  0
LINE
  5
22E
100
AcDbEntity
  8
0
100
AcDbLine
 62
7
  6
BYLAYER
 10
128.3873429023
 20
254.7403245184
 11
237.9884376705
 21
318.0181683685
  0
LINE
  5
22F
100
AcDbEntity
  8
0
100
AcDbLine
 62
7
  6
BYLAYER
 10
239.9884287167
 20
317.8200712525
 11
130.3873339486
 21
254.5422274024
  0
LINE
  5
230
100
AcDbEntity
  8
0
100
AcDbLine
 62
7
  6
BYLAYER
 10
130.3873461676
 20
252.909201404
 11
128.9731144983
 21
252.0926992429
  0
LINE
  5
231
100
AcDbEntity
  8
0
100
AcDbLine
 62
7
  6
BYLAYER
 10
79.5397764892
 20
221.1727792018
 11
38.0327812447
 21
197.2088473695
  0
LINE
  5
232
100
AcDbEntity
  8
0
100
AcDbLine
 62
7
  6
BYLAYER
 10
73.4794180763
 20
213.9996531415
 11
77.8220456841
 21
216.5068553939
  0
LINE
  5
233
100
AcDbEntity
  8
0
100
AcDbLine
 62
7
  6
BYLAYER
 10
185.2944041062
 20
183.1603153414
 11
170.6925882819
 21
191.5904869222
  0
LINE
  5
234
100
AcDbEntity
  8
0
100
AcDbLine
 62
7
  6
BYLAYER
 10
126.1446755977
 20
217.309654457
 11
111.5428597734
 21
225.7398260378
  0
LINE
  5
235
100
AcDbEntity
  8
0
100
AcDbLine
 62
7
  6
BYLAYER
 10
111.5428597734
 20
227.3728308721
 11
126.1446755977
 21
218.9426592913
  0
LINE
  5
236
100
AcDbEntity
  8
0
100
AcDbLine
 62
7
  6
BYLAYER
 10
170.6925882819
 20
193.2234917565
 11
185.2944041062
 21
184.7933201756
  0
LINE
  5
237
100
AcDbEntity
  8
0
100
AcDbLine
 62
7
  6
BYLAYER
 10
145.7045792982
 20
172.4167284572
 11
145.7045792982
 21
174.8662357086
  0
LINE
  5
238
100
AcDbEntity
  8
0
100
AcDbLine
 62
7
  6
BYLAYER
 10
74.6595318475
 20
212.2314808266
 11
77.8220456841
 21
214.0573481425
  0
LINE
  5
239
100
AcDbEntity
  8
0
100
AcDbLine
 62
7
  6
BYLAYER
 10
82.7718137601
 20
213.6491701123
 11
78.4291861523
 21
211.1419678599
  0
LINE
  5
23A
100
AcDbEntity
  8
0
100
AcDbLine
 62
7
  6
BYLAYER
 10
111.5428597734
 20
227.3728308721
 11
127.558895048
 21
236.6196379532
  0
LINE
  5
23B
100
AcDbEntity
  8
0
100
AcDbLine
 62
7
  6
BYLAYER
 10
49.3465368471
 20
190.6769952972
 11
90.8535320915
 21
214.6409271295
  0
LINE
  5
23C
100
AcDbEntity
  8
0
100
AcDbLine
 62
7
  6
BYLAYER
 10
49.3465368471
 20
188.2274880458
 11
90.8535320915
 21
212.1914198781
  0
LINE
  5
23D
100
AcDbEntity
  8
0
100
AcDbLine
 62
7
  6
BYLAYER
 10
124.7303825482
 20
229.9652021552
 11
127.558895048
 21
231.5982348604
  0
LINE
  5
23E
100
AcDbEntity
  8
0
100
AcDbLine
 62
7
  6
BYLAYER
 10
124.7303825482
 20
228.3321973209
 11
127.558895048
 21
229.9652300262
  0
LINE
  5
23F
100
AcDbEntity
  8
0
100
AcDbLine
 62
7
  6
BYLAYER
 10
158.7360657056
 20
173.0003074441
 11
158.7360657056
 21
170.5508001927
  0
LINE
  5
240
100
AcDbEntity
  8
0
100
AcDbLine
 62
7
  6
BYLAYER
 10
126.1446755977
 20
218.9426592913
 11
127.558907267
 21
219.7591614524
  0
LINE
  5
241
100
AcDbEntity
  8
0
100
AcDbLine
 62
7
  6
BYLAYER
 10
128.9731144983
 20
218.9427011074
 11
159.096509329
 21
236.3343474078
  0
LINE
  5
242
100
AcDbEntity
  8
0
100
AcDbLine
 62
7
  6
BYLAYER
 10
128.1446666439
 20
217.1115573409
 11
160.2681216434
 21
235.6579320253
  0
LINE
  5
243
100
AcDbEntity
  8
0
100
AcDbLine
 62
7
  6
BYLAYER
 10
166.4499299311
 20
233.7219489218
 11
276.0510246992
 21
296.9997927719
  0
LINE
  5
244
100
AcDbEntity
  8
0
100
AcDbLine
 62
7
  6
BYLAYER
 10
113.4810432962
 20
201.5772229848
 11
71.9740480518
 21
177.6132911526
  0
LINE
  5
245
100
AcDbEntity
  8
0
100
AcDbLine
 62
7
  6
BYLAYER
 10
166.4499299311
 20
232.0889440876
 11
130.3873339486
 21
252.9092225681
  0
LINE
  5
246
100
AcDbEntity
  8
0
100
AcDbLine
 62
7
  6
BYLAYER
 10
130.3873339486
 20
254.5422274024
 11
166.4499299311
 21
233.7219489218
  0
LINE
  5
247
100
AcDbEntity
  8
0
100
AcDbLine
 62
7
  6
BYLAYER
 10
167.8641493814
 20
196.4894596088
 11
167.8641493814
 21
229.6394577443
  0
LINE
  5
248
100
AcDbEntity
  8
0
100
AcDbLine
 62
7
  6
BYLAYER
 10
169.2783688316
 20
228.8229762352
 11
169.2783688316
 21
195.6729780998
  0
LINE
  5
249
100
AcDbEntity
  8
0
100
AcDbLine
 62
7
  6
BYLAYER
 10
107.4206848834
 20
194.4040969246
 11
111.7633124912
 21
196.9112991769
  0
LINE
  5
24A
100
AcDbEntity
  8
0
100
AcDbLine
 62
7
  6
BYLAYER
 10
278.8794635998
 20
292.1008200853
 11
169.2783688316
 21
228.8229762352
  0
LINE
  5
24B
100
AcDbEntity
  8
0
100
AcDbLine
 62
7
  6
BYLAYER
 10
108.6007986545
 20
192.6359246096
 11
111.7633124912
 21
194.4617919256
  0
LINE
  5
24C
100
AcDbEntity
  8
0
100
AcDbLine
 62
7
  6
BYLAYER
 10
116.7130805672
 20
194.0536138953
 11
112.3704529594
 21
191.5464116429
  0
LINE
  5
24D
100
AcDbEntity
  8
0
100
AcDbLine
 62
7
  6
BYLAYER
 10
83.2878036541
 20
171.0814390802
 11
124.7947988986
 21
195.0453709125
  0
LINE
  5
24E
100
AcDbEntity
  8
0
100
AcDbLine
 62
7
  6
BYLAYER
 10
184.8347091857
 20
195.264738021
 11
184.8347091857
 21
193.6317331867
  0
LINE
  5
24F
100
AcDbEntity
  8
0
100
AcDbLine
 62
7
  6
BYLAYER
 10
185.2944041062
 20
184.7933201756
 11
185.2944041062
 21
183.1603153414
  0
LINE
  5
250
100
AcDbEntity
  8
0
100
AcDbLine
 62
7
  6
BYLAYER
 10
83.2878036541
 20
168.6319318288
 11
124.7947988986
 21
192.5958636611
  0
LINE
  5
251
100
AcDbEntity
  8
0
100
AcDbLine
 62
7
  6
BYLAYER
 10
191.9057475579
 20
197.7141747254
 11
191.9057475579
 21
199.3471795597
  0
LINE
  5
252
100
AcDbEntity
  8
0
100
AcDbLine
 62
7
  6
BYLAYER
 10
169.2783688316
 20
195.6729780998
 11
278.8794635998
 21
258.9508219499
  0
LINE
  5
253
100
AcDbEntity
  8
0
100
AcDbLine
 62
7
  6
BYLAYER
 10
280.2936830501
 20
256.5013356066
 11
170.6925882819
 21
193.2234917565
  0
LINE
  5
254
100
AcDbEntity
  8
0
100
AcDbLine
 62
7
  6
BYLAYER
 10
105.9153148588
 20
155.5682276842
 11
147.4223101033
 21
179.5321595165
  0
LINE
  5
255
100
AcDbEntity
  8
0
100
AcDbLine
 62
7
  6
BYLAYER
 10
145.7045792982
 20
174.8662357086
 11
141.3619516904
 21
172.3590334562
  0
LINE
  5
256
100
AcDbEntity
  8
0
100
AcDbLine
 62
7
  6
BYLAYER
 10
184.8347091857
 20
195.264738021
 11
191.9057475579
 21
199.3471795597
  0
LINE
  5
257
100
AcDbEntity
  8
0
100
AcDbLine
 62
7
  6
BYLAYER
 10
269.6871696514
 20
244.2540364855
 11
276.7582080235
 21
248.3364780243
  0
LINE
  5
258
100
AcDbEntity
  8
0
100
AcDbLine
 62
7
  6
BYLAYER
 10
145.7045792982
 20
172.4167284572
 11
142.5420654616
 21
170.5908611413
  0
LINE
  5
259
100
AcDbEntity
  8
0
100
AcDbLine
 62
7
  6
BYLAYER
 10
184.8347091857
 20
193.6317331867
 11
191.9057475579
 21
197.7141747254
  0
LINE
  5
25A
100
AcDbEntity
  8
0
100
AcDbLine
 62
7
  6
BYLAYER
 10
269.6871696514
 20
242.6210316513
 11
276.7582080235
 21
246.70347319
  0
LINE
  5
25B
100
AcDbEntity
  8
0
100
AcDbLine
 62
7
  6
BYLAYER
 10
146.3117197664
 20
169.5013481746
 11
150.6543473742
 21
172.0085504269
  0
LINE
  5
25C
100
AcDbEntity
  8
0
100
AcDbLine
 62
7
  6
BYLAYER
 10
281.7079760995
 20
245.4787927426
 11
274.6369377274
 21
241.3963512039
  0
LINE
  5
25D
100
AcDbEntity
  8
0
100
AcDbLine
 62
7
  6
BYLAYER
 10
196.8555156339
 20
196.489494278
 11
189.7844772617
 21
192.4070527393
  0
LINE
  5
25E
100
AcDbEntity
  8
0
100
AcDbLine
 62
7
  6
BYLAYER
 10
158.7360657056
 20
173.0003074441
 11
117.2290704612
 21
149.0363756119
  0
LINE
  5
25F
100
AcDbEntity
  8
0
100
AcDbLine
 62
7
  6
BYLAYER
 10
158.7360657056
 20
170.5508001927
 11
117.2290704612
 21
146.5868683605
  0
LINE
  5
260
100
AcDbEntity
  8
0
100
AcDbLine
 62
7
  6
BYLAYER
 10
185.2944041062
 20
184.7933201756
 11
294.8954988744
 21
248.0711640257
  0
LINE
  5
261
100
AcDbEntity
  8
0
100
AcDbLine
 62
7
  6
BYLAYER
 10
185.2944041062
 20
183.1603153414
 11
294.8954988744
 21
246.4381591915
  0
LINE
  5
262
100
AcDbEntity
  8
0
100
AcDbLine
 62
7
  6
BYLAYER
 10
280.2936830501
 20
256.5013356066
 11
294.8954988744
 21
248.0711640257
  0
LINE
  5
263
100
AcDbEntity
  8
0
100
AcDbLine
 62
7
  6
BYLAYER
 10
269.6871696514
 20
244.2540364855
 11
269.6871696514
 21
242.6210316513
  0
LINE
  5
264
100
AcDbEntity
  8
0
100
AcDbLine
 62
7
  6
BYLAYER
 10
276.7582080235
 20
246.70347319
 11
276.7582080235
 21
248.3364780243
  0
LINE
  5
265
100
AcDbEntity
  8
0
100
AcDbLine
 62
7
  6
BYLAYER
 10
278.8794635998
 20
292.1008200853
 11
278.8794635998
 21
258.9508219499
  0
LINE
  5
266
100
AcDbEntity
  8
0
100
AcDbLine
 62
7
  6
BYLAYER
 10
239.9884287167
 20
317.8200712525
 11
276.0510246992
 21
296.9997927719
  0
LINE
  5
267
100
AcDbEntity
  8
0
100
AcDbLine
 62
7
  6
BYLAYER
 10
294.8954988744
 20
248.0711640257
 11
294.8954988744
 21
246.4381591915
  0
ARC
  5
268
100
AcDbEntity
  8
0
100
AcDbCircle
 62
7
  6
BYLAYER
 10
258.8000670047
 20
292.014222812
 40
1.9853680171
100
AcDbArc
 50
119.9900526094
 51
122.1641555602
  0
ARC
  5
269
100
AcDbEntity
  8
0
100
AcDbCircle
 62
7
  6
BYLAYER
 10
146.5117798206
 20
254.6189440991
 40
1.9853680171
100
AcDbArc
 50
119.9900526095
 51
122.1641555602
  0
SPLINE
  5
26A
100
AcDbEntity
  8
0
100
AcDbSpline
 62
7
  6
BYLAYER
 70
0
 71
3
 72
17
 73
13
 74
0
 42
0.0000001
 43
0.0000001
 44
0.0000000001
 40
0.0
 40
0.0
 40
0.0
 40
0.0
 40
0.1286868446
 40
0.2702756074
 40
0.4174306652
 40
0.5617796245
 40
0.6954500531
 40
0.8127146976
 40
0.864678417
 40
0.9125112571
 40
0.9571403601
 40
1.0
 40
1.0
 40
1.0
 40
1.0
 10
47.5787301506
 20
196.1882641797
 30
0.0
 10
47.9118335015
 20
195.9959512211
 30
0.0
 10
48.6660387139
 20
195.6847851177
 30
0.0
 10
49.8952287891
 20
195.4388146069
 30
0.0
 10
51.1953562283
 20
195.4028693629
 30
0.0
 10
52.4602828654
 20
195.5805661706
 30
0.0
 10
53.5874460337
 20
195.9570981052
 30
0.0
 10
54.3713780512
 20
196.4342743726
 30
0.0
 10
54.8314513647
 20
196.8959830308
 30
0.0
 10
55.0758108676
 20
197.255482212
 30
0.0
 10
55.2264282165
 20
197.6346498624
 30
0.0
 10
55.260691235
 20
197.8972595837
 30
0.0
 10
55.2606920238
 20
198.0253628725
 30
0.0
  0
SPLINE
  5
26B
100
AcDbEntity
  8
0
100
AcDbSpline
 62
7
  6
BYLAYER
 70
0
 71
3
 72
11
 73
7
 74
0
 42
0.0000001
 43
0.0000001
 44
0.0000000001
 40
0.0
 40
0.0
 40
0.0
 40
0.0
 40
0.2177517896
 40
0.4512005866
 40
0.7105345051
 40
1.0
 40
1.0
 40
1.0
 40
1.0
 10
73.4794180763
 20
213.9996531415
 30
0.0
 10
73.4826815749
 20
213.8113349042
 30
0.0
 10
73.5581483027
 20
213.4198079425
 30
0.0
 10
73.8607665861
 20
212.875623728
 30
0.0
 10
74.3330407974
 20
212.3830198616
 30
0.0
 10
74.7268154698
 20
212.1124987978
 30
0.0
 10
74.9436486508
 20
211.9873129345
 30
0.0
  0
SPLINE
  5
26C
100
AcDbEntity
  8
0
100
AcDbSpline
 62
7
  6
BYLAYER
 70
0
 71
3
 72
10
 73
6
 74
0
 42
0.0000001
 43
0.0000001
 44
0.0000000001
 40
0.0
 40
0.0
 40
0.0
 40
0.0
 40
0.2285882907
 40
0.4750689048
 40
1.0
 40
1.0
 40
1.0
 40
1.0
 10
74.9436486508
 20
211.9873129345
 30
0.0
 10
75.1824786423
 20
211.8494274939
 30
0.0
 10
75.704314633
 20
211.6057075204
 30
0.0
 10
76.859938188
 20
211.2513179959
 30
0.0
 10
77.7959045642
 20
211.1456229039
 30
0.0
 10
78.4291861523
 20
211.1419678599
 30
0.0
  0
SPLINE
  5
26D
100
AcDbEntity
  8
0
100
AcDbSpline
 62
7
  6
BYLAYER
 70
0
 71
3
 72
15
 73
11
 74
0
 42
0.0000001
 43
0.0000001
 44
0.0000000001
 40
0.0
 40
0.0
 40
0.0
 40
0.0
 40
0.1024736785
 40
0.2181537942
 40
0.3450302452
 40
0.4794673008
 40
0.6169088095
 40
0.7524714494
 40
0.8814647309
 40
1.0
 40
1.0
 40
1.0
 40
1.0
 10
46.8106266817
 20
196.8203873767
 30
0.0
 10
46.9884703095
 20
197.0085428723
 30
0.0
 10
47.4258278082
 20
197.354468473
 30
0.0
 10
48.2105046176
 20
197.7440691233
 30
0.0
 10
49.1259746132
 20
198.0209609806
 30
0.0
 10
50.1254125922
 20
198.170949668
 30
0.0
 10
51.1576968284
 20
198.1867323818
 30
0.0
 10
52.1695549503
 20
198.0673016849
 30
0.0
 10
53.1084397092
 20
197.8191214467
 30
0.0
 10
53.6833030695
 20
197.5626934244
 30
0.0
 10
53.9426646855
 20
197.4129543131
 30
0.0
  0
SPLINE
  5
26E
100
AcDbEntity
  8
0
100
AcDbSpline
 62
7
  6
BYLAYER
 70
0
 71
3
 72
11
 73
7
 74
0
 42
0.0000001
 43
0.0000001
 44
0.0000000001
 40
0.0
 40
0.0
 40
0.0
 40
0.0
 40
0.2177659733
 40
0.4509445136
 40
0.7101978733
 40
1.0
 40
1.0
 40
1.0
 40
1.0
 10
46.2607028123
 20
198.0253628717
 30
0.0
 10
46.260701757
 20
197.8539744557
 30
0.0
 10
46.3239621472
 20
197.496669291
 30
0.0
 10
46.594892064
 20
196.999035137
 30
0.0
 10
47.0229012719
 20
196.5489387845
 30
0.0
 10
47.3812033177
 20
196.3023037699
 30
0.0
 10
47.5787301506
 20
196.1882641797
 30
0.0
  0
SPLINE
  5
26F
100
AcDbEntity
  8
0
100
AcDbSpline
 62
7
  6
BYLAYER
 70
0
 71
3
 72
9
 73
5
 74
0
 42
0.0000001
 43
0.0000001
 44
0.0000000001
 40
0.0
 40
0.0
 40
0.0
 40
0.0
 40
0.2650450533
 40
1.0
 40
1.0
 40
1.0
 40
1.0
 10
53.9426646855
 20
197.4129543131
 30
0.0
 10
54.0171790805
 20
197.3699343803
 30
0.0
 10
54.293153973
 20
197.1991591354
 30
0.0
 10
54.5483730243
 20
196.9924861409
 30
0.0
 10
54.712132673
 20
196.8189727909
 30
0.0
  0
SPLINE
  5
270
100
AcDbEntity
  8
0
100
AcDbSpline
 62
7
  6
BYLAYER
 70
0
 71
3
 72
10
 73
6
 74
0
 42
0.0000001
 43
0.0000001
 44
0.0000000001
 40
0.0
 40
0.0
 40
0.0
 40
0.0
 40
0.5249310952
 40
0.7714117093
 40
1.0
 40
1.0
 40
1.0
 40
1.0
 10
77.8220456841
 20
214.0573481425
 30
0.0
 10
78.4553272723
 20
214.0536930985
 30
0.0
 10
79.3912936485
 20
213.9479980065
 30
0.0
 10
80.5469172034
 20
213.5936084821
 30
0.0
 10
81.0687531941
 20
213.3498885085
 30
0.0
 10
81.3075831857
 20
213.2120030679
 30
0.0
  0
SPLINE
  5
271
100
AcDbEntity
  8
0
100
AcDbSpline
 62
7
  6
BYLAYER
 70
0
 71
3
 72
9
 73
5
 74
0
 42
0.0000001
 43
0.0000001
 44
0.0000000001
 40
0.0
 40
0.0
 40
0.0
 40
0.0
 40
0.2548187018
 40
1.0
 40
1.0
 40
1.0
 40
1.0
 10
81.3075831857
 20
213.2120030679
 30
0.0
 10
81.3373139676
 20
213.1948383813
 30
0.0
 10
81.4532423961
 20
213.1261985249
 30
0.0
 10
81.5661234497
 20
213.0523793003
 30
0.0
 10
81.6480406766
 20
212.9943418667
 30
0.0
  0
SPLINE
  5
272
100
AcDbEntity
  8
0
100
AcDbSpline
 62
7
  6
BYLAYER
 70
0
 71
3
 72
17
 73
13
 74
0
 42
0.0000001
 43
0.0000001
 44
0.0000000001
 40
0.0
 40
0.0
 40
0.0
 40
0.0
 40
0.1286868446
 40
0.2702756074
 40
0.4174306652
 40
0.5617796245
 40
0.6954500531
 40
0.8127146976
 40
0.864678417
 40
0.9125112571
 40
0.9571403601
 40
1.0
 40
1.0
 40
1.0
 40
1.0
 10
53.9426646855
 20
199.8624615645
 30
0.0
 10
53.6095613346
 20
200.0547745231
 30
0.0
 10
52.8553561222
 20
200.3659406265
 30
0.0
 10
51.6261660469
 20
200.6119111373
 30
0.0
 10
50.3260386077
 20
200.6478563813
 30
0.0
 10
49.0611119707
 20
200.4701595736
 30
0.0
 10
47.9339488023
 20
200.093627639
 30
0.0
 10
47.1500167849
 20
199.6164513716
 30
0.0
 10
46.6899434714
 20
199.1547427134
 30
0.0
 10
46.4455839685
 20
198.7952435322
 30
0.0
 10
46.2949666196
 20
198.4160758818
 30
0.0
 10
46.2607036011
 20
198.1534661605
 30
0.0
 10
46.2607028123
 20
198.0253628717
 30
0.0
  0
SPLINE
  5
273
100
AcDbEntity
  8
0
100
AcDbSpline
 62
7
  6
BYLAYER
 70
0
 71
3
 72
11
 73
7
 74
0
 42
0.0000001
 43
0.0000001
 44
0.0000000001
 40
0.0
 40
0.0
 40
0.0
 40
0.0
 40
0.2177517896
 40
0.4512005866
 40
0.7105345051
 40
1.0
 40
1.0
 40
1.0
 40
1.0
 10
82.7718137601
 20
213.6491701123
 30
0.0
 10
82.7685502615
 20
213.8374883496
 30
0.0
 10
82.6930835337
 20
214.2290153113
 30
0.0
 10
82.3904652503
 20
214.7731995258
 30
0.0
 10
81.9181910391
 20
215.2658033922
 30
0.0
 10
81.5244163666
 20
215.536324456
 30
0.0
 10
81.3075831857
 20
215.6615103193
 30
0.0
  0
SPLINE
  5
274
100
AcDbEntity
  8
0
100
AcDbSpline
 62
7
  6
BYLAYER
 70
0
 71
3
 72
11
 73
7
 74
0
 42
0.0000001
 43
0.0000001
 44
0.0000000001
 40
0.0
 40
0.0
 40
0.0
 40
0.0
 40
0.2177659733
 40
0.4509445136
 40
0.7101978733
 40
1.0
 40
1.0
 40
1.0
 40
1.0
 10
55.2606920238
 20
198.0253628725
 30
0.0
 10
55.2606930791
 20
198.1967512885
 30
0.0
 10
55.1974326888
 20
198.5540564531
 30
0.0
 10
54.9265027721
 20
199.0516906072
 30
0.0
 10
54.4984935642
 20
199.5017869596
 30
0.0
 10
54.1401915184
 20
199.7484219743
 30
0.0
 10
53.9426646855
 20
199.8624615645
 30
0.0
  0
SPLINE
  5
275
100
AcDbEntity
  8
0
100
AcDbSpline
 62
7
  6
BYLAYER
 70
0
 71
3
 72
10
 73
6
 74
0
 42
0.0000001
 43
0.0000001
 44
0.0000000001
 40
0.0
 40
0.0
 40
0.0
 40
0.0
 40
0.2285882907
 40
0.4750689048
 40
1.0
 40
1.0
 40
1.0
 40
1.0
 10
81.3075831857
 20
215.6615103193
 30
0.0
 10
81.0687531941
 20
215.7993957599
 30
0.0
 10
80.5469172034
 20
216.0431157334
 30
0.0
 10
79.3912936485
 20
216.3975052579
 30
0.0
 10
78.4553272723
 20
216.5032003499
 30
0.0
 10
77.8220456841
 20
216.5068553939
 30
0.0
  0
SPLINE
  5
276
100
AcDbEntity
  8
0
100
AcDbSpline
 62
7
  6
BYLAYER
 70
0
 71
3
 72
17
 73
13
 74
0
 42
0.0000001
 43
0.0000001
 44
0.0000000001
 40
0.0
 40
0.0
 40
0.0
 40
0.0
 40
0.1286868446
 40
0.2702756074
 40
0.4174306652
 40
0.5617796245
 40
0.6954500531
 40
0.8127146976
 40
0.864678417
 40
0.9125112571
 40
0.9571403601
 40
1.0
 40
1.0
 40
1.0
 40
1.0
 10
81.5199969576
 20
176.5927079627
 30
0.0
 10
81.8531003085
 20
176.4003950041
 30
0.0
 10
82.6073055209
 20
176.0892289007
 30
0.0
 10
83.8364955962
 20
175.8432583899
 30
0.0
 10
85.1366230354
 20
175.8073131459
 30
0.0
 10
86.4015496724
 20
175.9850099536
 30
0.0
 10
87.5287128408
 20
176.3615418882
 30
0.0
 10
88.3126448583
 20
176.8387181556
 30
0.0
 10
88.7727181718
 20
177.3004268138
 30
0.0
 10
89.0170776746
 20
177.659925995
 30
0.0
 10
89.1676950235
 20
178.0390936454
 30
0.0
 10
89.2019580421
 20
178.3017033667
 30
0.0
 10
89.2019588309
 20
178.4298066555
 30
0.0
  0
SPLINE
  5
277
100
AcDbEntity
  8
0
100
AcDbSpline
 62
7
  6
BYLAYER
 70
0
 71
3
 72
11
 73
7
 74
0
 42
0.0000001
 43
0.0000001
 44
0.0000000001
 40
0.0
 40
0.0
 40
0.0
 40
0.0
 40
0.2177517896
 40
0.4512005866
 40
0.7105345051
 40
1.0
 40
1.0
 40
1.0
 40
1.0
 10
107.4206848834
 20
194.4040969246
 30
0.0
 10
107.4239483819
 20
194.2157786872
 30
0.0
 10
107.4994151098
 20
193.8242517255
 30
0.0
 10
107.8020333932
 20
193.280067511
 30
0.0
 10
108.2743076044
 20
192.7874636446
 30
0.0
 10
108.6680822768
 20
192.5169425808
 30
0.0
 10
108.8849154578
 20
192.3917567175
 30
0.0
  0
SPLINE
  5
278
100
AcDbEntity
  8
0
100
AcDbSpline
 62
7
  6
BYLAYER
 70
0
 71
3
 72
10
 73
6
 74
0
 42
0.0000001
 43
0.0000001
 44
0.0000000001
 40
0.0
 40
0.0
 40
0.0
 40
0.0
 40
0.2285882907
 40
0.4750689048
 40
1.0
 40
1.0
 40
1.0
 40
1.0
 10
108.8849154578
 20
192.3917567175
 30
0.0
 10
109.1237454494
 20
192.253871277
 30
0.0
 10
109.6455814401
 20
192.0101513034
 30
0.0
 10
110.801204995
 20
191.655761779
 30
0.0
 10
111.7371713712
 20
191.5500666869
 30
0.0
 10
112.3704529594
 20
191.5464116429
 30
0.0
  0
SPLINE
  5
279
100
AcDbEntity
  8
0
100
AcDbSpline
 62
7
  6
BYLAYER
 70
0
 71
3
 72
15
 73
11
 74
0
 42
0.0000001
 43
0.0000001
 44
0.0000000001
 40
0.0
 40
0.0
 40
0.0
 40
0.0
 40
0.1024736785
 40
0.2181537942
 40
0.3450302452
 40
0.4794673008
 40
0.6169088095
 40
0.7524714494
 40
0.8814647309
 40
1.0
 40
1.0
 40
1.0
 40
1.0
 10
80.7518934888
 20
177.2248311597
 30
0.0
 10
80.9297371166
 20
177.4129866554
 30
0.0
 10
81.3670946152
 20
177.758912256
 30
0.0
 10
82.1517714247
 20
178.1485129063
 30
0.0
 10
83.0672414203
 20
178.4254047637
 30
0.0
 10
84.0666793993
 20
178.5753934511
 30
0.0
 10
85.0989636354
 20
178.5911761648
 30
0.0
 10
86.1108217574
 20
178.4717454679
 30
0.0
 10
87.0497065162
 20
178.2235652297
 30
0.0
 10
87.6245698766
 20
177.9671372074
 30
0.0
 10
87.8839314926
 20
177.8173980961
 30
0.0
  0
SPLINE
  5
27A
100
AcDbEntity
  8
0
100
AcDbSpline
 62
7
  6
BYLAYER
 70
0
 71
3
 72
11
 73
7
 74
0
 42
0.0000001
 43
0.0000001
 44
0.0000000001
 40
0.0
 40
0.0
 40
0.0
 40
0.0
 40
0.2177659733
 40
0.4509445136
 40
0.7101978733
 40
1.0
 40
1.0
 40
1.0
 40
1.0
 10
80.2019696193
 20
178.4298066547
 30
0.0
 10
80.201968564
 20
178.2584182387
 30
0.0
 10
80.2652289543
 20
177.9011130741
 30
0.0
 10
80.536158871
 20
177.40347892
 30
0.0
 10
80.9641680789
 20
176.9533825676
 30
0.0
 10
81.3224701247
 20
176.7067475529
 30
0.0
 10
81.5199969576
 20
176.5927079627
 30
0.0
  0
SPLINE
  5
27B
100
AcDbEntity
  8
0
100
AcDbSpline
 62
7
  6
BYLAYER
 70
0
 71
3
 72
9
 73
5
 74
0
 42
0.0000001
 43
0.0000001
 44
0.0000000001
 40
0.0
 40
0.0
 40
0.0
 40
0.0
 40
0.2650450533
 40
1.0
 40
1.0
 40
1.0
 40
1.0
 10
87.8839314926
 20
177.8173980961
 30
0.0
 10
87.9584458876
 20
177.7743781634
 30
0.0
 10
88.2344207801
 20
177.6036029184
 30
0.0
 10
88.4896398313
 20
177.3969299239
 30
0.0
 10
88.6533994801
 20
177.2234165739
 30
0.0
  0
SPLINE
  5
27C
100
AcDbEntity
  8
0
100
AcDbSpline
 62
7
  6
BYLAYER
 70
0
 71
3
 72
10
 73
6
 74
0
 42
0.0000001
 43
0.0000001
 44
0.0000000001
 40
0.0
 40
0.0
 40
0.0
 40
0.0
 40
0.5249310952
 40
0.7714117093
 40
1.0
 40
1.0
 40
1.0
 40
1.0
 10
111.7633124912
 20
194.4617919256
 30
0.0
 10
112.3965940793
 20
194.4581368816
 30
0.0
 10
113.3325604555
 20
194.3524417895
 30
0.0
 10
114.4881840104
 20
193.9980522651
 30
0.0
 10
115.0100200011
 20
193.7543322915
 30
0.0
 10
115.2488499927
 20
193.616446851
 30
0.0
  0
SPLINE
  5
27D
100
AcDbEntity
  8
0
100
AcDbSpline
 62
7
  6
BYLAYER
 70
0
 71
3
 72
9
 73
5
 74
0
 42
0.0000001
 43
0.0000001
 44
0.0000000001
 40
0.0
 40
0.0
 40
0.0
 40
0.0
 40
0.2548187018
 40
1.0
 40
1.0
 40
1.0
 40
1.0
 10
115.2488499927
 20
193.616446851
 30
0.0
 10
115.2785807746
 20
193.5992821643
 30
0.0
 10
115.3945092032
 20
193.530642308
 30
0.0
 10
115.5073902567
 20
193.4568230833
 30
0.0
 10
115.5893074836
 20
193.3987856498
 30
0.0
  0
SPLINE
  5
27E
100
AcDbEntity
  8
0
100
AcDbSpline
 62
7
  6
BYLAYER
 70
0
 71
3
 72
17
 73
13
 74
0
 42
0.0000001
 43
0.0000001
 44
0.0000000001
 40
0.0
 40
0.0
 40
0.0
 40
0.0
 40
0.1286868446
 40
0.2702756074
 40
0.4174306652
 40
0.5617796245
 40
0.6954500531
 40
0.8127146976
 40
0.864678417
 40
0.9125112571
 40
0.9571403601
 40
1.0
 40
1.0
 40
1.0
 40
1.0
 10
87.8839314926
 20
180.2669053475
 30
0.0
 10
87.5508281417
 20
180.4592183061
 30
0.0
 10
86.7966229292
 20
180.7703844095
 30
0.0
 10
85.567432854
 20
181.0163549203
 30
0.0
 10
84.2673054148
 20
181.0523001643
 30
0.0
 10
83.0023787778
 20
180.8746033566
 30
0.0
 10
81.8752156094
 20
180.498071422
 30
0.0
 10
81.0912835919
 20
180.0208951546
 30
0.0
 10
80.6312102784
 20
179.5591864964
 30
0.0
 10
80.3868507755
 20
179.1996873152
 30
0.0
 10
80.2362334267
 20
178.8205196648
 30
0.0
 10
80.2019704081
 20
178.5579099435
 30
0.0
 10
80.2019696193
 20
178.4298066547
 30
0.0
  0
SPLINE
  5
27F
100
AcDbEntity
  8
0
100
AcDbSpline
 62
7
  6
BYLAYER
 70
0
 71
3
 72
11
 73
7
 74
0
 42
0.0000001
 43
0.0000001
 44
0.0000000001
 40
0.0
 40
0.0
 40
0.0
 40
0.0
 40
0.2177517896
 40
0.4512005866
 40
0.7105345051
 40
1.0
 40
1.0
 40
1.0
 40
1.0
 10
116.7130805672
 20
194.0536138953
 30
0.0
 10
116.7098170686
 20
194.2419321327
 30
0.0
 10
116.6343503408
 20
194.6334590943
 30
0.0
 10
116.3317320573
 20
195.1776433089
 30
0.0
 10
115.8594578461
 20
195.6702471752
 30
0.0
 10
115.4656831737
 20
195.940768239
 30
0.0
 10
115.2488499927
 20
196.0659541024
 30
0.0
  0
SPLINE
  5
280
100
AcDbEntity
  8
0
100
AcDbSpline
 62
7
  6
BYLAYER
 70
0
 71
3
 72
11
 73
7
 74
0
 42
0.0000001
 43
0.0000001
 44
0.0000000001
 40
0.0
 40
0.0
 40
0.0
 40
0.0
 40
0.2177659733
 40
0.4509445136
 40
0.7101978733
 40
1.0
 40
1.0
 40
1.0
 40
1.0
 10
89.2019588309
 20
178.4298066555
 30
0.0
 10
89.2019598862
 20
178.6011950715
 30
0.0
 10
89.1386994959
 20
178.9585002362
 30
0.0
 10
88.8677695792
 20
179.4561343902
 30
0.0
 10
88.4397603713
 20
179.9062307427
 30
0.0
 10
88.0814583255
 20
180.1528657573
 30
0.0
 10
87.8839314926
 20
180.2669053475
 30
0.0
  0
SPLINE
  5
281
100
AcDbEntity
  8
0
100
AcDbSpline
 62
7
  6
BYLAYER
 70
0
 71
3
 72
10
 73
6
 74
0
 42
0.0000001
 43
0.0000001
 44
0.0000000001
 40
0.0
 40
0.0
 40
0.0
 40
0.0
 40
0.2285882907
 40
0.4750689048
 40
1.0
 40
1.0
 40
1.0
 40
1.0
 10
115.2488499927
 20
196.0659541024
 30
0.0
 10
115.0100200011
 20
196.2038395429
 30
0.0
 10
114.4881840104
 20
196.4475595165
 30
0.0
 10
113.3325604555
 20
196.8019490409
 30
0.0
 10
112.3965940793
 20
196.9076441329
 30
0.0
 10
111.7633124912
 20
196.9112991769
 30
0.0
  0
SPLINE
  5
282
100
AcDbEntity
  8
0
100
AcDbSpline
 62
7
  6
BYLAYER
 70
0
 71
3
 72
9
 73
5
 74
0
 42
0.0000001
 43
0.0000001
 44
0.0000000001
 40
0.0
 40
0.0
 40
0.0
 40
0.0
 40
0.2650450533
 40
1.0
 40
1.0
 40
1.0
 40
1.0
 10
121.8251982996
 20
155.7723346278
 30
0.0
 10
121.8997126946
 20
155.729314695
 30
0.0
 10
122.1756875871
 20
155.55853945
 30
0.0
 10
122.4309066384
 20
155.3518664556
 30
0.0
 10
122.5946662871
 20
155.1783531055
 30
0.0
  0
SPLINE
  5
283
100
AcDbEntity
  8
0
100
AcDbSpline
 62
7
  6
BYLAYER
 70
0
 71
3
 72
11
 73
7
 74
0
 42
0.0000001
 43
0.0000001
 44
0.0000000001
 40
0.0
 40
0.0
 40
0.0
 40
0.0
 40
0.2177659733
 40
0.4509445136
 40
0.7101978733
 40
1.0
 40
1.0
 40
1.0
 40
1.0
 10
114.1432364264
 20
156.3847431863
 30
0.0
 10
114.1432353711
 20
156.2133547703
 30
0.0
 10
114.2064957614
 20
155.8560496057
 30
0.0
 10
114.4774256781
 20
155.3584154517
 30
0.0
 10
114.905434886
 20
154.9083190992
 30
0.0
 10
115.2637369318
 20
154.6616840846
 30
0.0
 10
115.4612637647
 20
154.5476444943
 30
0.0
  0
SPLINE
  5
284
100
AcDbEntity
  8
0
100
AcDbSpline
 62
7
  6
BYLAYER
 70
0
 71
3
 72
10
 73
6
 74
0
 42
0.0000001
 43
0.0000001
 44
0.0000000001
 40
0.0
 40
0.0
 40
0.0
 40
0.0
 40
0.5249310952
 40
0.7714117093
 40
1.0
 40
1.0
 40
1.0
 40
1.0
 10
145.7045792982
 20
172.4167284572
 30
0.0
 10
146.3378608864
 20
172.4130734132
 30
0.0
 10
147.2738272626
 20
172.3073783211
 30
0.0
 10
148.4294508175
 20
171.9529887967
 30
0.0
 10
148.9512868082
 20
171.7092688232
 30
0.0
 10
149.1901167998
 20
171.5713833826
 30
0.0
  0
SPLINE
  5
285
100
AcDbEntity
  8
0
100
AcDbSpline
 62
7
  6
BYLAYER
 70
0
 71
3
 72
9
 73
5
 74
0
 42
0.0000001
 43
0.0000001
 44
0.0000000001
 40
0.0
 40
0.0
 40
0.0
 40
0.0
 40
0.2548187018
 40
1.0
 40
1.0
 40
1.0
 40
1.0
 10
149.1901167998
 20
171.5713833826
 30
0.0
 10
149.2198475817
 20
171.554218696
 30
0.0
 10
149.3357760103
 20
171.4855788396
 30
0.0
 10
149.4486570638
 20
171.4117596149
 30
0.0
 10
149.5305742907
 20
171.3537221814
 30
0.0
  0
SPLINE
  5
286
100
AcDbEntity
  8
0
100
AcDbSpline
 62
7
  6
BYLAYER
 70
0
 71
3
 72
15
 73
11
 74
0
 42
0.0000001
 43
0.0000001
 44
0.0000000001
 40
0.0
 40
0.0
 40
0.0
 40
0.0
 40
0.1024736785
 40
0.2181537942
 40
0.3450302452
 40
0.4794673008
 40
0.6169088095
 40
0.7524714494
 40
0.8814647309
 40
1.0
 40
1.0
 40
1.0
 40
1.0
 10
114.6931602958
 20
155.1797676914
 30
0.0
 10
114.8710039236
 20
155.367923187
 30
0.0
 10
115.3083614223
 20
155.7138487877
 30
0.0
 10
116.0930382317
 20
156.103449438
 30
0.0
 10
117.0085082273
 20
156.3803412953
 30
0.0
 10
118.0079462063
 20
156.5303299827
 30
0.0
 10
119.0402304425
 20
156.5461126965
 30
0.0
 10
120.0520885644
 20
156.4266819996
 30
0.0
 10
120.9909733233
 20
156.1785017614
 30
0.0
 10
121.5658366836
 20
155.922073739
 30
0.0
 10
121.8251982996
 20
155.7723346278
 30
0.0
  0
SPLINE
  5
287
100
AcDbEntity
  8
0
100
AcDbSpline
 62
7
  6
BYLAYER
 70
0
 71
3
 72
17
 73
13
 74
0
 42
0.0000001
 43
0.0000001
 44
0.0000000001
 40
0.0
 40
0.0
 40
0.0
 40
0.0
 40
0.1286868446
 40
0.2702756074
 40
0.4174306652
 40
0.5617796245
 40
0.6954500531
 40
0.8127146976
 40
0.864678417
 40
0.9125112571
 40
0.9571403601
 40
1.0
 40
1.0
 40
1.0
 40
1.0
 10
115.4612637647
 20
154.5476444943
 30
0.0
 10
115.7943671156
 20
154.3553315357
 30
0.0
 10
116.548572328
 20
154.0441654323
 30
0.0
 10
117.7777624032
 20
153.7981949216
 30
0.0
 10
119.0778898424
 20
153.7622496775
 30
0.0
 10
120.3428164795
 20
153.9399464852
 30
0.0
 10
121.4699796479
 20
154.3164784199
 30
0.0
 10
122.2539116653
 20
154.7936546873
 30
0.0
 10
122.7139849788
 20
155.2553633455
 30
0.0
 10
122.9583444817
 20
155.6148625266
 30
0.0
 10
123.1089618306
 20
155.9940301771
 30
0.0
 10
123.1432248491
 20
156.2566398983
 30
0.0
 10
123.1432256379
 20
156.3847431872
 30
0.0
  0
SPLINE
  5
288
100
AcDbEntity
  8
0
100
AcDbSpline
 62
7
  6
BYLAYER
 70
0
 71
3
 72
11
 73
7
 74
0
 42
0.0000001
 43
0.0000001
 44
0.0000000001
 40
0.0
 40
0.0
 40
0.0
 40
0.0
 40
0.2177517896
 40
0.4512005866
 40
0.7105345051
 40
1.0
 40
1.0
 40
1.0
 40
1.0
 10
141.3619516904
 20
172.3590334562
 30
0.0
 10
141.365215189
 20
172.1707152189
 30
0.0
 10
141.4406819168
 20
171.7791882572
 30
0.0
 10
141.7433002003
 20
171.2350040427
 30
0.0
 10
142.2155744115
 20
170.7424001763
 30
0.0
 10
142.6093490839
 20
170.4718791125
 30
0.0
 10
142.8261822649
 20
170.3466932492
 30
0.0
  0
SPLINE
  5
289
100
AcDbEntity
  8
0
100
AcDbSpline
 62
7
  6
BYLAYER
 70
0
 71
3
 72
10
 73
6
 74
0
 42
0.0000001
 43
0.0000001
 44
0.0000000001
 40
0.0
 40
0.0
 40
0.0
 40
0.0
 40
0.2285882907
 40
0.4750689048
 40
1.0
 40
1.0
 40
1.0
 40
1.0
 10
142.8261822649
 20
170.3466932492
 30
0.0
 10
143.0650122565
 20
170.2088078086
 30
0.0
 10
143.5868482472
 20
169.965087835
 30
0.0
 10
144.7424718021
 20
169.6106983106
 30
0.0
 10
145.6784381783
 20
169.5050032186
 30
0.0
 10
146.3117197664
 20
169.5013481746
 30
0.0
  0
SPLINE
  5
28A
100
AcDbEntity
  8
0
100
AcDbSpline
 62
7
  6
BYLAYER
 70
0
 71
3
 72
17
 73
13
 74
0
 42
0.0000001
 43
0.0000001
 44
0.0000000001
 40
0.0
 40
0.0
 40
0.0
 40
0.0
 40
0.1286868446
 40
0.2702756074
 40
0.4174306652
 40
0.5617796245
 40
0.6954500531
 40
0.8127146976
 40
0.864678417
 40
0.9125112571
 40
0.9571403601
 40
1.0
 40
1.0
 40
1.0
 40
1.0
 10
121.8251982996
 20
158.2218418792
 30
0.0
 10
121.4920949487
 20
158.4141548378
 30
0.0
 10
120.7378897363
 20
158.7253209412
 30
0.0
 10
119.5086996611
 20
158.9712914519
 30
0.0
 10
118.2085722218
 20
159.007236696
 30
0.0
 10
116.9436455848
 20
158.8295398883
 30
0.0
 10
115.8164824164
 20
158.4530079536
 30
0.0
 10
115.032550399
 20
157.9758316862
 30
0.0
 10
114.5724770855
 20
157.514123028
 30
0.0
 10
114.3281175826
 20
157.1546238469
 30
0.0
 10
114.1775002337
 20
156.7754561964
 30
0.0
 10
114.1432372152
 20
156.5128464752
 30
0.0
 10
114.1432364264
 20
156.3847431863
 30
0.0
  0
SPLINE
  5
28B
100
AcDbEntity
  8
0
100
AcDbSpline
 62
7
  6
BYLAYER
 70
0
 71
3
 72
11
 73
7
 74
0
 42
0.0000001
 43
0.0000001
 44
0.0000000001
 40
0.0
 40
0.0
 40
0.0
 40
0.0
 40
0.2177659733
 40
0.4509445136
 40
0.7101978733
 40
1.0
 40
1.0
 40
1.0
 40
1.0
 10
123.1432256379
 20
156.3847431872
 30
0.0
 10
123.1432266932
 20
156.5561316032
 30
0.0
 10
123.0799663029
 20
156.9134367678
 30
0.0
 10
122.8090363862
 20
157.4110709218
 30
0.0
 10
122.3810271783
 20
157.8611672743
 30
0.0
 10
122.0227251325
 20
158.1078022889
 30
0.0
 10
121.8251982996
 20
158.2218418792
 30
0.0
  0
SPLINE
  5
28C
100
AcDbEntity
  8
0
100
AcDbSpline
 62
7
  6
BYLAYER
 70
0
 71
3
 72
11
 73
7
 74
0
 42
0.0000001
 43
0.0000001
 44
0.0000000001
 40
0.0
 40
0.0
 40
0.0
 40
0.0
 40
0.2177517896
 40
0.4512005866
 40
0.7105345051
 40
1.0
 40
1.0
 40
1.0
 40
1.0
 10
150.6543473742
 20
172.0085504269
 30
0.0
 10
150.6510838757
 20
172.1968686643
 30
0.0
 10
150.5756171478
 20
172.588395626
 30
0.0
 10
150.2729988644
 20
173.1325798405
 30
0.0
 10
149.8007246532
 20
173.6251837069
 30
0.0
 10
149.4069499807
 20
173.8957047707
 30
0.0
 10
149.1901167998
 20
174.020890634
 30
0.0
  0
SPLINE
  5
28D
100
AcDbEntity
  8
0
100
AcDbSpline
 62
7
  6
BYLAYER
 70
0
 71
3
 72
10
 73
6
 74
0
 42
0.0000001
 43
0.0000001
 44
0.0000000001
 40
0.0
 40
0.0
 40
0.0
 40
0.0
 40
0.2285882907
 40
0.4750689048
 40
1.0
 40
1.0
 40
1.0
 40
1.0
 10
149.1901167998
 20
174.020890634
 30
0.0
 10
148.9512868082
 20
174.1587760745
 30
0.0
 10
148.4294508175
 20
174.4024960481
 30
0.0
 10
147.2738272626
 20
174.7568855725
 30
0.0
 10
146.3378608864
 20
174.8625806646
 30
0.0
 10
145.7045792982
 20
174.8662357086
 30
0.0
  0
SPLINE
  5
28E
100
AcDbEntity
  8
0
100
AcDbSpline
 62
7
  6
BYLAYER
 70
0
 71
3
 72
15
 73
11
 74
0
 42
0.0000001
 43
0.0000001
 44
0.0000000001
 40
0.0
 40
0.0
 40
0.0
 40
0.0
 40
0.0869287048
 40
0.1863976548
 40
0.3037857072
 40
0.4375987829
 40
0.5820985487
 40
0.7294177134
 40
0.8711708202
 40
1.0
 40
1.0
 40
1.0
 40
1.0
 10
268.6621162962
 20
242.8251937326
 30
0.0
 10
268.6620352018
 20
242.6233300256
 30
0.0
 10
268.7839879235
 20
242.1865101719
 30
0.0
 10
269.2600616506
 20
241.6450577261
 30
0.0
 10
269.9628748522
 20
241.2168079364
 30
0.0
 10
270.8402762282
 20
240.9236544849
 30
0.0
 10
271.8238642444
 20
240.785492527
 30
0.0
 10
272.8351563852
 20
240.8134405657
 30
0.0
 10
273.7912210295
 20
241.0047328574
 30
0.0
 10
274.3778537285
 20
241.2467698803
 30
0.0
 10
274.6369377274
 20
241.3963512039
 30
0.0
  0
SPLINE
  5
28F
100
AcDbEntity
  8
0
100
AcDbSpline
 62
7
  6
BYLAYER
 70
0
 71
3
 72
9
 73
5
 74
0
 42
0.0000001
 43
0.0000001
 44
0.0000000001
 40
0.0
 40
0.0
 40
0.0
 40
0.0
 40
0.2337295704
 40
1.0
 40
1.0
 40
1.0
 40
1.0
 10
269.0284091507
 20
242.0922409359
 30
0.0
 10
269.0714892028
 20
242.142233113
 30
0.0
 10
269.26691994
 20
242.3465292303
 30
0.0
 10
269.4998000285
 20
242.5128543948
 30
0.0
 10
269.6871696514
 20
242.6210316513
 30
0.0
  0
SPLINE
  5
290
100
AcDbEntity
  8
0
100
AcDbSpline
 62
7
  6
BYLAYER
 70
0
 71
3
 72
11
 73
7
 74
0
 42
0.0000001
 43
0.0000001
 44
0.0000000001
 40
0.0
 40
0.0
 40
0.0
 40
0.0
 40
0.2372523758
 40
0.4999990758
 40
0.7627462798
 40
1.0
 40
1.0
 40
1.0
 40
1.0
 10
280.2936830501
 20
256.5013356066
 30
0.0
 10
280.0928937403
 20
256.6172587461
 30
0.0
 10
279.7129176981
 20
256.9370103453
 30
0.0
 10
279.2696032314
 20
257.5430722479
 30
0.0
 10
278.9663919889
 20
258.2300247012
 30
0.0
 10
278.8794635998
 20
258.7189704233
 30
0.0
 10
278.8794635998
 20
258.9508219499
 30
0.0
  0
SPLINE
  5
291
100
AcDbEntity
  8
0
100
AcDbSpline
 62
7
  6
BYLAYER
 70
0
 71
3
 72
11
 73
7
 74
0
 42
0.0000001
 43
0.0000001
 44
0.0000000001
 40
0.0
 40
0.0
 40
0.0
 40
0.0
 40
0.2372413576
 40
0.5000010231
 40
0.762760128
 40
1.0
 40
1.0
 40
1.0
 40
1.0
 10
278.8794635998
 20
292.1008200853
 30
0.0
 10
278.8794635998
 20
292.5645005483
 30
0.0
 10
278.70553944
 20
293.5423655788
 30
0.0
 10
278.0993796262
 20
294.9164327913
 30
0.0
 10
277.2124787802
 20
296.128409912
 30
0.0
 10
276.452583516
 20
296.7679579258
 30
0.0
 10
276.0510246992
 20
296.9997927719
 30
0.0
  0
SPLINE
  5
292
100
AcDbEntity
  8
0
100
AcDbSpline
 62
7
  6
BYLAYER
 70
0
 71
3
 72
11
 73
7
 74
0
 42
0.0000001
 43
0.0000001
 44
0.0000000001
 40
0.0
 40
0.0
 40
0.0
 40
0.0
 40
0.289702329
 40
0.5490881649
 40
0.7822156415
 40
1.0
 40
1.0
 40
1.0
 40
1.0
 10
239.9884287167
 20
317.8200712525
 30
0.0
 10
239.8129134204
 20
317.9214027636
 30
0.0
 10
239.4637569002
 20
318.0875033654
 30
0.0
 10
238.9270963811
 20
318.2170972655
 30
0.0
 10
238.4235518136
 20
318.2043476085
 30
0.0
 10
238.1203910979
 20
318.0943282371
 30
0.0
 10
237.9884476502
 20
318.0181510831
 30
0.0
  0
SPLINE
  5
293
100
AcDbEntity
  8
0
100
AcDbSpline
 62
7
  6
BYLAYER
 70
0
 71
3
 72
15
 73
11
 74
0
 42
0.0000001
 43
0.0000001
 44
0.0000000001
 40
0.0
 40
0.0
 40
0.0
 40
0.0
 40
0.0869287048
 40
0.1863976548
 40
0.3037857072
 40
0.4375987829
 40
0.5820985487
 40
0.7294177134
 40
0.8711708202
 40
1.0
 40
1.0
 40
1.0
 40
1.0
 10
183.8096558305
 20
193.8358952681
 30
0.0
 10
183.8095747361
 20
193.6340315611
 30
0.0
 10
183.9315274578
 20
193.1972117073
 30
0.0
 10
184.407601185
 20
192.6557592615
 30
0.0
 10
185.1104143865
 20
192.2275094718
 30
0.0
 10
185.9878157626
 20
191.9343560203
 30
0.0
 10
186.9714037787
 20
191.7961940625
 30
0.0
 10
187.9826959195
 20
191.8241421011
 30
0.0
 10
188.9387605638
 20
192.0154343928
 30
0.0
 10
189.5253932628
 20
192.2574714157
 30
0.0
 10
189.7844772617
 20
192.4070527393
 30
0.0
  0
SPLINE
  5
294
100
AcDbEntity
  8
0
100
AcDbSpline
 62
7
  6
BYLAYER
 70
0
 71
3
 72
9
 73
5
 74
0
 42
0.0000001
 43
0.0000001
 44
0.0000000001
 40
0.0
 40
0.0
 40
0.0
 40
0.0
 40
0.2337295704
 40
1.0
 40
1.0
 40
1.0
 40
1.0
 10
184.1759486851
 20
193.1029424714
 30
0.0
 10
184.2190287371
 20
193.1529346485
 30
0.0
 10
184.4144594744
 20
193.3572307657
 30
0.0
 10
184.6473395628
 20
193.5235559302
 30
0.0
 10
184.8347091857
 20
193.6317331867
 30
0.0
  0
SPLINE
  5
295
100
AcDbEntity
  8
0
100
AcDbSpline
 62
7
  6
BYLAYER
 70
0
 71
3
 72
11
 73
7
 74
0
 42
0.0000001
 43
0.0000001
 44
0.0000000001
 40
0.0
 40
0.0
 40
0.0
 40
0.0
 40
0.2897033281
 40
0.5490895198
 40
0.7822165953
 40
1.0
 40
1.0
 40
1.0
 40
1.0
 10
127.558895048
 20
252.9091807519
 30
0.0
 10
127.558895048
 20
253.1118533295
 30
0.0
 10
127.5896231926
 20
253.4972936176
 30
0.0
 10
127.7457218849
 20
254.0268683748
 30
0.0
 10
128.0085402403
 20
254.4565883421
 30
0.0
 10
128.2554064495
 20
254.6641284377
 30
0.0
 10
128.387352882
 20
254.740307233
 30
0.0
  0
SPLINE
  5
296
100
AcDbEntity
  8
0
100
AcDbSpline
 62
7
  6
BYLAYER
 70
0
 71
3
 72
11
 73
7
 74
0
 42
0.0000001
 43
0.0000001
 44
0.0000000001
 40
0.0
 40
0.0
 40
0.0
 40
0.0
 40
0.237239768
 40
0.4999988393
 40
0.7627585384
 40
1.0
 40
1.0
 40
1.0
 40
1.0
 10
170.6925882819
 20
191.5904869222
 30
0.0
 10
170.2910296412
 20
191.8223216668
 30
0.0
 10
169.5311345468
 20
192.4618694389
 30
0.0
 10
168.6442336983
 20
193.6738463081
 30
0.0
 10
168.0380736655
 20
195.0479136442
 30
0.0
 10
167.8641493814
 20
196.0257789426
 30
0.0
 10
167.8641493814
 20
196.4894596088
 30
0.0
  0
SPLINE
  5
297
100
AcDbEntity
  8
0
100
AcDbSpline
 62
7
  6
BYLAYER
 70
0
 71
3
 72
11
 73
7
 74
0
 42
0.0000001
 43
0.0000001
 44
0.0000000001
 40
0.0
 40
0.0
 40
0.0
 40
0.0
 40
0.2372539654
 40
0.5000012591
 40
0.7627478695
 40
1.0
 40
1.0
 40
1.0
 40
1.0
 10
167.8641493814
 20
229.6394577443
 30
0.0
 10
167.8641493814
 20
229.8713095105
 30
0.0
 10
167.7772208501
 20
230.3602555596
 30
0.0
 10
167.4740093396
 20
231.0472081565
 30
0.0
 10
167.0306948633
 20
231.6532697553
 30
0.0
 10
166.6507190333
 20
231.9730210679
 30
0.0
 10
166.4499299311
 20
232.0889440876
 30
0.0
  0
SPLINE
  5
298
100
AcDbEntity
  8
0
100
AcDbSpline
 62
7
  6
BYLAYER
 70
0
 71
3
 72
11
 73
7
 74
0
 42
0.0000001
 43
0.0000001
 44
0.0000000001
 40
0.0
 40
0.0
 40
0.0
 40
0.0
 40
0.2895391946
 40
0.5491157945
 40
0.7822541179
 40
1.0
 40
1.0
 40
1.0
 40
1.0
 10
130.3873339486
 20
252.9092225681
 30
0.0
 10
130.299627433
 20
252.959858803
 30
0.0
 10
130.1250053166
 20
253.0428189209
 30
0.0
 10
129.8567169455
 20
253.1077570555
 30
0.0
 10
129.6048541231
 20
253.1014301458
 30
0.0
 10
129.4533531489
 20
253.0462553309
 30
0.0
 10
129.3873943789
 20
253.0081742131
 30
0.0
  0
SPLINE
  5
299
100
AcDbEntity
  8
0
100
AcDbSpline
 62
7
  6
BYLAYER
 70
0
 71
3
 72
15
 73
11
 74
0
 42
0.0000001
 43
0.0000001
 44
0.0000000001
 40
0.0
 40
0.0
 40
0.0
 40
0.0
 40
0.0869258731
 40
0.1863900355
 40
0.3037775758
 40
0.4375856292
 40
0.582082136
 40
0.7293904368
 40
0.8711742898
 40
1.0
 40
1.0
 40
1.0
 40
1.0
 10
257.1634133833
 20
294.4686494976
 30
0.0
 10
257.1634110705
 20
294.341769527
 30
0.0
 10
257.239967645
 20
294.0672061392
 30
0.0
 10
257.5392478758
 20
293.7268827252
 30
0.0
 10
257.9809760723
 20
293.4577009569
 30
0.0
 10
258.5324644536
 20
293.2734134002
 30
0.0
 10
259.1506830106
 20
293.1865960805
 30
0.0
 10
259.7863720369
 20
293.2040896534
 30
0.0
 10
260.3873342043
 20
293.3243826374
 30
0.0
 10
260.7561180346
 20
293.4765010032
 30
0.0
 10
260.9189643113
 20
293.5705197836
 30
0.0
  0
SPLINE
  5
29A
100
AcDbEntity
  8
0
100
AcDbSpline
 62
7
  6
BYLAYER
 70
0
 71
3
 72
11
 73
7
 74
0
 42
0.0000001
 43
0.0000001
 44
0.0000000001
 40
0.0
 40
0.0
 40
0.0
 40
0.0
 40
0.2895468475
 40
0.5491384346
 40
0.782278826
 40
1.0
 40
1.0
 40
1.0
 40
1.0
 10
148.6306771272
 20
256.1752410708
 30
0.0
 10
148.7271561209
 20
256.2309429113
 30
0.0
 10
148.9022357288
 20
256.3516664624
 30
0.0
 10
149.1116691132
 20
256.5715342894
 30
0.0
 10
149.2441422786
 20
256.8149484197
 30
0.0
 10
149.2749437376
 20
256.9896016804
 30
0.0
 10
149.2749452645
 20
257.0733706767
 30
0.0
  0
SPLINE
  5
29B
100
AcDbEntity
  8
0
100
AcDbSpline
 62
7
  6
BYLAYER
 70
0
 71
3
 72
11
 73
7
 74
0
 42
0.0000001
 43
0.0000001
 44
0.0000000001
 40
0.0
 40
0.0
 40
0.0
 40
0.0
 40
0.2895468475
 40
0.5491384346
 40
0.782278826
 40
1.0
 40
1.0
 40
1.0
 40
1.0
 10
260.9189643113
 20
293.5705197836
 30
0.0
 10
261.015443305
 20
293.6262216241
 30
0.0
 10
261.1905229129
 20
293.7469451752
 30
0.0
 10
261.3999562973
 20
293.9668130022
 30
0.0
 10
261.5324294627
 20
294.2102271326
 30
0.0
 10
261.5632309217
 20
294.3848803932
 30
0.0
 10
261.5632324486
 20
294.4686493895
 30
0.0
  0
SPLINE
  5
29C
100
AcDbEntity
  8
0
100
AcDbSpline
 62
7
  6
BYLAYER
 70
0
 71
3
 72
11
 73
7
 74
0
 42
0.0000001
 43
0.0000001
 44
0.0000000001
 40
0.0
 40
0.0
 40
0.0
 40
0.0
 40
0.2896428702
 40
0.5491125874
 40
0.7822368
 40
1.0
 40
1.0
 40
1.0
 40
1.0
 10
196.8555156339
 20
196.489494278
 30
0.0
 10
197.0090576518
 20
196.5781412743
 30
0.0
 10
197.2876562752
 20
196.7701064991
 30
0.0
 10
197.6207055888
 20
197.1200060444
 30
0.0
 10
197.8314502441
 20
197.5071805324
 30
0.0
 10
197.8805154402
 20
197.7850408899
 30
0.0
 10
197.8805689891
 20
197.918337031
 30
0.0
  0
SPLINE
  5
29D
100
AcDbEntity
  8
0
100
AcDbSpline
 62
7
  6
BYLAYER
 70
0
 71
3
 72
11
 73
7
 74
0
 42
0.0000001
 43
0.0000001
 44
0.0000000001
 40
0.0
 40
0.0
 40
0.0
 40
0.0
 40
0.2896428702
 40
0.5491125874
 40
0.7822368
 40
1.0
 40
1.0
 40
1.0
 40
1.0
 10
281.7079760995
 20
245.4787927426
 30
0.0
 10
281.8615181175
 20
245.5674397389
 30
0.0
 10
282.1401167409
 20
245.7594049636
 30
0.0
 10
282.4731660545
 20
246.1093045089
 30
0.0
 10
282.6839107097
 20
246.496478997
 30
0.0
 10
282.7329759059
 20
246.7743393545
 30
0.0
 10
282.7330294547
 20
246.9076354955
 30
0.0
  0
SPLINE
  5
29E
100
AcDbEntity
  8
0
100
AcDbSpline
 62
7
  6
BYLAYER
 70
0
 71
3
 72
12
 73
8
 74
0
 42
0.0000001
 43
0.0000001
 44
0.0000000001
 40
0.0
 40
0.0
 40
0.0
 40
0.0
 40
0.252066455
 40
0.5295046931
 40
0.6647053612
 40
0.7905064191
 40
1.0
 40
1.0
 40
1.0
 40
1.0
 10
191.9057475579
 20
197.7141747254
 30
0.0
 10
192.3517411116
 20
197.9716676867
 30
0.0
 10
193.4080513833
 20
198.3040031037
 30
0.0
 10
194.7805693699
 20
198.3397667059
 30
0.0
 10
195.8674466711
 20
198.136343932
 30
0.0
 10
196.7711087699
 20
197.8141520191
 30
0.0
 10
197.3669250589
 20
197.4043420027
 30
0.0
 10
197.615902057
 20
197.0562009177
 30
0.0
  0
SPLINE
  5
29F
100
AcDbEntity
  8
0
100
AcDbSpline
 62
7
  6
BYLAYER
 70
0
 71
3
 72
15
 73
11
 74
0
 42
0.0000001
 43
0.0000001
 44
0.0000000001
 40
0.0
 40
0.0
 40
0.0
 40
0.0
 40
0.0869258731
 40
0.1863900355
 40
0.3037775758
 40
0.4375856292
 40
0.582082136
 40
0.7293904368
 40
0.8711742898
 40
1.0
 40
1.0
 40
1.0
 40
1.0
 10
144.8751261991
 20
257.0733707848
 30
0.0
 10
144.8751238864
 20
256.9464908142
 30
0.0
 10
144.9516804609
 20
256.6719274264
 30
0.0
 10
145.2509606917
 20
256.3316040124
 30
0.0
 10
145.6926888882
 20
256.062422244
 30
0.0
 10
146.2441772695
 20
255.8781346873
 30
0.0
 10
146.8623958265
 20
255.7913173677
 30
0.0
 10
147.4980848528
 20
255.8088109406
 30
0.0
 10
148.0990470202
 20
255.9291039245
 30
0.0
 10
148.4678308505
 20
256.0812222903
 30
0.0
 10
148.6306771272
 20
256.1752410708
 30
0.0
  0
SPLINE
  5
2A0
100
AcDbEntity
  8
0
100
AcDbSpline
 62
7
  6
BYLAYER
 70
0
 71
3
 72
12
 73
8
 74
0
 42
0.0000001
 43
0.0000001
 44
0.0000000001
 40
0.0
 40
0.0
 40
0.0
 40
0.0
 40
0.252066455
 40
0.5295046931
 40
0.6647053612
 40
0.7905064191
 40
1.0
 40
1.0
 40
1.0
 40
1.0
 10
276.7582080235
 20
246.70347319
 30
0.0
 10
277.2042015773
 20
246.9609661513
 30
0.0
 10
278.2605118489
 20
247.2933015682
 30
0.0
 10
279.6330298356
 20
247.3290651705
 30
0.0
 10
280.7199071368
 20
247.1256423966
 30
0.0
 10
281.6235692355
 20
246.8034504837
 30
0.0
 10
282.2193855245
 20
246.3936404673
 30
0.0
 10
282.4683625226
 20
246.0454993822
 30
0.0
  0
SPLINE
  5
2A1
100
AcDbEntity
  8
0
100
AcDbSpline
 62
7
  6
BYLAYER
 70
0
 71
3
 72
13
 73
9
 74
0
 42
0.0000001
 43
0.0000001
 44
0.0000000001
 40
0.0
 40
0.0
 40
0.0
 40
0.0
 40
0.0896002801
 40
0.1863318379
 40
0.2948972715
 40
0.4169433553
 40
0.6957225182
 40
1.0
 40
1.0
 40
1.0
 40
1.0
 10
123.705329193
 20
228.5363594023
 30
0.0
 10
123.7052720039
 20
228.3940017488
 30
0.0
 10
123.7620241107
 20
228.0957689295
 30
0.0
 10
124.0023095823
 20
227.6854556212
 30
0.0
 10
124.3789771208
 20
227.3196109632
 30
0.0
 10
125.0690541455
 20
226.8881162069
 30
0.0
 10
126.1553903313
 20
226.5506095256
 30
0.0
 10
127.0893795612
 20
226.4975301522
 30
0.0
 10
127.5719290227
 20
226.5268366971
 30
0.0
  0
SPLINE
  5
2A2
100
AcDbEntity
  8
0
100
AcDbSpline
 62
7
  6
BYLAYER
 70
0
 71
3
 72
9
 73
5
 74
0
 42
0.0000001
 43
0.0000001
 44
0.0000000001
 40
0.0
 40
0.0
 40
0.0
 40
0.0
 40
0.2337295704
 40
1.0
 40
1.0
 40
1.0
 40
1.0
 10
124.0716220476
 20
227.8034066056
 30
0.0
 10
124.1147020996
 20
227.8533987827
 30
0.0
 10
124.3101328369
 20
228.0576948999
 30
0.0
 10
124.5430129253
 20
228.2240200645
 30
0.0
 10
124.7303825482
 20
228.3321973209
 30
0.0
  0
SPLINE
  5
2A3
100
AcDbEntity
  8
0
100
AcDbSpline
 62
7
  6
BYLAYER
 70
0
 71
3
 72
11
 73
7
 74
0
 42
0.0000001
 43
0.0000001
 44
0.0000000001
 40
0.0
 40
0.0
 40
0.0
 40
0.0
 40
0.2395743159
 40
0.5048193866
 40
0.7674524718
 40
1.0
 40
1.0
 40
1.0
 40
1.0
 10
145.5193943365
 20
256.3384955564
 30
0.0
 10
145.7512109078
 20
256.4723341174
 30
0.0
 10
146.292424109
 20
256.6635544845
 30
0.0
 10
147.1530849581
 20
256.7430710637
 30
0.0
 10
148.0019116203
 20
256.6294855994
 30
0.0
 10
148.5239244655
 20
256.4150446671
 30
0.0
 10
148.7399053378
 20
256.2706062575
 30
0.0
  0
SPLINE
  5
2A4
100
AcDbEntity
  8
0
100
AcDbSpline
 62
7
  6
BYLAYER
 70
0
 71
3
 72
11
 73
7
 74
0
 42
0.0000001
 43
0.0000001
 44
0.0000000001
 40
0.0
 40
0.0
 40
0.0
 40
0.0
 40
0.2395743159
 40
0.5048193866
 40
0.7674524718
 40
1.0
 40
1.0
 40
1.0
 40
1.0
 10
257.8076815206
 20
293.7337742692
 30
0.0
 10
258.039498092
 20
293.8676128302
 30
0.0
 10
258.5807112931
 20
294.0588331974
 30
0.0
 10
259.4413721422
 20
294.1383497765
 30
0.0
 10
260.2901988044
 20
294.0247643122
 30
0.0
 10
260.8122116496
 20
293.8103233799
 30
0.0
 10
261.0281925219
 20
293.6658849704
 30
0.0
  0
SPLINE
  5
2A5
100
AcDbEntity
  8
0
100
AcDbSpline
 62
7
  6
BYLAYER
 70
0
 71
3
 72
11
 73
7
 74
0
 42
0.0000001
 43
0.0000001
 44
0.0000000001
 40
0.0
 40
0.0
 40
0.0
 40
0.0
 40
0.2177843137
 40
0.4509117637
 40
0.7102976701
 40
1.0
 40
1.0
 40
1.0
 40
1.0
 10
128.1446566643
 20
217.1115746264
 30
0.0
 10
128.0127132086
 20
217.0353975498
 30
0.0
 10
127.7095526064
 20
216.9253780844
 30
0.0
 10
127.2060080123
 20
216.9126284323
 30
0.0
 10
126.6693474861
 20
217.0422223823
 30
0.0
 10
126.3201908939
 20
217.2083229459
 30
0.0
 10
126.1446755977
 20
217.309654457
 30
0.0
  0
SPLINE
  5
2A6
100
AcDbEntity
  8
0
100
AcDbSpline
 62
7
  6
BYLAYER
 70
0
 71
3
 72
11
 73
7
 74
0
 42
0.0000001
 43
0.0000001
 44
0.0000000001
 40
0.0
 40
0.0
 40
0.0
 40
0.0
 40
0.217745073
 40
0.4508830113
 40
0.7104597664
 40
1.0
 40
1.0
 40
1.0
 40
1.0
 10
127.1446151674
 20
218.8437076463
 30
0.0
 10
127.2105754567
 20
218.8817896412
 30
0.0
 10
127.3341119857
 20
218.9854083248
 30
0.0
 10
127.4655248071
 20
219.2003707602
 30
0.0
 10
127.5434310691
 20
219.4651923529
 30
0.0
 10
127.558895048
 20
219.657905356
 30
0.0
 10
127.558895048
 20
219.7591826165
 30
0.0
  0
SPLINE
  5
2A7
100
AcDbEntity
  8
0
100
AcDbSpline
 62
7
  6
BYLAYER
 70
0
 71
3
 72
11
 73
7
 74
0
 42
0.0000001
 43
0.0000001
 44
0.0000000001
 40
0.0
 40
0.0
 40
0.0
 40
0.0
 40
0.2897033281
 40
0.5490895198
 40
0.7822165953
 40
1.0
 40
1.0
 40
1.0
 40
1.0
 10
128.9731144983
 20
218.9427011074
 30
0.0
 10
128.9731144983
 20
218.7400285299
 30
0.0
 10
128.9423863537
 20
218.3545882418
 30
0.0
 10
128.7862876614
 20
217.8250134846
 30
0.0
 10
128.5234693059
 20
217.3952935173
 30
0.0
 10
128.2766030967
 20
217.1877534217
 30
0.0
 10
128.1446566643
 20
217.1115746264
 30
0.0
  0
SPLINE
  5
2A8
100
AcDbEntity
  8
0
100
AcDbSpline
 62
7
  6
BYLAYER
 70
0
 71
3
 72
15
 73
11
 74
0
 42
0.0000001
 43
0.0000001
 44
0.0000000001
 40
0.0
 40
0.0
 40
0.0
 40
0.0
 40
0.0869287048
 40
0.1863976548
 40
0.3037857072
 40
0.4375987829
 40
0.5820985487
 40
0.7294177134
 40
0.8711708202
 40
1.0
 40
1.0
 40
1.0
 40
1.0
 10
282.7330294547
 20
246.9076354955
 30
0.0
 10
282.7331105491
 20
247.1094992025
 30
0.0
 10
282.6111578275
 20
247.5463190563
 30
0.0
 10
282.1350841003
 20
248.0877715021
 30
0.0
 10
281.4322708987
 20
248.5160212918
 30
0.0
 10
280.5548695227
 20
248.8091747433
 30
0.0
 10
279.5712815065
 20
248.9473367011
 30
0.0
 10
278.5599893658
 20
248.9193886625
 30
0.0
 10
277.6039247215
 20
248.7280963708
 30
0.0
 10
277.0172920224
 20
248.4860593479
 30
0.0
 10
276.7582080235
 20
248.3364780243
 30
0.0
  0
SPLINE
  5
2A9
100
AcDbEntity
  8
0
100
AcDbSpline
 62
7
  6
BYLAYER
 70
0
 71
3
 72
11
 73
7
 74
0
 42
0.0000001
 43
0.0000001
 44
0.0000000001
 40
0.0
 40
0.0
 40
0.0
 40
0.0
 40
0.237239768
 40
0.4999988393
 40
0.7627585384
 40
1.0
 40
1.0
 40
1.0
 40
1.0
 10
166.4499299311
 20
233.7219489218
 30
0.0
 10
166.8514885718
 20
233.4901141773
 30
0.0
 10
167.6113836662
 20
232.8505664051
 30
0.0
 10
168.4982845147
 20
231.6385895359
 30
0.0
 10
169.1044445475
 20
230.2645221998
 30
0.0
 10
169.2783688316
 20
229.2866569015
 30
0.0
 10
169.2783688316
 20
228.8229762352
 30
0.0
  0
SPLINE
  5
2AA
100
AcDbEntity
  8
0
100
AcDbSpline
 62
7
  6
BYLAYER
 70
0
 71
3
 72
15
 73
11
 74
0
 42
0.0000001
 43
0.0000001
 44
0.0000000001
 40
0.0
 40
0.0
 40
0.0
 40
0.0
 40
0.0869258731
 40
0.1863900355
 40
0.3037775758
 40
0.4375856292
 40
0.582082136
 40
0.7293904368
 40
0.8711742898
 40
1.0
 40
1.0
 40
1.0
 40
1.0
 10
149.2749452645
 20
257.0733706767
 30
0.0
 10
149.2749475773
 20
257.2002506473
 30
0.0
 10
149.1983910028
 20
257.4748140351
 30
0.0
 10
148.899110772
 20
257.8151374491
 30
0.0
 10
148.4573825755
 20
258.0843192174
 30
0.0
 10
147.9058941941
 20
258.2686067741
 30
0.0
 10
147.2876756371
 20
258.3554240937
 30
0.0
 10
146.6519866109
 20
258.3379305209
 30
0.0
 10
146.0510244434
 20
258.2176375369
 30
0.0
 10
145.6822406132
 20
258.0655191711
 30
0.0
 10
145.5193943365
 20
257.9715003907
 30
0.0
  0
SPLINE
  5
2AB
100
AcDbEntity
  8
0
100
AcDbSpline
 62
7
  6
BYLAYER
 70
0
 71
3
 72
11
 73
7
 74
0
 42
0.0000001
 43
0.0000001
 44
0.0000000001
 40
0.0
 40
0.0
 40
0.0
 40
0.0
 40
0.2372539654
 40
0.5000012591
 40
0.7627478695
 40
1.0
 40
1.0
 40
1.0
 40
1.0
 10
169.2783688316
 20
195.6729780998
 30
0.0
 10
169.2783688316
 20
195.4411263335
 30
0.0
 10
169.3652973629
 20
194.9521802845
 30
0.0
 10
169.6685088734
 20
194.2652276875
 30
0.0
 10
170.1118233497
 20
193.6591660887
 30
0.0
 10
170.4917991798
 20
193.3394147761
 30
0.0
 10
170.6925882819
 20
193.2234917565
 30
0.0
  0
SPLINE
  5
2AC
100
AcDbEntity
  8
0
100
AcDbSpline
 62
7
  6
BYLAYER
 70
0
 71
3
 72
11
 73
7
 74
0
 42
0.0000001
 43
0.0000001
 44
0.0000000001
 40
0.0
 40
0.0
 40
0.0
 40
0.0
 40
0.2895468475
 40
0.5491384346
 40
0.782278826
 40
1.0
 40
1.0
 40
1.0
 40
1.0
 10
145.5193943365
 20
257.9715003907
 30
0.0
 10
145.4229153428
 20
257.9157985502
 30
0.0
 10
145.2478357349
 20
257.7950749991
 30
0.0
 10
145.0384023504
 20
257.5752071721
 30
0.0
 10
144.9059291851
 20
257.3317930417
 30
0.0
 10
144.8751277261
 20
257.1571397811
 30
0.0
 10
144.8751261991
 20
257.0733707848
 30
0.0
  0
SPLINE
  5
2AD
100
AcDbEntity
  8
0
100
AcDbSpline
 62
7
  6
BYLAYER
 70
0
 71
3
 72
11
 73
7
 74
0
 42
0.0000001
 43
0.0000001
 44
0.0000000001
 40
0.0
 40
0.0
 40
0.0
 40
0.0
 40
0.2895468475
 40
0.5491384346
 40
0.782278826
 40
1.0
 40
1.0
 40
1.0
 40
1.0
 10
257.8076815206
 20
295.3667791035
 30
0.0
 10
257.7112025269
 20
295.311077263
 30
0.0
 10
257.536122919
 20
295.1903537119
 30
0.0
 10
257.3266895345
 20
294.9704858849
 30
0.0
 10
257.1942163692
 20
294.7270717546
 30
0.0
 10
257.1634149102
 20
294.5524184939
 30
0.0
 10
257.1634133833
 20
294.4686494976
 30
0.0
  0
SPLINE
  5
2AE
100
AcDbEntity
  8
0
100
AcDbSpline
 62
7
  6
BYLAYER
 70
0
 71
3
 72
11
 73
7
 74
0
 42
0.0000001
 43
0.0000001
 44
0.0000000001
 40
0.0
 40
0.0
 40
0.0
 40
0.0
 40
0.217745073
 40
0.4508830113
 40
0.7104597664
 40
1.0
 40
1.0
 40
1.0
 40
1.0
 10
129.3873943789
 20
253.0081742131
 30
0.0
 10
129.3214340896
 20
252.9700922181
 30
0.0
 10
129.1978975606
 20
252.8664735346
 30
0.0
 10
129.0664847391
 20
252.6515110992
 30
0.0
 10
128.9885784772
 20
252.3866895065
 30
0.0
 10
128.9731144983
 20
252.1939765034
 30
0.0
 10
128.9731144983
 20
252.0926992429
 30
0.0
  0
SPLINE
  5
2AF
100
AcDbEntity
  8
0
100
AcDbSpline
 62
7
  6
BYLAYER
 70
0
 71
3
 72
11
 73
7
 74
0
 42
0.0000001
 43
0.0000001
 44
0.0000000001
 40
0.0
 40
0.0
 40
0.0
 40
0.0
 40
0.2177843137
 40
0.4509117637
 40
0.7102976701
 40
1.0
 40
1.0
 40
1.0
 40
1.0
 10
128.387352882
 20
254.740307233
 30
0.0
 10
128.5192963376
 20
254.8164843096
 30
0.0
 10
128.8224569398
 20
254.926503775
 30
0.0
 10
129.3260015339
 20
254.9392534271
 30
0.0
 10
129.8626620602
 20
254.8096594771
 30
0.0
 10
130.2118186523
 20
254.6435589135
 30
0.0
 10
130.3873339486
 20
254.5422274024
 30
0.0
  0
SPLINE
  5
2B0
100
AcDbEntity
  8
0
100
AcDbSpline
 62
7
  6
BYLAYER
 70
0
 71
3
 72
11
 73
7
 74
0
 42
0.0000001
 43
0.0000001
 44
0.0000000001
 40
0.0
 40
0.0
 40
0.0
 40
0.0
 40
0.2896428702
 40
0.5491125874
 40
0.7822368
 40
1.0
 40
1.0
 40
1.0
 40
1.0
 10
124.7303825482
 20
229.9652021552
 30
0.0
 10
124.5768405303
 20
229.876555159
 30
0.0
 10
124.2982419069
 20
229.6845899342
 30
0.0
 10
123.9651925933
 20
229.3346903889
 30
0.0
 10
123.754447938
 20
228.9475159008
 30
0.0
 10
123.7053827419
 20
228.6696555433
 30
0.0
 10
123.705329193
 20
228.5363594023
 30
0.0
  0
SPLINE
  5
2B1
100
AcDbEntity
  8
0
100
AcDbSpline
 62
7
  6
BYLAYER
 70
0
 71
3
 72
11
 73
7
 74
0
 42
0.0000001
 43
0.0000001
 44
0.0000000001
 40
0.0
 40
0.0
 40
0.0
 40
0.0
 40
0.2896428702
 40
0.5491125874
 40
0.7822368
 40
1.0
 40
1.0
 40
1.0
 40
1.0
 10
184.8347091857
 20
195.264738021
 30
0.0
 10
184.6811671678
 20
195.1760910247
 30
0.0
 10
184.4025685444
 20
194.9841257999
 30
0.0
 10
184.0695192308
 20
194.6342262547
 30
0.0
 10
183.8587745755
 20
194.2470517666
 30
0.0
 10
183.8097093794
 20
193.9691914091
 30
0.0
 10
183.8096558305
 20
193.8358952681
 30
0.0
  0
SPLINE
  5
2B2
100
AcDbEntity
  8
0
100
AcDbSpline
 62
7
  6
BYLAYER
 70
0
 71
3
 72
15
 73
11
 74
0
 42
0.0000001
 43
0.0000001
 44
0.0000000001
 40
0.0
 40
0.0
 40
0.0
 40
0.0
 40
0.0869287048
 40
0.1863976548
 40
0.3037857072
 40
0.4375987829
 40
0.5820985487
 40
0.7294177134
 40
0.8711708202
 40
1.0
 40
1.0
 40
1.0
 40
1.0
 10
197.8805689891
 20
197.918337031
 30
0.0
 10
197.8806500835
 20
198.1202007379
 30
0.0
 10
197.7586973618
 20
198.5570205917
 30
0.0
 10
197.2826236346
 20
199.0984730375
 30
0.0
 10
196.5798104331
 20
199.5267228272
 30
0.0
 10
195.702409057
 20
199.8198762787
 30
0.0
 10
194.7188210409
 20
199.9580382366
 30
0.0
 10
193.7075289001
 20
199.9300901979
 30
0.0
 10
192.7514642558
 20
199.7387979062
 30
0.0
 10
192.1648315568
 20
199.4967608833
 30
0.0
 10
191.9057475579
 20
199.3471795597
 30
0.0
  0
SPLINE
  5
2B3
100
AcDbEntity
  8
0
100
AcDbSpline
 62
7
  6
BYLAYER
 70
0
 71
3
 72
11
 73
7
 74
0
 42
0.0000001
 43
0.0000001
 44
0.0000000001
 40
0.0
 40
0.0
 40
0.0
 40
0.0
 40
0.2896428702
 40
0.5491125874
 40
0.7822368
 40
1.0
 40
1.0
 40
1.0
 40
1.0
 10
269.6871696514
 20
244.2540364855
 30
0.0
 10
269.5336276334
 20
244.1653894893
 30
0.0
 10
269.25502901
 20
243.9734242645
 30
0.0
 10
268.9219796965
 20
243.6235247192
 30
0.0
 10
268.7112350412
 20
243.2363502312
 30
0.0
 10
268.6621698451
 20
242.9584898737
 30
0.0
 10
268.6621162962
 20
242.8251937326
 30
0.0
  0
SPLINE
  5
2B4
100
AcDbEntity
  8
0
100
AcDbSpline
 62
7
  6
BYLAYER
 70
0
 71
3
 72
11
 73
7
 74
0
 42
0.0000001
 43
0.0000001
 44
0.0000000001
 40
0.0
 40
0.0
 40
0.0
 40
0.0
 40
0.2895391946
 40
0.5491157945
 40
0.7822541179
 40
1.0
 40
1.0
 40
1.0
 40
1.0
 10
126.1446755977
 20
218.9426592913
 30
0.0
 10
126.2323821133
 20
218.8920230564
 30
0.0
 10
126.4070042297
 20
218.8090629385
 30
0.0
 10
126.6752926007
 20
218.7441248039
 30
0.0
 10
126.9271554232
 20
218.7504517136
 30
0.0
 10
127.0786563973
 20
218.8056265285
 30
0.0
 10
127.1446151674
 20
218.8437076463
 30
0.0
  0
SPLINE
  5
2B5
100
AcDbEntity
  8
0
100
AcDbSpline
 62
7
  6
BYLAYER
 70
0
 71
3
 72
15
 73
11
 74
0
 42
0.0000001
 43
0.0000001
 44
0.0000000001
 40
0.0
 40
0.0
 40
0.0
 40
0.0
 40
0.0869258731
 40
0.1863900355
 40
0.3037775758
 40
0.4375856292
 40
0.582082136
 40
0.7293904368
 40
0.8711742898
 40
1.0
 40
1.0
 40
1.0
 40
1.0
 10
261.5632324486
 20
294.4686493895
 30
0.0
 10
261.5632347614
 20
294.5955293601
 30
0.0
 10
261.4866781869
 20
294.8700927479
 30
0.0
 10
261.1873979561
 20
295.2104161619
 30
0.0
 10
260.7456697596
 20
295.4795979303
 30
0.0
 10
260.1941813782
 20
295.663885487
 30
0.0
 10
259.5759628213
 20
295.7507028066
 30
0.0
 10
258.940273795
 20
295.7332092337
 30
0.0
 10
258.3393116275
 20
295.6129162498
 30
0.0
 10
257.9705277973
 20
295.4607978839
 30
0.0
 10
257.8076815206
 20
295.3667791035
 30
0.0
  0
ENDSEC
  0
SECTION
  2
OBJECTS
  0
DICTIONARY
  5
C
100
AcDbDictionary
280
0
281
1
  3
ACAD_GROUP
350
D
  3
ACAD_MLINESTYLE
350
17
  3
ACAD_LAYOUT
350
1A
  3
ACAD_PLOTSETTINGS
350
19
  3
ACAD_PLOTSTYLENAME
350
E
  0
DICTIONARY
  5
D
102
{ACAD_REACTORS
330
C
102
}
100
AcDbDictionary
280
0
281
1
  0
ACDBDICTIONARYWDFLT
  5
E
102
{ACAD_REACTORS
330
C
102
}
100
AcDbDictionary
281
1
  3
Normal
350
F
100
AcDbDictionaryWithDefault
340
F
  0
DICTIONARY
  5
17
102
{ACAD_REACTORS
330
C
102
}
100
AcDbDictionary
280
0
281
1
  3
Standard
350
18
  0
DICTIONARY
  5
19
102
{ACAD_REACTORS
330
C
102
}
100
AcDbDictionary
281
1
  0
DICTIONARY
  5
1A
102
{ACAD_REACTORS
330
C
102
}
100
AcDbDictionary
281
1
  3
Model
350
2B6
  3
Layout1
350
2B7
  0
ACDBPLACEHOLDER
  5
F
102
{ACAD_REACTORS
330
E
102
}
  0
MLINESTYLE
  5
18
102
{ACAD_REACTORS
330
17
102
}
100
AcDbMlineStyle
  2
STANDARD
 70
0
  3

 62
256
 51
90.0
 52
90.0
 71
2
 49
0.5
 62
256
  6
BYLAYER
 49
-0.5
 62
256
  6
BYLAYER
  0
LAYOUT
  5
2B6
102
{ACAD_REACTORS
330
1A
102
}
100
AcDbPlotSettings
  1

  2
none_device
  4

  6

 40
0.0
 41
0.0
 42
0.0
 43
0.0
 44
210.0
 45
297.0
 46
0.0
 47
0.0
 48
0.0
 49
0.0
140
0.0
141
0.0
142
1.0
143
1.0
 70
1024
 72
1
 73
0
 74
0
  7

 75
0
147
1.0
148
0.0
149
0.0
100
AcDbLayout
  1
Model
 70
0
 71
0
 10
0.0
 20
0.0
 11
210.0
 21
297.0
 12
0.0
 22
0.0
 32
0.0
 14
0.0
 24
0.0
 34
0.0
 15
0.0
 25
0.0
 35
0.0
146
0.0
 13
0.0
 23
0.0
 33
0.0
 16
1.0
 26
0.0
 36
0.0
 17
0.0
 27
1.0
 37
0.0
 76
0
330
210
345
0
346
0
  0
LAYOUT
  5
2B7
102
{ACAD_REACTORS
330
1A
102
}
100
AcDbPlotSettings
  1

  2
none_device
  4

  6

 40
0.0
 41
0.0
 42
0.0
 43
0.0
 44
210.0
 45
297.0
 46
0.0
 47
0.0
 48
0.0
 49
0.0
140
0.0
141
0.0
142
1.0
143
1.0
 70
0
 72
1
 73
0
 74
0
  7

 75
0
147
1.0
148
0.0
149
0.0
100
AcDbLayout
  1
Layout1
 70
0
 71
1
 10
0.0
 20
0.0
 11
210.0
 21
297.0
 12
0.0
 22
0.0
 32
0.0
 14
0.0
 24
0.0
 34
0.0
 15
0.0
 25
0.0
 35
0.0
146
0.0
 13
0.0
 23
0.0
 33
0.0
 16
1.0
 26
0.0
 36
0.0
 17
0.0
 27
1.0
 37
0.0
 76
0
330
211
345
0
346
0
  0
ENDSEC
  0
EOF
