999
DXF file: C:\Users\sesa63760\Dev\_Creo\CAD\MCADID0001251_3D-CAD\drw0001_1.dxf
999
Pro/ENGINEER 2019471 by Parametric Technology Corporation
  0
SECTION
  2
HEADER
  9
$ACADVER
  1
AC1024
  9
$DWGCODEPAGE
  3
ANSI_1252
  9
$EXTMAX
 10
295.1128455048
 20
417.3738814997
 30
0.0
  9
$EXTMIN
 10
0.0
 20
0.0
 30
0.0
  9
$LIMMIN
 10
0.0
 20
0.0
  9
$LIMMAX
 10
295.1128455048
 20
417.3738814997
  9
$VIEWCTR
 10
147.5564227524
 20
208.6869407499
  9
$VIEWSIZE
 40
417.3738814997
  9
$CLAYER
  8
0
  9
$LTSCALE
 40
27.206593757
  9
$CELTYPE
  6
BYLAYER
  9
$DIMSCALE
 40
1.0
  9
$DIMASZ
 40
3.5132481608
  9
$DIMEXO
 40
1.0
  9
$DIMDLI
 40
18.7972829594
  9
$DIMEXE
 40
1.0
  9
$DIMCEN
 40
4.4519880693
  9
$DIMLFAC
 40
1.0
  9
$DIMBLK
  1
_FILLED
  9
$DIMALT
 70
0
  9
$DIMALTF
 40
0.0393700787
  9
$DIMTXT
 40
4.9185474251
  9
$DIMTOL
 70
1
  9
$DIMLIM
 70
0
  9
$DIMTFAC
 40
1.0
  9
$DIMTP
 40
0.01
  9
$DIMTM
 40
0.01
  9
$DIMGAP
 40
0.625
  9
$DIMDSEP
 70
46
  9
$AUNITS
 70
0
  9
$PDMODE
 70
3
  9
$PDSIZE
 40
0.3125
  9
$HANDSEED
  5
620
  9
$TILEMODE
 70
1
  9
$MEASUREMENT
 70
1
  9
$INSUNITS
 70
4
  0
ENDSEC
  0
SECTION
  2
CLASSES
  0
CLASS
  1
ACDBDICTIONARYWDFLT
  2
AcDbDictionaryWithDefault
  3
AutoCAD 2000
 90
0
 91
1
280
0
281
0
  0
CLASS
  1
ACDBPLACEHOLDER
  2
AcDbPlaceHolder
  3
AutoCAD 2000
 90
0
 91
1
280
0
281
0
  0
CLASS
  1
LAYOUT
  2
AcDbLayout
  3
AutoCAD 2000
 90
0
 91
0
280
0
281
0
  0
ENDSEC
  0
SECTION
  2
TABLES
  0
TABLE
  2
VPORT
  5
8
100
AcDbSymbolTable
 70
2
  0
VPORT
  5
1F4
100
AcDbSymbolTableRecord
100
AcDbViewportTableRecord
  2
*ACTIVE
 70
0
 10
0.0
 20
0.0
 11
1.0
 21
1.0
 12
147.5564227524
 22
208.6869407499
 13
0.0
 23
0.0
 14
1.0
 24
1.0
 15
0.0
 25
0.0
 16
0.0
 26
0.0
 36
1.0
 17
0.0
 27
0.0
 37
0.0
 40
417.3738814997
 41
0.7070707071
 42
50.0
 43
0.0
 44
0.0
 50
0.0
 51
0.0
 71
0
 72
100
 73
1
 74
1
 75
0
 76
0
 77
0
 78
0
  0
ENDTAB
  0
TABLE
  2
LTYPE
  5
5
100
AcDbSymbolTable
 70
6
  0
LTYPE
  5
14
100
AcDbSymbolTableRecord
100
AcDbLinetypeTableRecord
  2
BYBLOCK
 70
0
  3

 72
65
 73
0
 40
0.0
  0
LTYPE
  5
15
100
AcDbSymbolTableRecord
100
AcDbLinetypeTableRecord
  2
BYLAYER
 70
0
  3

 72
65
 73
0
 40
0.0
  0
LTYPE
  5
16
100
AcDbSymbolTableRecord
100
AcDbLinetypeTableRecord
  2
CONTINUOUS
 70
64
  3
Solid line
 72
65
 73
0
 40
0.0
  0
LTYPE
  5
1F5
100
AcDbSymbolTableRecord
100
AcDbLinetypeTableRecord
  2
CENTER
 70
64
  3
____ _ ____ _ ____ _ ____ _ ____ _ ____ _ ____
 72
65
 73
4
 40
0.6
 49
0.375
 74
0
 49
-0.075
 74
0
 49
0.075
 74
0
 49
-0.075
 74
0
  0
LTYPE
  5
1F6
100
AcDbSymbolTableRecord
100
AcDbLinetypeTableRecord
  2
HIDDEN
 70
64
  3
- - - - - - - - - - - - - - - - - - - -
 72
65
 73
2
 40
0.2
 49
0.1
 74
0
 49
-0.1
 74
0
  0
LTYPE
  5
1F7
100
AcDbSymbolTableRecord
100
AcDbLinetypeTableRecord
  2
PHANTOM
 70
64
  3
_____ _ _ _____ _ _ _____ _ _ _____
 72
65
 73
6
 40
0.8
 49
0.45
 74
0
 49
-0.05
 74
0
 49
0.1
 74
0
 49
-0.05
 74
0
 49
0.1
 74
0
 49
-0.05
 74
0
  0
LTYPE
  5
1F8
100
AcDbSymbolTableRecord
100
AcDbLinetypeTableRecord
  2
DOT
 70
64
  3
. . . . . . . . . . . . . . . . . . . .
 72
65
 73
2
 40
0.2
 49
0.1
 74
0
 49
-0.1
 74
0
  0
LTYPE
  5
1F9
100
AcDbSymbolTableRecord
100
AcDbLinetypeTableRecord
  2
DASHED
 70
64
  3
- - - - - - - - - - - - - - - - - - - -
 72
65
 73
2
 40
0.2
 49
0.1
 74
0
 49
-0.1
 74
0
  0
ENDTAB
  0
TABLE
  2
LAYER
  5
2
100
AcDbSymbolTable
 70
36
  0
LAYER
  5
10
100
AcDbSymbolTableRecord
100
AcDbLayerTableRecord
  2
0
 70
0
 62
7
  6
CONTINUOUS
370
-3
390
F
  0
LAYER
  5
1FA
100
AcDbSymbolTableRecord
100
AcDbLayerTableRecord
  2
DEFAULT_1
 70
0
 62
7
  6
CENTER
370
-3
390
F
  0
LAYER
  5
1FB
100
AcDbSymbolTableRecord
100
AcDbLayerTableRecord
  2
DEFAULT_2
 70
0
 62
8
  6
HIDDEN
370
-3
390
F
  0
LAYER
  5
1FC
100
AcDbSymbolTableRecord
100
AcDbLayerTableRecord
  2
DEFAULT_3
 70
0
 62
7
  6
PHANTOM
370
-3
390
F
  0
LAYER
  5
1FD
100
AcDbSymbolTableRecord
100
AcDbLayerTableRecord
  2
00_COMPONENTS
 70
0
 62
7
  6
CONTINUOUS
370
-3
390
F
  0
LAYER
  5
1FE
100
AcDbSymbolTableRecord
100
AcDbLayerTableRecord
  2
01_1_DEFAULT_DATUMS
 70
0
 62
7
  6
CONTINUOUS
370
-3
390
F
  0
LAYER
  5
1FF
100
AcDbSymbolTableRecord
100
AcDbLayerTableRecord
  2
01_PLANES
 70
0
 62
7
  6
CONTINUOUS
370
-3
390
F
  0
LAYER
  5
200
100
AcDbSymbolTableRecord
100
AcDbLayerTableRecord
  2
02_COORD_SYS
 70
0
 62
7
  6
CONTINUOUS
370
-3
390
F
  0
LAYER
  5
201
100
AcDbSymbolTableRecord
100
AcDbLayerTableRecord
  2
03_AXES
 70
0
 62
7
  6
CONTINUOUS
370
-3
390
F
  0
LAYER
  5
202
100
AcDbSymbolTableRecord
100
AcDbLayerTableRecord
  2
04_POINTS
 70
0
 62
7
  6
CONTINUOUS
370
-3
390
F
  0
LAYER
  5
203
100
AcDbSymbolTableRecord
100
AcDbLayerTableRecord
  2
05_CURVES
 70
0
 62
7
  6
CONTINUOUS
370
-3
390
F
  0
LAYER
  5
204
100
AcDbSymbolTableRecord
100
AcDbLayerTableRecord
  2
06_SURFS
 70
0
 62
7
  6
CONTINUOUS
370
-3
390
F
  0
LAYER
  5
205
100
AcDbSymbolTableRecord
100
AcDbLayerTableRecord
  2
07_COSMETICS
 70
0
 62
7
  6
CONTINUOUS
370
-3
390
F
  0
LAYER
  5
206
100
AcDbSymbolTableRecord
100
AcDbLayerTableRecord
  2
1
 70
0
 62
7
  6
CONTINUOUS
370
-3
390
F
  0
LAYER
  5
207
100
AcDbSymbolTableRecord
100
AcDbLayerTableRecord
  2
10_NOTES
 70
0
 62
7
  6
CONTINUOUS
370
-3
390
F
  0
LAYER
  5
208
100
AcDbSymbolTableRecord
100
AcDbLayerTableRecord
  2
11_NOTES_PUB
 70
0
 62
7
  6
CONTINUOUS
370
-3
390
F
  0
LAYER
  5
209
100
AcDbSymbolTableRecord
100
AcDbLayerTableRecord
  2
13_REF_GTOL
 70
0
 62
7
  6
CONTINUOUS
370
-3
390
F
  0
LAYER
  5
20A
100
AcDbSymbolTableRecord
100
AcDbLayerTableRecord
  2
16_MISC
 70
0
 62
7
  6
CONTINUOUS
370
-3
390
F
  0
LAYER
  5
20B
100
AcDbSymbolTableRecord
100
AcDbLayerTableRecord
  2
17_NO_PRINT
 70
0
 62
7
  6
CONTINUOUS
370
-3
390
F
  0
LAYER
  5
20C
100
AcDbSymbolTableRecord
100
AcDbLayerTableRecord
  2
18_DATUM_CAMS_JOINTS
 70
0
 62
7
  6
CONTINUOUS
370
-3
390
F
  0
LAYER
  5
20D
100
AcDbSymbolTableRecord
100
AcDbLayerTableRecord
  2
19_DATUM_FUNCTIONAL
 70
0
 62
7
  6
CONTINUOUS
370
-3
390
F
  0
LAYER
  5
20E
100
AcDbSymbolTableRecord
100
AcDbLayerTableRecord
  2
2
 70
0
 62
7
  6
CONTINUOUS
370
-3
390
F
  0
LAYER
  5
20F
100
AcDbSymbolTableRecord
100
AcDbLayerTableRecord
  2
20_DATUM_KINEMATIC_SCHEME
 70
0
 62
7
  6
CONTINUOUS
370
-3
390
F
  0
ENDTAB
  0
TABLE
  2
STYLE
  5
3
100
AcDbSymbolTable
 70
1
  0
STYLE
  5
11
100
AcDbSymbolTableRecord
100
AcDbTextStyleTableRecord
  2
STANDARD
 70
0
 40
0.0
 41
0.8
 50
0.0
 71
0
 42
0.2
  3
txt
  4

  0
STYLE
  5
210
100
AcDbSymbolTableRecord
100
AcDbTextStyleTableRecord
  2
TEXTSTYLE_1
 70
0
 40
0.0
 41
0.8
 50
0.0
 71
0
 42
0.2
  3
gdt
  4

  0
ENDTAB
  0
TABLE
  2
VIEW
  5
6
100
AcDbSymbolTable
 70
0
  0
ENDTAB
  0
TABLE
  2
UCS
  5
7
100
AcDbSymbolTable
 70
0
  0
ENDTAB
  0
TABLE
  2
APPID
  5
9
100
AcDbSymbolTable
 70
1
  0
APPID
  5
211
100
AcDbSymbolTableRecord
100
AcDbRegAppTableRecord
  2
ACAD
 70
0
  0
ENDTAB
  0
TABLE
  2
BLOCK_RECORD
  5
1
100
AcDbSymbolTable
 70
0
  0
BLOCK_RECORD
  5
212
100
AcDbSymbolTableRecord
100
AcDbBlockTableRecord
  2
*Model_Space
  0
BLOCK_RECORD
  5
213
100
AcDbSymbolTableRecord
100
AcDbBlockTableRecord
  2
*Paper_Space
  0
BLOCK_RECORD
  5
214
100
AcDbSymbolTableRecord
100
AcDbBlockTableRecord
  2
_FILLED
  0
ENDTAB
  0
TABLE
  2
DIMSTYLE
  5
A
100
AcDbSymbolTable
 70
1
100
AcDbDimStyleTable
 71
0
  0
DIMSTYLE
105
215
100
AcDbSymbolTableRecord
100
AcDbDimStyleTableRecord
  2
STANDARD
 70
0
  3

  4

 40
1.0
 41
3.5132481608
 42
1.0
 43
0.38
 44
1.0
 45
0.0
 46
0.0
 47
0.01
 48
0.01
140
4.9185474251
141
0.09
142
0.0
143
25.4
144
1.0
145
0.0
146
1.0
147
0.625
 71
1
 72
0
 73
0
 74
0
 75
0
 76
0
 77
1
 78
8
 79
2
170
0
171
1
172
0
173
0
174
0
175
0
176
0
177
0
178
0
270
2
179
2
271
2
272
2
273
2
274
2
275
0
280
0
281
0
282
0
283
1
284
8
285
0
286
0
287
3
288
0
340
11
278
46
341
214
342
214
343
214
344
214
  0
ENDTAB
  0
ENDSEC
  0
SECTION
  2
BLOCKS
  0
BLOCK
  5
20
100
AcDbEntity
  8
0
100
AcDbBlockBegin
  2
*Model_Space
 70
0
 10
0.0
 20
0.0
 30
0.0
  3
*Model_Space
  1

  0
ENDBLK
  5
21
100
AcDbEntity
  8
0
100
AcDbBlockEnd
  0
BLOCK
  5
1C
100
AcDbEntity
  8
0
100
AcDbBlockBegin
  2
*Paper_Space
 70
0
 10
0.0
 20
0.0
 30
0.0
  3
*Paper_Space
  1

  0
ENDBLK
  5
1D
100
AcDbEntity
  8
0
100
AcDbBlockEnd
  0
BLOCK
  5
216
100
AcDbEntity
  8
0
100
AcDbBlockBegin
  2
_FILLED
 70
64
 10
0.0
 20
0.0
  3
_FILLED
  1

  0
SOLID
  5
217
100
AcDbEntity
  8
0
  6
BYBLOCK
 62
0
100
AcDbTrace
 10
0.0
 20
0.0
 11
-1.0
 21
0.25
 12
-1.0
 22
-0.25
 13
-1.0
 23
-0.25
  0
ENDBLK
  5
218
100
AcDbEntity
  8
0
  6
BYBLOCK
 62
0
100
AcDbBlockEnd
  0
ENDSEC
  0
SECTION
  2
ENTITIES
  0
LINE
  5
219
100
AcDbEntity
  8
1
100
AcDbLine
 62
7
  6
CONTINUOUS
 10
47.7565234722
 20
66.3005810023
 11
47.1201247195
 21
66.6679976814
  0
LINE
  5
21A
100
AcDbEntity
  8
1
100
AcDbLine
 62
7
  6
CONTINUOUS
 10
47.1201247195
 20
67.4845000985
 11
47.8979454172
 21
67.0354352686
  0
LINE
  5
21B
100
AcDbEntity
  8
1
100
AcDbLine
 62
7
  6
CONTINUOUS
 10
94.2699880492
 20
48.419231918
 11
56.4058107394
 21
70.2796303321
  0
LINE
  5
21C
100
AcDbEntity
  8
1
100
AcDbLine
 62
7
  6
CONTINUOUS
 10
104.9474579472
 20
42.9083346262
 11
56.9718559526
 21
70.6064347375
  0
LINE
  5
21D
100
AcDbEntity
  8
1
100
AcDbLine
 62
7
  6
CONTINUOUS
 10
49.1707429225
 20
75.1103075542
 11
41.307582684
 21
79.650002533
  0
LINE
  5
21E
100
AcDbEntity
  8
1
100
AcDbLine
 62
7
  6
CONTINUOUS
 10
49.1707429225
 20
80.2542727822
 11
39.7519412886
 21
85.6920974209
  0
LINE
  5
21F
100
AcDbEntity
  8
1
100
AcDbLine
 62
7
  6
CONTINUOUS
 10
49.1707429225
 20
81.8872358003
 11
41.1661489631
 21
86.5085857286
  0
LINE
  5
220
100
AcDbEntity
  8
1
100
AcDbLine
 62
7
  6
CONTINUOUS
 10
190.5849501856
 20
363.2472665913
 11
191.3903794925
 21
363.4959084287
  0
LINE
  5
221
100
AcDbEntity
  8
1
100
AcDbLine
 62
7
  6
CONTINUOUS
 10
47.8979454172
 20
104.1944602721
 11
47.1201247195
 21
104.6435251021
  0
LINE
  5
222
100
AcDbEntity
  8
1
100
AcDbLine
 62
7
  6
CONTINUOUS
 10
47.1201247195
 20
105.4600275192
 11
47.7565234722
 21
105.0926108402
  0
LINE
  5
223
100
AcDbEntity
  8
1
100
AcDbLine
 62
7
  6
CONTINUOUS
 10
184.4960508404
 20
374.6098970583
 11
187.6780181079
 21
376.4469957507
  0
LINE
  5
224
100
AcDbEntity
  8
1
100
AcDbLine
 62
7
  6
CONTINUOUS
 10
140.058338083
 20
347.0760016732
 11
186.1224032083
 21
373.6709433229
  0
LINE
  5
225
100
AcDbEntity
  8
1
100
AcDbLine
 62
7
  6
CONTINUOUS
 10
186.4759669027
 20
372.242095583
 11
141.4725575332
 21
346.2595201642
  0
LINE
  5
226
100
AcDbEntity
  8
1
100
AcDbLine
 62
7
  6
CONTINUOUS
 10
214.7607292036
 20
86.9576792537
 11
214.2607485334
 21
86.9081701559
  0
LINE
  5
227
100
AcDbEntity
  8
1
100
AcDbLine
 62
7
  6
CONTINUOUS
 10
220.4175599013
 20
93.4896421532
 11
220.9175405715
 21
93.539151251
  0
LINE
  5
228
100
AcDbEntity
  8
1
100
AcDbLine
 62
7
  6
CONTINUOUS
 10
39.7519412886
 20
122.5980066751
 11
52.1970724512
 21
115.4129693956
  0
LINE
  5
229
100
AcDbEntity
  8
1
100
AcDbLine
 62
7
  6
CONTINUOUS
 10
59.7772887048
 20
112.032761456
 11
54.8982316013
 21
114.8496226622
  0
LINE
  5
22A
100
AcDbEntity
  8
1
100
AcDbLine
 62
7
  6
CONTINUOUS
 10
57.5357508761
 20
122.6186821548
 11
42.1914698404
 21
131.4775065278
  0
LINE
  5
22B
100
AcDbEntity
  8
1
100
AcDbLine
 62
7
  6
CONTINUOUS
 10
34.2364854325
 20
91.8974342495
 11
34.2364854325
 21
263.3629418467
  0
LINE
  5
22C
100
AcDbEntity
  8
1
100
AcDbLine
 62
7
  6
CONTINUOUS
 10
39.7519412886
 20
85.6920974209
 11
39.7519412886
 21
122.5980066751
  0
LINE
  5
22D
100
AcDbEntity
  8
1
100
AcDbLine
 62
7
  6
CONTINUOUS
 10
41.1661489631
 20
86.5085857286
 11
41.1661489631
 21
121.7815319647
  0
LINE
  5
22E
100
AcDbEntity
  8
1
100
AcDbLine
 62
7
  6
CONTINUOUS
 10
42.1914698404
 20
131.4775065278
 11
42.1914698404
 21
146.8277519699
  0
LINE
  5
22F
100
AcDbEntity
  8
1
100
AcDbLine
 62
7
  6
CONTINUOUS
 10
172.7581524608
 20
361.0561493294
 11
167.1013217631
 21
357.7901960984
  0
LINE
  5
230
100
AcDbEntity
  8
1
100
AcDbLine
 62
7
  6
CONTINUOUS
 10
160.0302833909
 20
353.7077545597
 11
154.3734526932
 21
350.4418013288
  0
LINE
  5
231
100
AcDbEntity
  8
1
100
AcDbLine
 62
7
  6
CONTINUOUS
 10
147.3024143211
 20
346.35935979
 11
141.6455836234
 21
343.0934065591
  0
LINE
  5
232
100
AcDbEntity
  8
1
100
AcDbLine
 62
7
  6
CONTINUOUS
 10
140.9384797862
 20
341.0521293522
 11
145.8881948708
 21
343.9098316306
  0
LINE
  5
233
100
AcDbEntity
  8
1
100
AcDbLine
 62
7
  6
CONTINUOUS
 10
153.666348856
 20
348.4005241219
 11
158.6160639407
 21
351.2582264002
  0
LINE
  5
234
100
AcDbEntity
  8
1
100
AcDbLine
 62
7
  6
CONTINUOUS
 10
166.3942179259
 20
355.7489188916
 11
171.3439330105
 21
358.6066211699
  0
LINE
  5
235
100
AcDbEntity
  8
1
100
AcDbLine
 62
7
  6
CONTINUOUS
 10
141.6455836234
 20
339.8273968905
 11
147.3024143211
 21
343.0933501215
  0
LINE
  5
236
100
AcDbEntity
  8
1
100
AcDbLine
 62
7
  6
CONTINUOUS
 10
154.3734526932
 20
347.1757916602
 11
160.0302833909
 21
350.4417448912
  0
LINE
  5
237
100
AcDbEntity
  8
1
100
AcDbLine
 62
7
  6
CONTINUOUS
 10
167.1013217631
 20
354.5241864299
 11
172.7581524608
 21
357.7901396609
  0
LINE
  5
238
100
AcDbEntity
  8
1
100
AcDbLine
 62
7
  6
CONTINUOUS
 10
191.3903794925
 20
364.5058078363
 11
193.3053576849
 21
365.6114144116
  0
LINE
  5
239
100
AcDbEntity
  8
1
100
AcDbLine
 62
7
  6
CONTINUOUS
 10
193.9936780796
 20
364.998914597
 11
191.3903794925
 21
363.4959084287
  0
LINE
  5
23A
100
AcDbEntity
  8
1
100
AcDbLine
 62
7
  6
CONTINUOUS
 10
130.1904761424
 20
326.9266976984
 11
132.7928555205
 21
328.4291731642
  0
LINE
  5
23B
100
AcDbEntity
  8
1
100
AcDbLine
 62
7
  6
CONTINUOUS
 10
142.3097142985
 20
333.9237013437
 11
143.8466751314
 21
334.8110607975
  0
LINE
  5
23C
100
AcDbEntity
  8
1
100
AcDbLine
 62
7
  6
CONTINUOUS
 10
196.6937124406
 20
362.5054850846
 11
195.8451878359
 21
362.0155920999
  0
LINE
  5
23D
100
AcDbEntity
  8
1
100
AcDbLine
 62
7
  6
CONTINUOUS
 10
134.1502829489
 20
325.701979854
 11
186.4759669027
 21
355.9120472404
  0
LINE
  5
23E
100
AcDbEntity
  8
1
100
AcDbLine
 62
7
  6
CONTINUOUS
 10
128.2350194221
 20
321.0148018769
 11
47.2677145452
 21
274.2685856479
  0
LINE
  5
23F
100
AcDbEntity
  8
1
100
AcDbLine
 62
7
  6
CONTINUOUS
 10
36.3076050684
 20
267.9408012629
 11
46.9141626266
 21
274.064463571
  0
LINE
  5
240
100
AcDbEntity
  8
1
100
AcDbLine
 62
7
  6
CONTINUOUS
 10
198.9120141395
 20
361.224776975
 11
200.1140906628
 21
361.9187920366
  0
LINE
  5
241
100
AcDbEntity
  8
2
100
AcDbLine
 62
7
  6
CONTINUOUS
 10
111.5914683905
 20
107.0750419938
 11
111.6649365434
 21
107.0549653166
  0
LINE
  5
242
100
AcDbEntity
  8
1
100
AcDbLine
 62
7
  6
CONTINUOUS
 10
57.5357508761
 20
124.2516451729
 11
43.6056775148
 21
132.2939948356
  0
LINE
  5
243
100
AcDbEntity
  8
1
100
AcDbLine
 62
7
  6
CONTINUOUS
 10
90.5224195542
 20
110.8411224688
 11
78.5015542267
 21
117.7812152957
  0
LINE
  5
244
100
AcDbEntity
  8
1
100
AcDbLine
 62
7
  6
CONTINUOUS
 10
97.1692509706
 20
107.0036593763
 11
108.4830065729
 21
100.471807304
  0
LINE
  5
245
100
AcDbEntity
  8
1
100
AcDbLine
 62
7
  6
CONTINUOUS
 10
90.5224195542
 20
112.474085487
 11
79.9157619011
 21
118.5977036034
  0
LINE
  5
246
100
AcDbEntity
  8
1
100
AcDbLine
 62
7
  6
CONTINUOUS
 10
112.018525759
 20
102.5130280734
 11
100.7047701566
 21
109.0448801457
  0
LINE
  5
247
100
AcDbEntity
  8
1
100
AcDbLine
 62
7
  6
CONTINUOUS
 10
42.1914698404
 20
146.8277519699
 11
57.5357508761
 21
137.9689275968
  0
LINE
  5
248
100
AcDbEntity
  8
2
100
AcDbLine
 62
7
  6
CONTINUOUS
 10
111.5914490424
 20
107.0750531585
 11
106.3586476633
 21
110.0961440971
  0
LINE
  5
249
100
AcDbEntity
  8
2
100
AcDbLine
 62
7
  6
CONTINUOUS
 10
101.9012914834
 20
112.6695416694
 11
96.8095486781
 21
115.6091942449
  0
LINE
  5
24A
100
AcDbEntity
  8
2
100
AcDbLine
 62
7
  6
CONTINUOUS
 10
111.5603821943
 20
107.1437210807
 11
106.3275808152
 21
110.1648120193
  0
LINE
  5
24B
100
AcDbEntity
  8
2
100
AcDbLine
 62
7
  6
CONTINUOUS
 10
101.8702246353
 20
112.7382095916
 11
96.77848183
 21
115.6778621671
  0
LINE
  5
24C
100
AcDbEntity
  8
2
100
AcDbLine
 62
7
  6
CONTINUOUS
 10
101.9781127244
 20
112.8314346718
 11
106.2818264223
 21
110.3467406211
  0
LINE
  5
24D
100
AcDbEntity
  8
2
100
AcDbLine
 62
7
  6
CONTINUOUS
 10
106.3244631195
 20
110.3728567443
 11
101.8733423311
 21
112.9426543931
  0
LINE
  5
24E
100
AcDbEntity
  8
1
100
AcDbLine
 62
7
  6
CONTINUOUS
 10
43.6056775148
 20
132.2939948356
 11
43.6056775148
 21
146.0112772595
  0
LINE
  5
24F
100
AcDbEntity
  8
1
100
AcDbLine
 62
7
  6
CONTINUOUS
 10
45.5502940262
 20
226.8698441475
 11
45.5502940262
 21
248.7250753931
  0
LINE
  5
250
100
AcDbEntity
  8
1
100
AcDbLine
 62
7
  6
CONTINUOUS
 10
46.2414362312
 20
106.6847599809
 11
46.2414362312
 21
105.8682575637
  0
LINE
  5
251
100
AcDbEntity
  8
1
100
AcDbLine
 62
7
  6
CONTINUOUS
 10
46.2414362312
 20
68.7092325602
 11
46.2414362312
 21
67.892730143
  0
LINE
  5
252
100
AcDbEntity
  8
1
100
AcDbLine
 62
7
  6
CONTINUOUS
 10
46.9645134765
 20
247.5403098137
 11
46.9645134765
 21
226.0533626385
  0
LINE
  5
253
100
AcDbEntity
  8
1
100
AcDbLine
 62
7
  6
CONTINUOUS
 10
47.1201247195
 20
66.6679976814
 11
47.1201247195
 21
67.4845000985
  0
LINE
  5
254
100
AcDbEntity
  8
1
100
AcDbLine
 62
7
  6
CONTINUOUS
 10
47.1201247195
 20
104.6435251021
 11
47.1201247195
 21
105.4600275192
  0
LINE
  5
255
100
AcDbEntity
  8
1
100
AcDbLine
 62
7
  6
CONTINUOUS
 10
49.1707429225
 20
67.7703062613
 11
49.1707429225
 21
101.9899225632
  0
LINE
  5
256
100
AcDbEntity
  8
1
100
AcDbLine
 62
7
  6
CONTINUOUS
 10
49.8778526476
 20
101.4183813252
 11
49.8778526476
 21
67.5253659902
  0
LINE
  5
257
100
AcDbEntity
  8
1
100
AcDbLine
 62
7
  6
CONTINUOUS
 10
50.5000091109
 20
155.1194568509
 11
50.5000091109
 21
215.4589854767
  0
LINE
  5
258
100
AcDbEntity
  8
1
100
AcDbLine
 62
7
  6
CONTINUOUS
 10
50.8965620043
 20
184.3751397016
 11
50.8965620043
 21
173.1074063452
  0
LINE
  5
259
100
AcDbEntity
  8
1
100
AcDbLine
 62
7
  6
CONTINUOUS
 10
51.0303369888
 20
155.4256399663
 11
51.0303369888
 21
173.0301730692
  0
LINE
  5
25A
100
AcDbEntity
  8
1
100
AcDbLine
 62
7
  6
CONTINUOUS
 10
51.0303369888
 20
184.4753196218
 11
51.0303369888
 21
215.7651685921
  0
LINE
  5
25B
100
AcDbEntity
  8
1
100
AcDbLine
 62
7
  6
CONTINUOUS
 10
51.5606736986
 20
214.846624345
 11
51.5606736986
 21
184.8724722696
  0
LINE
  5
25C
100
AcDbEntity
  8
1
100
AcDbLine
 62
7
  6
CONTINUOUS
 10
51.5606736986
 20
172.6991655907
 11
51.5606736986
 21
154.5070957191
  0
LINE
  5
25D
100
AcDbEntity
  8
1
100
AcDbLine
 62
7
  6
CONTINUOUS
 10
51.6036717294
 20
183.9668989471
 11
51.6036717294
 21
172.6991655907
  0
LINE
  5
25E
100
AcDbEntity
  8
1
100
AcDbLine
 62
7
  6
CONTINUOUS
 10
52.1970724512
 20
115.4129693956
 11
52.1970724512
 21
110.8406520854
  0
LINE
  5
25F
100
AcDbEntity
  8
1
100
AcDbLine
 62
7
  6
CONTINUOUS
 10
53.2646906502
 20
184.2238600742
 11
53.2646906502
 21
172.9561267178
  0
LINE
  5
260
100
AcDbEntity
  8
1
100
AcDbLine
 62
7
  6
CONTINUOUS
 10
53.4870437302
 20
173.1234274001
 11
53.4870437302
 21
184.3911607565
  0
LINE
  5
261
100
AcDbEntity
  8
1
100
AcDbLine
 62
7
  6
CONTINUOUS
 10
54.8840894068
 20
173.9399023808
 11
54.8840894068
 21
174.5931043145
  0
LINE
  5
262
100
AcDbEntity
  8
1
100
AcDbLine
 62
7
  6
CONTINUOUS
 10
54.8840894068
 20
185.8608376709
 11
54.8840894068
 21
186.5140396046
  0
LINE
  5
263
100
AcDbEntity
  8
1
100
AcDbLine
 62
7
  6
CONTINUOUS
 10
54.8982316013
 20
114.8496226622
 11
54.8982316013
 21
114.0331202451
  0
LINE
  5
264
100
AcDbEntity
  8
1
100
AcDbLine
 62
7
  6
CONTINUOUS
 10
56.2983088571
 20
185.6975580955
 11
56.2983088571
 21
173.1234208717
  0
LINE
  5
265
100
AcDbEntity
  8
1
100
AcDbLine
 62
7
  6
CONTINUOUS
 10
54.3140187447
 20
255.4554937208
 11
54.9854355551
 21
256.0025700977
  0
LINE
  5
266
100
AcDbEntity
  8
1
100
AcDbLine
 62
7
  6
CONTINUOUS
 10
198.6736267365
 20
360.3826290818
 11
200.7242278645
 21
361.5665371281
  0
LINE
  5
267
100
AcDbEntity
  8
1
100
AcDbLine
 62
7
  6
CONTINUOUS
 10
90.2635128207
 20
296.7695237093
 11
115.7058926285
 21
311.4586008582
  0
LINE
  5
268
100
AcDbEntity
  8
1
100
AcDbLine
 62
7
  6
CONTINUOUS
 10
41.307582684
 20
267.4455584728
 11
51.9141402422
 21
273.5692207809
  0
LINE
  5
269
100
AcDbEntity
  8
1
100
AcDbLine
 62
7
  6
CONTINUOUS
 10
52.2676921608
 20
273.7733428578
 11
91.2501832557
 21
296.2797602399
  0
LINE
  5
26A
100
AcDbEntity
  8
1
100
AcDbLine
 62
7
  6
CONTINUOUS
 10
116.6925630634
 20
310.9688373888
 11
132.3118465334
 21
319.9865810761
  0
LINE
  5
26B
100
AcDbEntity
  8
1
100
AcDbLine
 62
7
  6
CONTINUOUS
 10
91.6777567095
 20
296.0329061758
 11
115.7058926285
 21
309.9054741087
  0
LINE
  5
26C
100
AcDbEntity
  8
1
100
AcDbLine
 62
7
  6
CONTINUOUS
 10
105.8206230744
 20
301.5079140003
 11
106.9976610508
 21
302.1874731364
  0
LINE
  5
26D
100
AcDbEntity
  8
1
100
AcDbLine
 62
7
  6
CONTINUOUS
 10
132.3826888068
 20
316.8434382604
 11
133.5597267832
 21
317.5229973965
  0
LINE
  5
26E
100
AcDbEntity
  8
1
100
AcDbLine
 62
7
  6
CONTINUOUS
 10
111.5938713203
 20
299.9421506862
 11
136.2717952391
 21
314.1898716563
  0
LINE
  5
26F
100
AcDbEntity
  8
1
100
AcDbLine
 62
7
  6
CONTINUOUS
 10
137.4488430165
 20
313.5103181787
 11
112.7709190977
 21
299.2625972086
  0
LINE
  5
270
100
AcDbEntity
  8
1
100
AcDbLine
 62
7
  6
CONTINUOUS
 10
198.6736267365
 20
346.5020879906
 11
200.7242278645
 21
347.6859960369
  0
LINE
  5
271
100
AcDbEntity
  8
1
100
AcDbLine
 62
7
  6
CONTINUOUS
 10
105.8206230744
 20
292.388518763
 11
101.9054259752
 21
290.1280921568
  0
LINE
  5
272
100
AcDbEntity
  8
2
100
AcDbLine
 62
7
  6
CONTINUOUS
 10
115.8397543293
 20
107.0129025463
 11
111.6649365434
 21
107.0549653166
  0
LINE
  5
273
100
AcDbEntity
  8
2
100
AcDbLine
 62
7
  6
CONTINUOUS
 10
111.6664483944
 20
107.1183564014
 11
115.8412661804
 21
107.0762936311
  0
LINE
  5
274
100
AcDbEntity
  8
1
100
AcDbLine
 62
7
  6
CONTINUOUS
 10
78.5015542267
 20
132.2333080789
 11
90.5224195542
 21
125.293215252
  0
LINE
  5
275
100
AcDbEntity
  8
1
100
AcDbLine
 62
7
  6
CONTINUOUS
 10
55.4497771869
 20
146.5462546493
 11
87.2697148185
 21
128.1754206959
  0
LINE
  5
276
100
AcDbEntity
  8
1
100
AcDbLine
 62
7
  6
CONTINUOUS
 10
55.9801050648
 20
146.8524377647
 11
87.8000426964
 21
128.4816038113
  0
LINE
  5
277
100
AcDbEntity
  8
1
100
AcDbLine
 62
7
  6
CONTINUOUS
 10
55.4497771869
 20
147.771008275
 11
87.2697148185
 21
129.4001743216
  0
LINE
  5
278
100
AcDbEntity
  8
2
100
AcDbLine
 62
7
  6
CONTINUOUS
 10
106.3275808152
 20
110.1648120193
 11
106.2836632308
 21
110.2238010397
  0
LINE
  5
279
100
AcDbEntity
  8
2
100
AcDbLine
 62
7
  6
CONTINUOUS
 10
96.77848183
 20
115.6778621671
 11
96.7345474056
 21
115.7390987901
  0
LINE
  5
27A
100
AcDbEntity
  8
1
100
AcDbLine
 62
7
  6
CONTINUOUS
 10
53.4768211548
 20
184.4359895858
 11
53.2526738041
 21
184.9189450558
  0
LINE
  5
27B
100
AcDbEntity
  8
1
100
AcDbLine
 62
7
  6
CONTINUOUS
 10
53.4870098051
 20
184.3911607119
 11
53.4768211548
 21
184.4359895858
  0
LINE
  5
27C
100
AcDbEntity
  8
1
100
AcDbLine
 62
7
  6
CONTINUOUS
 10
57.5357508761
 20
137.9689275968
 11
57.5357508761
 21
122.6186821548
  0
LINE
  5
27D
100
AcDbEntity
  8
1
100
AcDbLine
 62
7
  6
CONTINUOUS
 10
60.3994863836
 20
229.3558278855
 11
60.3994863836
 21
254.7900872597
  0
LINE
  5
27E
100
AcDbEntity
  8
1
100
AcDbLine
 62
7
  6
CONTINUOUS
 10
60.8944985188
 20
229.3967653766
 11
60.8944985188
 21
231.6829721446
  0
LINE
  5
27F
100
AcDbEntity
  8
1
100
AcDbLine
 62
7
  6
CONTINUOUS
 10
60.8944985188
 20
247.3598185535
 11
60.8944985188
 21
249.6460253214
  0
LINE
  5
280
100
AcDbEntity
  8
1
100
AcDbLine
 62
7
  6
CONTINUOUS
 10
61.6016082439
 20
225.1917883825
 11
61.6016082439
 21
228.9885246221
  0
LINE
  5
281
100
AcDbEntity
  8
1
100
AcDbLine
 62
7
  6
CONTINUOUS
 10
61.6016082439
 20
231.2747313901
 11
61.6016082439
 21
246.951577799
  0
LINE
  5
282
100
AcDbEntity
  8
1
100
AcDbLine
 62
7
  6
CONTINUOUS
 10
61.6016082439
 20
249.2377845669
 11
61.6016082439
 21
253.0345208066
  0
LINE
  5
283
100
AcDbEntity
  8
1
100
AcDbLine
 62
7
  6
CONTINUOUS
 10
61.8986178802
 20
108.358531941
 11
61.8986178802
 21
74.465516606
  0
LINE
  5
284
100
AcDbEntity
  8
1
100
AcDbLine
 62
7
  6
CONTINUOUS
 10
65.349313339
 20
168.7715968002
 11
65.349313339
 21
183.2236895834
  0
LINE
  5
285
100
AcDbEntity
  8
1
100
AcDbLine
 62
7
  6
CONTINUOUS
 10
66.7635210134
 20
169.5880851079
 11
66.7635210134
 21
182.407214873
  0
LINE
  5
286
100
AcDbEntity
  8
1
100
AcDbLine
 62
7
  6
CONTINUOUS
 10
68.3191741846
 20
159.7492889979
 11
68.3191741846
 21
162.6886976996
  0
LINE
  5
287
100
AcDbEntity
  8
1
100
AcDbLine
 62
7
  6
CONTINUOUS
 10
68.6727054954
 20
248.9521132614
 11
68.6727054954
 21
221.1093808373
  0
LINE
  5
288
100
AcDbEntity
  8
1
100
AcDbLine
 62
7
  6
CONTINUOUS
 10
69.3091277998
 20
216.3329211406
 11
69.3091277998
 21
216.0471452946
  0
LINE
  5
289
100
AcDbEntity
  8
1
100
AcDbLine
 62
7
  6
CONTINUOUS
 10
69.733381859
 20
160.5657773056
 11
69.733381859
 21
161.8722229892
  0
LINE
  5
28A
100
AcDbEntity
  8
1
100
AcDbLine
 62
7
  6
CONTINUOUS
 10
47.1897222673
 20
248.7962676697
 11
58.9853746887
 21
255.6064501191
  0
LINE
  5
28B
100
AcDbEntity
  8
1
100
AcDbLine
 62
7
  6
CONTINUOUS
 10
137.4488430165
 20
298.4050234618
 11
112.7709190977
 21
284.1573024917
  0
LINE
  5
28C
100
AcDbEntity
  8
1
100
AcDbLine
 62
7
  6
CONTINUOUS
 10
61.6016082439
 20
253.0345208066
 11
62.5209392003
 21
253.5652936134
  0
LINE
  5
28D
100
AcDbEntity
  8
1
100
AcDbLine
 62
7
  6
CONTINUOUS
 10
248.5679476477
 20
329.7715247207
 11
249.3733769546
 21
330.0201665581
  0
LINE
  5
28E
100
AcDbEntity
  8
2
100
AcDbLine
 62
7
  6
CONTINUOUS
 10
115.8397543293
 20
107.0129025463
 11
115.9123333822
 21
107.0307989001
  0
LINE
  5
28F
100
AcDbEntity
  8
1
100
AcDbLine
 62
7
  6
CONTINUOUS
 10
74.4003178208
 20
156.238418509
 11
68.3191741846
 21
159.7492889979
  0
LINE
  5
290
100
AcDbEntity
  8
1
100
AcDbLine
 62
7
  6
CONTINUOUS
 10
74.4003178208
 20
157.8713815272
 11
69.733381859
 21
160.5657773056
  0
LINE
  5
291
100
AcDbEntity
  8
1
100
AcDbLine
 62
7
  6
CONTINUOUS
 10
68.3191741846
 20
162.6886976996
 11
74.4003178208
 21
159.1778272107
  0
LINE
  5
292
100
AcDbEntity
  8
1
100
AcDbLine
 62
7
  6
CONTINUOUS
 10
85.2620946464
 20
153.2669056755
 11
84.5549849213
 21
153.6751464301
  0
LINE
  5
293
100
AcDbEntity
  8
1
100
AcDbLine
 62
7
  6
CONTINUOUS
 10
51.6036717294
 20
172.6991655907
 11
50.8965620043
 21
173.1074063452
  0
LINE
  5
294
100
AcDbEntity
  8
2
100
AcDbLine
 62
7
  6
CONTINUOUS
 10
96.8095486781
 20
115.6091942449
 11
96.77848183
 21
115.6778621671
  0
LINE
  5
295
100
AcDbEntity
  8
2
100
AcDbLine
 62
7
  6
CONTINUOUS
 10
101.8702246353
 20
112.7382095916
 11
101.9012914834
 21
112.6695416694
  0
LINE
  5
296
100
AcDbEntity
  8
2
100
AcDbLine
 62
7
  6
CONTINUOUS
 10
106.3586476633
 20
110.0961440971
 11
106.3275808152
 21
110.1648120193
  0
LINE
  5
297
100
AcDbEntity
  8
1
100
AcDbLine
 62
7
  6
CONTINUOUS
 10
70.6526127258
 20
227.3964787205
 11
70.6526127258
 21
247.0741869733
  0
LINE
  5
298
100
AcDbEntity
  8
1
100
AcDbLine
 62
7
  6
CONTINUOUS
 10
71.9961447553
 20
211.9238478135
 11
71.9961447553
 21
213.1486014392
  0
LINE
  5
299
100
AcDbEntity
  8
1
100
AcDbLine
 62
7
  6
CONTINUOUS
 10
72.9153285187
 20
226.090128702
 11
72.9153285187
 21
223.5588457605
  0
LINE
  5
29A
100
AcDbEntity
  8
1
100
AcDbLine
 62
7
  6
CONTINUOUS
 10
74.3296068483
 20
211.8014069493
 11
74.3296068483
 21
210.5766533236
  0
LINE
  5
29B
100
AcDbEntity
  8
1
100
AcDbLine
 62
7
  6
CONTINUOUS
 10
74.4003178208
 20
159.1778272107
 11
74.4003178208
 21
156.238418509
  0
LINE
  5
29C
100
AcDbEntity
  8
1
100
AcDbLine
 62
7
  6
CONTINUOUS
 10
76.9459128314
 20
209.0661625319
 11
76.9459128314
 21
210.2909161576
  0
LINE
  5
29D
100
AcDbEntity
  8
1
100
AcDbLine
 62
7
  6
CONTINUOUS
 10
77.3701786665
 20
176.2835967565
 11
77.3701786665
 21
161.8315039734
  0
LINE
  5
29E
100
AcDbEntity
  8
1
100
AcDbLine
 62
7
  6
CONTINUOUS
 10
78.5015542267
 20
117.7812152957
 11
78.5015542267
 21
132.2333080789
  0
LINE
  5
29F
100
AcDbEntity
  8
1
100
AcDbLine
 62
7
  6
CONTINUOUS
 10
79.2086404001
 20
242.1344738436
 11
79.2086404001
 21
222.4567655908
  0
LINE
  5
2A0
100
AcDbEntity
  8
1
100
AcDbLine
 62
7
  6
CONTINUOUS
 10
79.2793749244
 20
208.9437216676
 11
79.2793749244
 21
207.718968042
  0
LINE
  5
2A1
100
AcDbEntity
  8
1
100
AcDbLine
 62
7
  6
CONTINUOUS
 10
79.9157619011
 20
118.5977036034
 11
79.9157619011
 21
131.4168333685
  0
LINE
  5
2A2
100
AcDbEntity
  8
1
100
AcDbLine
 62
7
  6
CONTINUOUS
 10
81.8956809074
 20
206.2084772502
 11
81.8956809074
 21
207.4332308759
  0
LINE
  5
2A3
100
AcDbEntity
  8
1
100
AcDbLine
 62
7
  6
CONTINUOUS
 10
83.2391658334
 20
220.12979329
 11
83.2391658334
 21
236.9497430829
  0
LINE
  5
2A4
100
AcDbEntity
  8
1
100
AcDbLine
 62
7
  6
CONTINUOUS
 10
83.4512634234
 20
241.4814386624
 11
83.4512634234
 21
237.0721969526
  0
LINE
  5
2A5
100
AcDbEntity
  8
1
100
AcDbLine
 62
7
  6
CONTINUOUS
 10
60.8944985188
 20
249.6460253214
 11
61.6016082439
 21
250.0542728747
  0
LINE
  5
2A6
100
AcDbEntity
  8
1
100
AcDbLine
 62
7
  6
CONTINUOUS
 10
68.6727054954
 20
248.9521132614
 11
69.5920364518
 21
249.4828860682
  0
LINE
  5
2A7
100
AcDbEntity
  8
1
100
AcDbLine
 62
7
  6
CONTINUOUS
 10
70.6526127258
 20
247.0741869733
 11
72.2083534322
 21
247.9723889274
  0
LINE
  5
2A8
100
AcDbEntity
  8
1
100
AcDbLine
 62
7
  6
CONTINUOUS
 10
142.3061163397
 20
281.0746927239
 11
164.8187675635
 21
294.0723003829
  0
LINE
  5
2A9
100
AcDbEntity
  8
2
100
AcDbLine
 62
7
  6
CONTINUOUS
 10
106.8518660887
 20
146.8257902429
 11
106.9269187865
 21
146.8183923335
  0
LINE
  5
2AA
100
AcDbEntity
  8
2
100
AcDbLine
 62
7
  6
CONTINUOUS
 10
106.4317952913
 20
146.5227320217
 11
106.3567892383
 21
146.5301577491
  0
LINE
  5
2AB
100
AcDbEntity
  8
2
100
AcDbLine
 62
7
  6
CONTINUOUS
 10
111.5914683905
 20
147.9001628503
 11
111.6649365434
 21
147.8800861731
  0
LINE
  5
2AC
100
AcDbEntity
  8
1
100
AcDbLine
 62
7
  6
CONTINUOUS
 10
208.1735684983
 20
83.9129761852
 11
209.5877879486
 21
83.0964946762
  0
LINE
  5
2AD
100
AcDbEntity
  8
1
100
AcDbLine
 62
7
  6
CONTINUOUS
 10
56.2983088571
 20
173.1234208717
 11
54.8840894068
 21
173.9399023808
  0
LINE
  5
2AE
100
AcDbEntity
  8
1
100
AcDbLine
 62
7
  6
CONTINUOUS
 10
77.3701786665
 20
161.8315039734
 11
65.349313339
 21
168.7715968002
  0
LINE
  5
2AF
100
AcDbEntity
  8
1
100
AcDbLine
 62
7
  6
CONTINUOUS
 10
207.5209722268
 20
87.3918878333
 11
206.1067527765
 21
88.2083693424
  0
LINE
  5
2B0
100
AcDbEntity
  8
2
100
AcDbLine
 62
7
  6
CONTINUOUS
 10
101.8733423311
 20
148.7054602633
 11
106.3244631195
 21
146.1356626146
  0
LINE
  5
2B1
100
AcDbEntity
  8
2
100
AcDbLine
 62
7
  6
CONTINUOUS
 10
96.77848183
 20
151.8531575638
 11
101.8702246353
 21
148.9135049884
  0
LINE
  5
2B2
100
AcDbEntity
  8
2
100
AcDbLine
 62
7
  6
CONTINUOUS
 10
106.3275808152
 20
146.340107416
 11
111.5603821943
 21
143.3190164774
  0
LINE
  5
2B3
100
AcDbEntity
  8
2
100
AcDbLine
 62
7
  6
CONTINUOUS
 10
106.2838950304
 20
146.4040316707
 11
102.0836391254
 21
148.8289956882
  0
LINE
  5
2B4
100
AcDbEntity
  8
2
100
AcDbLine
 62
7
  6
CONTINUOUS
 10
106.3245987125
 20
146.503004147
 11
102.189704701
 21
148.8902323112
  0
LINE
  5
2B5
100
AcDbEntity
  8
2
100
AcDbLine
 62
7
  6
CONTINUOUS
 10
111.6645966703
 20
143.5016410831
 11
106.4317952913
 21
146.5227320217
  0
LINE
  5
2B6
100
AcDbEntity
  8
2
100
AcDbLine
 62
7
  6
CONTINUOUS
 10
101.9744391114
 20
149.096129594
 11
96.882696306
 21
152.0357821695
  0
LINE
  5
2B7
100
AcDbEntity
  8
1
100
AcDbLine
 62
7
  6
CONTINUOUS
 10
77.3701786665
 20
163.4644669915
 11
66.7635210134
 21
169.5880851079
  0
LINE
  5
2B8
100
AcDbEntity
  8
2
100
AcDbLine
 62
7
  6
CONTINUOUS
 10
97.3690291398
 20
152.3365176573
 11
102.4692609882
 21
149.3919640413
  0
LINE
  5
2B9
100
AcDbEntity
  8
2
100
AcDbLine
 62
7
  6
CONTINUOUS
 10
106.9269187865
 20
146.8183923335
 11
111.9545432496
 21
143.9157576627
  0
LINE
  5
2BA
100
AcDbEntity
  8
2
100
AcDbLine
 62
7
  6
CONTINUOUS
 10
111.9874491056
 20
143.949644715
 11
107.0037686135
 21
146.8269088962
  0
LINE
  5
2BB
100
AcDbEntity
  8
2
100
AcDbLine
 62
7
  6
CONTINUOUS
 10
102.5461108152
 20
149.400480604
 11
97.4458789668
 21
152.34503422
  0
LINE
  5
2BC
100
AcDbEntity
  8
1
100
AcDbLine
 62
7
  6
CONTINUOUS
 10
214.7607292036
 20
86.9576792537
 11
214.053616313
 21
87.3659218358
  0
LINE
  5
2BD
100
AcDbEntity
  8
2
100
AcDbLine
 62
7
  6
CONTINUOUS
 10
111.5914490424
 20
147.900174015
 11
106.3586476633
 21
150.9212649536
  0
LINE
  5
2BE
100
AcDbEntity
  8
2
100
AcDbLine
 62
7
  6
CONTINUOUS
 10
101.9012914834
 20
153.4946625259
 11
96.8095486781
 21
156.4343151014
  0
LINE
  5
2BF
100
AcDbEntity
  8
2
100
AcDbLine
 62
7
  6
CONTINUOUS
 10
111.5603821943
 20
147.9688419371
 11
106.3275808152
 21
150.9899328757
  0
LINE
  5
2C0
100
AcDbEntity
  8
2
100
AcDbLine
 62
7
  6
CONTINUOUS
 10
101.8702246353
 20
153.5633304481
 11
96.77848183
 21
156.5029830235
  0
LINE
  5
2C1
100
AcDbEntity
  8
2
100
AcDbLine
 62
7
  6
CONTINUOUS
 10
101.9781127244
 20
153.6565555283
 11
106.2818264223
 21
151.1718614776
  0
LINE
  5
2C2
100
AcDbEntity
  8
2
100
AcDbLine
 62
7
  6
CONTINUOUS
 10
106.3244631195
 20
151.1979776008
 11
101.8733423311
 21
153.7677752495
  0
LINE
  5
2C3
100
AcDbEntity
  8
1
100
AcDbLine
 62
7
  6
CONTINUOUS
 10
85.2620946464
 20
164.5346390319
 11
84.5549849213
 21
164.9428797864
  0
LINE
  5
2C4
100
AcDbEntity
  8
1
100
AcDbLine
 62
7
  6
CONTINUOUS
 10
51.6036717294
 20
183.9668989471
 11
50.8965620043
 21
184.3751397016
  0
LINE
  5
2C5
100
AcDbEntity
  8
1
100
AcDbLine
 62
7
  6
CONTINUOUS
 10
219.003340451
 20
91.0401139937
 11
220.4175599013
 21
90.2236324847
  0
LINE
  5
2C6
100
AcDbEntity
  8
1
100
AcDbLine
 62
7
  6
CONTINUOUS
 10
53.7527138465
 20
186.5140228781
 11
54.8840894068
 21
185.8608376709
  0
LINE
  5
2C7
100
AcDbEntity
  8
1
100
AcDbLine
 62
7
  6
CONTINUOUS
 10
87.8354025986
 20
166.8368185102
 11
88.9667781589
 21
166.183633303
  0
LINE
  5
2C8
100
AcDbEntity
  8
1
100
AcDbLine
 62
7
  6
CONTINUOUS
 10
54.8840894068
 20
186.5140396046
 11
56.2983088571
 21
185.6975580955
  0
LINE
  5
2C9
100
AcDbEntity
  8
1
100
AcDbLine
 62
7
  6
CONTINUOUS
 10
86.4211831483
 20
168.306501953
 11
87.8354025986
 21
167.4900204439
  0
LINE
  5
2CA
100
AcDbEntity
  8
1
100
AcDbLine
 62
7
  6
CONTINUOUS
 10
221.1246637385
 20
91.4483790557
 11
219.7104442882
 21
92.2648605647
  0
LINE
  5
2CB
100
AcDbEntity
  8
2
100
AcDbLine
 62
7
  6
CONTINUOUS
 10
106.3275808152
 20
150.9899328757
 11
106.2836632308
 21
151.0489218962
  0
LINE
  5
2CC
100
AcDbEntity
  8
2
100
AcDbLine
 62
7
  6
CONTINUOUS
 10
96.7345474056
 20
151.9143941869
 11
96.77848183
 21
151.8531575638
  0
LINE
  5
2CD
100
AcDbEntity
  8
2
100
AcDbLine
 62
7
  6
CONTINUOUS
 10
96.77848183
 20
156.5029830235
 11
96.7345474056
 21
156.5642196466
  0
LINE
  5
2CE
100
AcDbEntity
  8
2
100
AcDbLine
 62
7
  6
CONTINUOUS
 10
106.283663829
 20
146.403631209
 11
106.3275808152
 21
146.340107416
  0
LINE
  5
2CF
100
AcDbEntity
  8
2
100
AcDbLine
 62
7
  6
CONTINUOUS
 10
111.5603821943
 20
107.1437210807
 11
111.5914490424
 21
107.0750531585
  0
LINE
  5
2D0
100
AcDbEntity
  8
2
100
AcDbLine
 62
7
  6
CONTINUOUS
 10
96.8095486781
 20
156.4343151014
 11
96.77848183
 21
156.5029830235
  0
LINE
  5
2D1
100
AcDbEntity
  8
2
100
AcDbLine
 62
7
  6
CONTINUOUS
 10
101.8702246353
 20
153.5633304481
 11
101.9012914834
 21
153.4946625259
  0
LINE
  5
2D2
100
AcDbEntity
  8
1
100
AcDbLine
 62
7
  6
CONTINUOUS
 10
84.2291430004
 20
206.086036386
 11
84.2291430004
 21
204.8612827603
  0
LINE
  5
2D3
100
AcDbEntity
  8
1
100
AcDbLine
 62
7
  6
CONTINUOUS
 10
84.5549849213
 20
164.9428797864
 11
84.5549849213
 21
153.67514643
  0
LINE
  5
2D4
100
AcDbEntity
  8
1
100
AcDbLine
 62
7
  6
CONTINUOUS
 10
85.2620946464
 20
164.5346390319
 11
85.2620946464
 21
153.2669056755
  0
LINE
  5
2D5
100
AcDbEntity
  8
1
100
AcDbLine
 62
7
  6
CONTINUOUS
 10
86.4211831483
 20
166.0203234037
 11
86.4211831483
 21
168.306501953
  0
LINE
  5
2D6
100
AcDbEntity
  8
1
100
AcDbLine
 62
7
  6
CONTINUOUS
 10
86.8454489834
 20
203.3507919686
 11
86.8454489834
 21
204.5755455943
  0
LINE
  5
2D7
100
AcDbEntity
  8
1
100
AcDbLine
 62
7
  6
CONTINUOUS
 10
87.8354025986
 20
167.4900204439
 11
87.8354025986
 21
166.8368185102
  0
LINE
  5
2D8
100
AcDbEntity
  8
1
100
AcDbLine
 62
7
  6
CONTINUOUS
 10
88.9667781589
 20
166.183633303
 11
88.9667781589
 21
154.9158999466
  0
LINE
  5
2D9
100
AcDbEntity
  8
1
100
AcDbLine
 62
7
  6
CONTINUOUS
 10
89.1789110764
 20
203.2283511044
 11
89.1789110764
 21
202.0035974787
  0
LINE
  5
2DA
100
AcDbEntity
  8
1
100
AcDbLine
 62
7
  6
CONTINUOUS
 10
90.5224195542
 20
125.293215252
 11
90.5224195542
 21
110.8411224688
  0
LINE
  5
2DB
100
AcDbEntity
  8
1
100
AcDbLine
 62
7
  6
CONTINUOUS
 10
91.1588183068
 20
131.6456134659
 11
91.1588183068
 21
191.9851420918
  0
LINE
  5
2DC
100
AcDbEntity
  8
1
100
AcDbLine
 62
7
  6
CONTINUOUS
 10
91.6891461847
 20
192.2913252072
 11
91.6891461847
 21
131.9517965813
  0
LINE
  5
2DD
100
AcDbEntity
  8
1
100
AcDbLine
 62
7
  6
CONTINUOUS
 10
91.7951935077
 20
230.8534662683
 11
91.7951935077
 21
215.1900801603
  0
LINE
  5
2DE
100
AcDbEntity
  8
1
100
AcDbLine
 62
7
  6
CONTINUOUS
 10
91.865928032
 20
230.0913203533
 11
91.865928032
 21
208.2090555742
  0
LINE
  5
2DF
100
AcDbEntity
  8
1
100
AcDbLine
 62
7
  6
CONTINUOUS
 10
92.2194828945
 20
191.37278096
 11
92.2194828945
 21
131.0332523342
  0
LINE
  5
2E0
100
AcDbEntity
  8
1
100
AcDbLine
 62
7
  6
CONTINUOUS
 10
93.6337023448
 20
229.070718467
 11
93.6337023448
 21
113.1273752346
  0
LINE
  5
2E1
100
AcDbEntity
  8
2
100
AcDbLine
 62
7
  6
CONTINUOUS
 10
96.7345474056
 20
233.5646358999
 11
96.7345474056
 21
197.3893405031
  0
LINE
  5
2E2
100
AcDbEntity
  8
2
100
AcDbLine
 62
7
  6
CONTINUOUS
 10
96.7345474056
 20
192.7395150434
 11
96.7345474056
 21
156.5642196466
  0
LINE
  5
2E3
100
AcDbEntity
  8
2
100
AcDbLine
 62
7
  6
CONTINUOUS
 10
96.7345474056
 20
151.9143941869
 11
96.7345474056
 21
115.7390987901
  0
LINE
  5
2E4
100
AcDbEntity
  8
2
100
AcDbLine
 62
7
  6
CONTINUOUS
 10
96.77848183
 20
115.6778621671
 11
96.77848183
 21
151.8531575638
  0
LINE
  5
2E5
100
AcDbEntity
  8
2
100
AcDbLine
 62
7
  6
CONTINUOUS
 10
96.77848183
 20
156.5029830235
 11
96.77848183
 21
192.6782784203
  0
LINE
  5
2E6
100
AcDbEntity
  8
2
100
AcDbLine
 62
7
  6
CONTINUOUS
 10
96.77848183
 20
197.32810388
 11
96.77848183
 21
233.5033992768
  0
LINE
  5
2E7
100
AcDbEntity
  8
1
100
AcDbLine
 62
7
  6
CONTINUOUS
 10
97.1692215309
 20
115.168596004
 11
97.1692215309
 21
115.4015417242
  0
LINE
  5
2E8
100
AcDbEntity
  8
1
100
AcDbLine
 62
7
  6
CONTINUOUS
 10
97.1692215309
 20
152.26679159
 11
97.1692215309
 21
156.2266625807
  0
LINE
  5
2E9
100
AcDbEntity
  8
1
100
AcDbLine
 62
7
  6
CONTINUOUS
 10
97.1692215309
 20
193.0919124465
 11
97.1692215309
 21
197.0517834372
  0
LINE
  5
2EA
100
AcDbEntity
  8
1
100
AcDbLine
 62
7
  6
CONTINUOUS
 10
60.8944985188
 20
231.6829721446
 11
61.6016082439
 21
232.0912196978
  0
LINE
  5
2EB
100
AcDbEntity
  8
1
100
AcDbLine
 62
7
  6
CONTINUOUS
 10
79.2086404001
 20
242.1344738436
 11
80.7643811064
 21
243.0326757977
  0
LINE
  5
2EC
100
AcDbEntity
  8
1
100
AcDbLine
 62
7
  6
CONTINUOUS
 10
241.878030943
 20
335.4391189806
 11
243.9286320709
 21
336.6230270269
  0
LINE
  5
2ED
100
AcDbEntity
  8
1
100
AcDbLine
 62
7
  6
CONTINUOUS
 10
243.3366927493
 20
335.5767570567
 11
244.5387692726
 21
336.2707721183
  0
LINE
  5
2EE
100
AcDbEntity
  8
1
100
AcDbLine
 62
7
  6
CONTINUOUS
 10
104.0889171657
 20
254.8829277177
 11
119.3654471797
 21
263.7027837861
  0
LINE
  5
2EF
100
AcDbEntity
  8
1
100
AcDbLine
 62
7
  6
CONTINUOUS
 10
60.3994863836
 20
229.3558278855
 11
53.2858637846
 21
225.2488004787
  0
LINE
  5
2F0
100
AcDbEntity
  8
1
100
AcDbLine
 62
7
  6
CONTINUOUS
 10
120.8401129745
 20
262.8514043533
 11
140.3291880709
 21
274.1033599414
  0
LINE
  5
2F1
100
AcDbEntity
  8
1
100
AcDbLine
 62
7
  6
CONTINUOUS
 10
245.5549944483
 20
334.2960489472
 11
244.7064698436
 21
333.8061559626
  0
LINE
  5
2F2
100
AcDbEntity
  8
1
100
AcDbLine
 62
7
  6
CONTINUOUS
 10
121.5472349189
 20
262.4431565442
 11
140.3291880709
 21
273.2868575243
  0
LINE
  5
2F3
100
AcDbEntity
  8
1
100
AcDbLine
 62
7
  6
CONTINUOUS
 10
90.0981242794
 20
243.3593709529
 11
86.5626050934
 21
241.3181501835
  0
LINE
  5
2F4
100
AcDbEntity
  8
1
100
AcDbLine
 62
7
  6
CONTINUOUS
 10
55.4497771869
 20
221.5991568319
 11
61.6193147018
 21
225.1611197148
  0
LINE
  5
2F5
100
AcDbEntity
  8
1
100
AcDbLine
 62
7
  6
CONTINUOUS
 10
83.2391658334
 20
236.9497430829
 11
87.1619318057
 21
239.2145395539
  0
LINE
  5
2F6
100
AcDbEntity
  8
1
100
AcDbLine
 62
7
  6
CONTINUOUS
 10
174.070619077
 20
288.7308622605
 11
151.5579678532
 21
275.7332546016
  0
LINE
  5
2F7
100
AcDbEntity
  8
1
100
AcDbLine
 62
7
  6
CONTINUOUS
 10
125.3261067148
 20
260.2614732519
 11
110.0495767008
 21
251.4416171834
  0
LINE
  5
2F8
100
AcDbEntity
  8
1
100
AcDbLine
 62
7
  6
CONTINUOUS
 10
249.3733769546
 20
331.0300659657
 11
251.288355147
 21
332.135672541
  0
LINE
  5
2F9
100
AcDbEntity
  8
1
100
AcDbLine
 62
7
  6
CONTINUOUS
 10
53.2301173762
 20
217.6706301393
 11
52.6997894983
 21
217.3644470239
  0
LINE
  5
2FA
100
AcDbEntity
  8
1
100
AcDbLine
 62
7
  6
CONTINUOUS
 10
50.5000091109
 20
215.4589854767
 11
51.0303369888
 21
215.7651685921
  0
LINE
  5
2FB
100
AcDbEntity
  8
1
100
AcDbLine
 62
7
  6
CONTINUOUS
 10
251.9766755417
 20
331.5231727264
 11
249.3733769546
 21
330.0201665581
  0
LINE
  5
2FC
100
AcDbEntity
  8
1
100
AcDbLine
 62
7
  6
CONTINUOUS
 10
55.4497771869
 20
217.0920634893
 11
55.9801050648
 21
217.3982466047
  0
LINE
  5
2FD
100
AcDbEntity
  8
1
100
AcDbLine
 62
7
  6
CONTINUOUS
 10
174.070619077
 20
283.8726728786
 11
151.5579678532
 21
270.8750652196
  0
LINE
  5
2FE
100
AcDbEntity
  8
1
100
AcDbLine
 62
7
  6
CONTINUOUS
 10
148.7668766512
 20
269.2319683738
 11
126.118532735
 21
256.15601897
  0
LINE
  5
2FF
100
AcDbEntity
  8
1
100
AcDbLine
 62
7
  6
CONTINUOUS
 10
49.0488029975
 20
224.8075863918
 11
51.2441584905
 21
226.0308192018
  0
LINE
  5
300
100
AcDbEntity
  8
2
100
AcDbLine
 62
7
  6
CONTINUOUS
 10
106.9269187865
 20
146.8183923335
 11
107.0037686135
 21
146.8269088962
  0
LINE
  5
301
100
AcDbEntity
  8
2
100
AcDbLine
 62
7
  6
CONTINUOUS
 10
102.5461108152
 20
149.400480604
 11
102.4692609882
 21
149.3919640413
  0
LINE
  5
302
100
AcDbEntity
  8
2
100
AcDbLine
 62
7
  6
CONTINUOUS
 10
115.8412661804
 20
143.3357346385
 11
111.6664483944
 21
143.2936517982
  0
LINE
  5
303
100
AcDbEntity
  8
2
100
AcDbLine
 62
7
  6
CONTINUOUS
 10
111.6645966703
 20
143.5016410831
 11
115.8394144563
 21
143.5437239234
  0
LINE
  5
304
100
AcDbEntity
  8
2
100
AcDbLine
 62
7
  6
CONTINUOUS
 10
116.5642827616
 20
143.9622245846
 11
111.9545432496
 21
143.9157576627
  0
LINE
  5
305
100
AcDbEntity
  8
2
100
AcDbLine
 62
7
  6
CONTINUOUS
 10
116.5646219136
 20
143.9908289819
 11
111.9913765074
 21
143.9447299266
  0
LINE
  5
306
100
AcDbEntity
  8
2
100
AcDbLine
 62
7
  6
CONTINUOUS
 10
115.8397543293
 20
147.8380234028
 11
111.6649365434
 21
147.8800861731
  0
LINE
  5
307
100
AcDbEntity
  8
2
100
AcDbLine
 62
7
  6
CONTINUOUS
 10
111.6664483944
 20
147.9434772579
 11
115.8412661804
 21
147.9014144876
  0
LINE
  5
308
100
AcDbEntity
  8
2
100
AcDbLine
 62
7
  6
CONTINUOUS
 10
97.2919892037
 20
152.3427079037
 11
97.3690291398
 21
152.3365176573
  0
LINE
  5
309
100
AcDbEntity
  8
2
100
AcDbLine
 62
7
  6
CONTINUOUS
 10
96.882696306
 20
152.0357821695
 11
96.805686071
 21
152.0419907679
  0
LINE
  5
30A
100
AcDbEntity
  8
1
100
AcDbLine
 62
7
  6
CONTINUOUS
 10
86.2039869959
 20
165.8949258952
 11
85.367469759
 21
166.0243315569
  0
LINE
  5
30B
100
AcDbEntity
  8
1
100
AcDbLine
 62
7
  6
CONTINUOUS
 10
220.4175508479
 20
93.489626472
 11
221.1246637385
 21
93.0813838899
  0
LINE
  5
30C
100
AcDbEntity
  8
1
100
AcDbLine
 62
7
  6
CONTINUOUS
 10
65.349313339
 20
183.2236895834
 11
77.3701786665
 21
176.2835967565
  0
LINE
  5
30D
100
AcDbEntity
  8
2
100
AcDbLine
 62
7
  6
CONTINUOUS
 10
96.7345474056
 20
192.7395150434
 11
96.77848183
 21
192.6782784203
  0
LINE
  5
30E
100
AcDbEntity
  8
2
100
AcDbLine
 62
7
  6
CONTINUOUS
 10
106.3586476633
 20
150.9212649536
 11
106.3275808152
 21
150.9899328757
  0
LINE
  5
30F
100
AcDbEntity
  8
2
100
AcDbLine
 62
7
  6
CONTINUOUS
 10
111.5603821943
 20
147.9688419371
 11
111.5914490424
 21
147.900174015
  0
LINE
  5
310
100
AcDbEntity
  8
2
100
AcDbLine
 62
7
  6
CONTINUOUS
 10
96.8095486781
 20
197.2594359578
 11
96.77848183
 21
197.32810388
  0
LINE
  5
311
100
AcDbEntity
  8
2
100
AcDbLine
 62
7
  6
CONTINUOUS
 10
101.8702246353
 20
148.9135049884
 11
101.8733423311
 21
148.7054602633
  0
LINE
  5
312
100
AcDbEntity
  8
2
100
AcDbLine
 62
7
  6
CONTINUOUS
 10
102.0836391254
 20
148.8289956882
 11
102.0823405152
 21
148.9156523146
  0
LINE
  5
313
100
AcDbEntity
  8
2
100
AcDbLine
 62
7
  6
CONTINUOUS
 10
101.8702246353
 20
189.7386258448
 11
101.8733423311
 21
189.5305811198
  0
LINE
  5
314
100
AcDbEntity
  8
2
100
AcDbLine
 62
7
  6
CONTINUOUS
 10
102.5771623921
 20
149.211486762
 11
102.585400093
 21
148.6617826384
  0
LINE
  5
315
100
AcDbEntity
  8
2
100
AcDbLine
 62
7
  6
CONTINUOUS
 10
102.6210952478
 20
149.2728236614
 11
102.6306435626
 21
148.6356619
  0
LINE
  5
316
100
AcDbEntity
  8
2
100
AcDbLine
 62
7
  6
CONTINUOUS
 10
102.0836391254
 20
189.6541165446
 11
102.0823405152
 21
189.7407731711
  0
LINE
  5
317
100
AcDbEntity
  8
2
100
AcDbLine
 62
7
  6
CONTINUOUS
 10
101.8702246353
 20
230.5637467013
 11
101.8733423311
 21
230.3557019763
  0
LINE
  5
318
100
AcDbEntity
  8
2
100
AcDbLine
 62
7
  6
CONTINUOUS
 10
102.5771623921
 20
190.0366076185
 11
102.585400093
 21
189.4869034948
  0
LINE
  5
319
100
AcDbEntity
  8
2
100
AcDbLine
 62
7
  6
CONTINUOUS
 10
102.6210952478
 20
190.0979445179
 11
102.6306435626
 21
189.4607827564
  0
LINE
  5
31A
100
AcDbEntity
  8
2
100
AcDbLine
 62
7
  6
CONTINUOUS
 10
102.0836391254
 20
230.4792374011
 11
102.0823405152
 21
230.5658940276
  0
LINE
  5
31B
100
AcDbEntity
  8
2
100
AcDbLine
 62
7
  6
CONTINUOUS
 10
102.5771623921
 20
230.8617284749
 11
102.585400093
 21
230.3120243513
  0
LINE
  5
31C
100
AcDbEntity
  8
2
100
AcDbLine
 62
7
  6
CONTINUOUS
 10
102.6210952478
 20
230.9230653743
 11
102.6306435626
 21
230.2859036129
  0
LINE
  5
31D
100
AcDbEntity
  8
2
100
AcDbLine
 62
7
  6
CONTINUOUS
 10
106.2818207505
 20
110.3467502772
 11
106.2836632308
 21
110.2238010397
  0
LINE
  5
31E
100
AcDbEntity
  8
2
100
AcDbLine
 62
7
  6
CONTINUOUS
 10
106.3275808152
 20
110.1648120193
 11
106.3244631195
 21
110.3728567443
  0
LINE
  5
31F
100
AcDbEntity
  8
2
100
AcDbLine
 62
7
  6
CONTINUOUS
 10
106.2818207505
 20
151.1718711337
 11
106.2836632308
 21
151.0489218962
  0
LINE
  5
320
100
AcDbEntity
  8
2
100
AcDbLine
 62
7
  6
CONTINUOUS
 10
106.3275808152
 20
150.9899328757
 11
106.3244631195
 21
151.1979776008
  0
LINE
  5
321
100
AcDbEntity
  8
2
100
AcDbLine
 62
7
  6
CONTINUOUS
 10
106.2818207505
 20
191.9969919901
 11
106.2836632308
 21
191.8740427527
  0
LINE
  5
322
100
AcDbEntity
  8
2
100
AcDbLine
 62
7
  6
CONTINUOUS
 10
106.3275808152
 20
191.8150537322
 11
106.3244631195
 21
192.0230984572
  0
LINE
  5
323
100
AcDbEntity
  8
1
100
AcDbLine
 62
7
  6
CONTINUOUS
 10
104.0889171657
 20
254.8829277177
 11
104.0889171657
 21
250.0247383358
  0
LINE
  5
324
100
AcDbEntity
  8
1
100
AcDbLine
 62
7
  6
CONTINUOUS
 10
105.8206230744
 20
301.5079140003
 11
105.8206230744
 21
286.4026192834
  0
LINE
  5
325
100
AcDbEntity
  8
1
100
AcDbLine
 62
7
  6
CONTINUOUS
 10
109.7097265627
 20
299.2625898504
 11
109.7097265627
 21
284.1572951335
  0
LINE
  5
326
100
AcDbEntity
  8
1
100
AcDbLine
 62
7
  6
CONTINUOUS
 10
110.0495767008
 20
251.4416171834
 11
110.0495767008
 21
246.5834278015
  0
LINE
  5
327
100
AcDbEntity
  8
2
100
AcDbLine
 62
7
  6
CONTINUOUS
 10
101.8733423311
 20
194.592896106
 11
101.8702246353
 21
194.3884513045
  0
LINE
  5
328
100
AcDbEntity
  8
2
100
AcDbLine
 62
7
  6
CONTINUOUS
 10
102.0823405152
 20
194.3863236512
 11
102.0828722852
 21
194.4211947925
  0
LINE
  5
329
100
AcDbEntity
  8
2
100
AcDbLine
 62
7
  6
CONTINUOUS
 10
101.8733423311
 20
153.7677752495
 11
101.8702246353
 21
153.5633304481
  0
LINE
  5
32A
100
AcDbEntity
  8
2
100
AcDbLine
 62
7
  6
CONTINUOUS
 10
102.0823405152
 20
153.5612027947
 11
102.0828722852
 21
153.596073936
  0
LINE
  5
32B
100
AcDbEntity
  8
2
100
AcDbLine
 62
7
  6
CONTINUOUS
 10
101.8733423311
 20
112.9426543931
 11
101.8702246353
 21
112.7382095916
  0
LINE
  5
32C
100
AcDbEntity
  8
2
100
AcDbLine
 62
7
  6
CONTINUOUS
 10
102.0823405152
 20
112.7360819382
 11
102.0828722852
 21
112.7709530795
  0
LINE
  5
32D
100
AcDbEntity
  8
2
100
AcDbLine
 62
7
  6
CONTINUOUS
 10
106.283663829
 20
228.053872922
 11
106.2818437978
 21
227.9345232687
  0
LINE
  5
32E
100
AcDbEntity
  8
2
100
AcDbLine
 62
7
  6
CONTINUOUS
 10
106.3244631195
 20
227.7859043275
 11
106.3275808152
 21
227.990349129
  0
LINE
  5
32F
100
AcDbEntity
  8
2
100
AcDbLine
 62
7
  6
CONTINUOUS
 10
106.283663829
 20
187.2287520655
 11
106.2818437978
 21
187.1094024122
  0
LINE
  5
330
100
AcDbEntity
  8
2
100
AcDbLine
 62
7
  6
CONTINUOUS
 10
106.3244631195
 20
186.960783471
 11
106.3275808152
 21
187.1652282725
  0
LINE
  5
331
100
AcDbEntity
  8
2
100
AcDbLine
 62
7
  6
CONTINUOUS
 10
106.283663829
 20
146.403631209
 11
106.2818437978
 21
146.2842815558
  0
LINE
  5
332
100
AcDbEntity
  8
2
100
AcDbLine
 62
7
  6
CONTINUOUS
 10
106.3244631195
 20
146.1356626146
 11
106.3275808152
 21
146.340107416
  0
LINE
  5
333
100
AcDbEntity
  8
1
100
AcDbLine
 62
7
  6
CONTINUOUS
 10
85.0000471807
 20
165.9018579375
 11
84.5549849213
 21
164.9428797864
  0
LINE
  5
334
100
AcDbEntity
  8
2
100
AcDbLine
 62
7
  6
CONTINUOUS
 10
102.5771623921
 20
230.8617284749
 11
102.6210952478
 21
230.9230653743
  0
LINE
  5
335
100
AcDbEntity
  8
1
100
AcDbLine
 62
7
  6
CONTINUOUS
 10
53.7527138465
 20
186.5140228781
 11
50.8965620043
 21
184.3751397016
  0
LINE
  5
336
100
AcDbEntity
  8
2
100
AcDbLine
 62
7
  6
CONTINUOUS
 10
97.2919892037
 20
233.9929496166
 11
96.8056563699
 21
233.6922141288
  0
LINE
  5
337
100
AcDbEntity
  8
2
100
AcDbLine
 62
7
  6
CONTINUOUS
 10
97.3690291398
 20
233.9867593702
 11
96.882696306
 21
233.6860238824
  0
LINE
  5
338
100
AcDbEntity
  8
2
100
AcDbLine
 62
7
  6
CONTINUOUS
 10
102.4692609882
 20
231.0422057543
 11
101.9744391114
 21
230.7463713069
  0
LINE
  5
339
100
AcDbEntity
  8
2
100
AcDbLine
 62
7
  6
CONTINUOUS
 10
102.5771623921
 20
230.8617284749
 11
102.0823405152
 21
230.5658940276
  0
LINE
  5
33A
100
AcDbEntity
  8
1
100
AcDbLine
 62
7
  6
CONTINUOUS
 10
125.3261067148
 20
255.4032838699
 11
110.0495767008
 21
246.5834278015
  0
LINE
  5
33B
100
AcDbEntity
  8
1
100
AcDbLine
 62
7
  6
CONTINUOUS
 10
258.1768930326
 20
330.8464830747
 11
213.1734836632
 21
304.8639076558
  0
LINE
  5
33C
100
AcDbEntity
  8
1
100
AcDbLine
 62
7
  6
CONTINUOUS
 10
68.6727054954
 20
221.1093808373
 11
72.9153285187
 21
223.5588457605
  0
LINE
  5
33D
100
AcDbEntity
  8
1
100
AcDbLine
 62
7
  6
CONTINUOUS
 10
260.6517682388
 20
330.6423677964
 11
214.5877031134
 21
304.0474261468
  0
LINE
  5
33E
100
AcDbEntity
  8
1
100
AcDbLine
 62
7
  6
CONTINUOUS
 10
262.2781206066
 20
329.703414061
 11
265.4600878741
 21
331.5405127535
  0
LINE
  5
33F
100
AcDbEntity
  8
1
100
AcDbLine
 62
7
  6
CONTINUOUS
 10
77.0015020627
 20
221.7887205042
 11
69.9304636905
 21
217.7062789655
  0
LINE
  5
340
100
AcDbEntity
  8
1
100
AcDbLine
 62
7
  6
CONTINUOUS
 10
245.873298041
 20
318.844055312
 11
240.2164673433
 21
315.578102081
  0
LINE
  5
341
100
AcDbEntity
  8
1
100
AcDbLine
 62
7
  6
CONTINUOUS
 10
233.1454289711
 20
311.4956605423
 11
227.4885982734
 21
308.2297073114
  0
LINE
  5
342
100
AcDbEntity
  8
1
100
AcDbLine
 62
7
  6
CONTINUOUS
 10
220.4175599013
 20
304.1472657726
 11
214.7607292036
 21
300.8813125417
  0
LINE
  5
343
100
AcDbEntity
  8
1
100
AcDbLine
 62
7
  6
CONTINUOUS
 10
79.2086404001
 20
222.4567655908
 11
83.2391658334
 21
224.7837766443
  0
LINE
  5
344
100
AcDbEntity
  8
1
100
AcDbLine
 62
7
  6
CONTINUOUS
 10
71.4304569752
 20
217.5577061285
 11
78.5014953474
 21
221.6401476672
  0
LINE
  5
345
100
AcDbEntity
  8
1
100
AcDbLine
 62
7
  6
CONTINUOUS
 10
69.3091461283
 20
216.0471135485
 11
67.1877986243
 21
214.8223603068
  0
LINE
  5
346
100
AcDbEntity
  8
1
100
AcDbLine
 62
7
  6
CONTINUOUS
 10
214.0536253664
 20
298.8400353348
 11
219.003340451
 21
301.6977376132
  0
LINE
  5
347
100
AcDbEntity
  8
1
100
AcDbLine
 62
7
  6
CONTINUOUS
 10
226.7814944362
 20
306.1884301045
 11
231.7312095209
 21
309.0461323828
  0
LINE
  5
348
100
AcDbEntity
  8
1
100
AcDbLine
 62
7
  6
CONTINUOUS
 10
239.5093635061
 20
313.5368248742
 11
244.4590785907
 21
316.3945271525
  0
LINE
  5
349
100
AcDbEntity
  8
1
100
AcDbLine
 62
7
  6
CONTINUOUS
 10
93.6337023448
 20
229.070718467
 11
96.7345474056
 21
230.8609815111
  0
LINE
  5
34A
100
AcDbEntity
  8
1
100
AcDbLine
 62
7
  6
CONTINUOUS
 10
214.7607292036
 20
297.6153028731
 11
220.4175599013
 21
300.8812561041
  0
LINE
  5
34B
100
AcDbEntity
  8
1
100
AcDbLine
 62
7
  6
CONTINUOUS
 10
227.4885982734
 20
304.9636976428
 11
233.1454289711
 21
308.2296508738
  0
LINE
  5
34C
100
AcDbEntity
  8
1
100
AcDbLine
 62
7
  6
CONTINUOUS
 10
240.2164673433
 20
312.3120924125
 11
245.873298041
 21
315.5780456435
  0
LINE
  5
34D
100
AcDbEntity
  8
2
100
AcDbLine
 62
7
  6
CONTINUOUS
 10
102.189704701
 20
230.5404740242
 11
102.0836391254
 21
230.4792374011
  0
LINE
  5
34E
100
AcDbEntity
  8
1
100
AcDbLine
 62
7
  6
CONTINUOUS
 10
73.0568276719
 20
212.5362297255
 11
71.9961447553
 21
211.9238478135
  0
LINE
  5
34F
100
AcDbEntity
  8
1
100
AcDbLine
 62
7
  6
CONTINUOUS
 10
195.9517217966
 20
283.2449131692
 11
115.907567424
 21
237.031674951
  0
LINE
  5
350
100
AcDbEntity
  8
1
100
AcDbLine
 62
7
  6
CONTINUOUS
 10
115.5540155054
 20
236.827552874
 11
108.4829771333
 21
232.7451113353
  0
LINE
  5
351
100
AcDbEntity
  8
2
100
AcDbLine
 62
7
  6
CONTINUOUS
 10
115.8397543293
 20
147.8380234028
 11
115.9123333822
 21
147.8559197566
  0
LINE
  5
352
100
AcDbEntity
  8
2
100
AcDbLine
 62
7
  6
CONTINUOUS
 10
97.3690291398
 20
152.3365176573
 11
97.4458789668
 21
152.34503422
  0
LINE
  5
353
100
AcDbEntity
  8
2
100
AcDbLine
 62
7
  6
CONTINUOUS
 10
101.8733423311
 20
189.5305811198
 11
106.3244631195
 21
186.960783471
  0
LINE
  5
354
100
AcDbEntity
  8
2
100
AcDbLine
 62
7
  6
CONTINUOUS
 10
96.77848183
 20
192.6782784203
 11
101.8702246353
 21
189.7386258448
  0
LINE
  5
355
100
AcDbEntity
  8
2
100
AcDbLine
 62
7
  6
CONTINUOUS
 10
106.3275808152
 20
187.1652282725
 11
111.5603821943
 21
184.1441373339
  0
LINE
  5
356
100
AcDbEntity
  8
2
100
AcDbLine
 62
7
  6
CONTINUOUS
 10
106.2838950304
 20
187.2291525272
 11
102.0836391254
 21
189.6541165446
  0
LINE
  5
357
100
AcDbEntity
  8
2
100
AcDbLine
 62
7
  6
CONTINUOUS
 10
106.3245987125
 20
187.3281250034
 11
102.189704701
 21
189.7153531677
  0
LINE
  5
358
100
AcDbEntity
  8
2
100
AcDbLine
 62
7
  6
CONTINUOUS
 10
111.6645966703
 20
184.3267619395
 11
106.4317952913
 21
187.3478528781
  0
LINE
  5
359
100
AcDbEntity
  8
2
100
AcDbLine
 62
7
  6
CONTINUOUS
 10
101.9744391114
 20
189.9212504505
 11
96.882696306
 21
192.8609030259
  0
LINE
  5
35A
100
AcDbEntity
  8
1
100
AcDbLine
 62
7
  6
CONTINUOUS
 10
55.4497771869
 20
217.0920634893
 11
87.2697148185
 21
198.7212295359
  0
LINE
  5
35B
100
AcDbEntity
  8
2
100
AcDbLine
 62
7
  6
CONTINUOUS
 10
97.3690291398
 20
193.1616385138
 11
102.4692609882
 21
190.2170848978
  0
LINE
  5
35C
100
AcDbEntity
  8
2
100
AcDbLine
 62
7
  6
CONTINUOUS
 10
106.9269187865
 20
187.64351319
 11
111.9545432496
 21
184.7408785192
  0
LINE
  5
35D
100
AcDbEntity
  8
2
100
AcDbLine
 62
7
  6
CONTINUOUS
 10
111.9874491056
 20
184.7747655715
 11
107.0037686135
 21
187.6520297527
  0
LINE
  5
35E
100
AcDbEntity
  8
2
100
AcDbLine
 62
7
  6
CONTINUOUS
 10
102.5461108152
 20
190.2256014605
 11
97.4458789668
 21
193.1701550765
  0
LINE
  5
35F
100
AcDbEntity
  8
1
100
AcDbLine
 62
7
  6
CONTINUOUS
 10
55.9801050648
 20
217.3982466047
 11
87.8000426964
 21
199.0274126513
  0
LINE
  5
360
100
AcDbEntity
  8
1
100
AcDbLine
 62
7
  6
CONTINUOUS
 10
55.4497771869
 20
218.316817115
 11
87.2697148185
 21
199.9459831616
  0
LINE
  5
361
100
AcDbEntity
  8
2
100
AcDbLine
 62
7
  6
CONTINUOUS
 10
106.3275808152
 20
191.8150537322
 11
106.2836632308
 21
191.8740427527
  0
LINE
  5
362
100
AcDbEntity
  8
2
100
AcDbLine
 62
7
  6
CONTINUOUS
 10
96.77848183
 20
197.32810388
 11
96.7345474056
 21
197.3893405031
  0
LINE
  5
363
100
AcDbEntity
  8
2
100
AcDbLine
 62
7
  6
CONTINUOUS
 10
106.283663829
 20
187.2287520655
 11
106.3275808152
 21
187.1652282725
  0
LINE
  5
364
100
AcDbEntity
  8
2
100
AcDbLine
 62
7
  6
CONTINUOUS
 10
101.8702246353
 20
194.3884513045
 11
101.9012914834
 21
194.3197833824
  0
LINE
  5
365
100
AcDbEntity
  8
2
100
AcDbLine
 62
7
  6
CONTINUOUS
 10
106.3586476633
 20
191.74638581
 11
106.3275808152
 21
191.8150537322
  0
LINE
  5
366
100
AcDbEntity
  8
2
100
AcDbLine
 62
7
  6
CONTINUOUS
 10
111.5603821943
 20
188.7939627936
 11
111.5914490424
 21
188.7252948714
  0
LINE
  5
367
100
AcDbEntity
  8
2
100
AcDbLine
 62
7
  6
CONTINUOUS
 10
111.5603821943
 20
224.9692581904
 11
111.5603821943
 21
188.7939627936
  0
LINE
  5
368
100
AcDbEntity
  8
2
100
AcDbLine
 62
7
  6
CONTINUOUS
 10
111.5603821943
 20
184.1441373339
 11
111.5603821943
 21
147.9688419371
  0
LINE
  5
369
100
AcDbEntity
  8
2
100
AcDbLine
 62
7
  6
CONTINUOUS
 10
111.5603821943
 20
143.3190164774
 11
111.5603821943
 21
107.1437210807
  0
LINE
  5
36A
100
AcDbEntity
  8
2
100
AcDbLine
 62
7
  6
CONTINUOUS
 10
111.6664483944
 20
107.1183564014
 11
111.6664483944
 21
143.2936517982
  0
LINE
  5
36B
100
AcDbEntity
  8
2
100
AcDbLine
 62
7
  6
CONTINUOUS
 10
111.6664483944
 20
147.9434772579
 11
111.6664483944
 21
184.1187726547
  0
LINE
  5
36C
100
AcDbEntity
  8
2
100
AcDbLine
 62
7
  6
CONTINUOUS
 10
111.6664483944
 20
188.7685981144
 11
111.6664483944
 21
224.9438935112
  0
LINE
  5
36D
100
AcDbEntity
  8
1
100
AcDbLine
 62
7
  6
CONTINUOUS
 10
112.018525759
 20
102.5130280734
 11
112.018525759
 21
107.0514027798
  0
LINE
  5
36E
100
AcDbEntity
  8
1
100
AcDbLine
 62
7
  6
CONTINUOUS
 10
112.018525759
 20
143.9447299266
 11
112.018525759
 21
147.8765236363
  0
LINE
  5
36F
100
AcDbEntity
  8
1
100
AcDbLine
 62
7
  6
CONTINUOUS
 10
112.018525759
 20
184.769850783
 11
112.018525759
 21
188.7016444928
  0
LINE
  5
370
100
AcDbEntity
  8
1
100
AcDbLine
 62
7
  6
CONTINUOUS
 10
112.018525759
 20
225.5949716395
 11
112.018525759
 21
229.6100017463
  0
LINE
  5
371
100
AcDbEntity
  8
1
100
AcDbLine
 62
7
  6
CONTINUOUS
 10
112.0185551987
 20
94.3480914458
 11
112.0185551987
 21
46.9909512523
  0
LINE
  5
372
100
AcDbEntity
  8
1
100
AcDbLine
 62
7
  6
CONTINUOUS
 10
112.7709190977
 20
284.1573024917
 11
112.7709190977
 21
299.2625972086
  0
LINE
  5
373
100
AcDbEntity
  8
1
100
AcDbLine
 62
7
  6
CONTINUOUS
 10
115.7058926285
 20
309.9054741087
 11
115.7058926285
 21
311.4586008582
  0
LINE
  5
374
100
AcDbEntity
  8
2
100
AcDbLine
 62
7
  6
CONTINUOUS
 10
115.8412661804
 20
224.9859763515
 11
115.8412661804
 21
188.7265353441
  0
LINE
  5
375
100
AcDbEntity
  8
2
100
AcDbLine
 62
7
  6
CONTINUOUS
 10
115.8412661804
 20
184.160855495
 11
115.8412661804
 21
147.9014144876
  0
LINE
  5
376
100
AcDbEntity
  8
2
100
AcDbLine
 62
7
  6
CONTINUOUS
 10
115.8412661804
 20
143.3357346385
 11
115.8412661804
 21
107.0762936311
  0
LINE
  5
377
100
AcDbEntity
  8
2
100
AcDbLine
 62
7
  6
CONTINUOUS
 10
115.9454647607
 20
107.1005994204
 11
115.9454647607
 21
143.3600404278
  0
LINE
  5
378
100
AcDbEntity
  8
2
100
AcDbLine
 62
7
  6
CONTINUOUS
 10
115.9454647607
 20
147.9257202769
 11
115.9454647607
 21
184.1851612843
  0
LINE
  5
379
100
AcDbEntity
  8
2
100
AcDbLine
 62
7
  6
CONTINUOUS
 10
115.9454647607
 20
188.7508411334
 11
115.9454647607
 21
225.0102821407
  0
LINE
  5
37A
100
AcDbEntity
  8
2
100
AcDbLine
 62
7
  6
CONTINUOUS
 10
116.6703330659
 20
225.4287828019
 11
116.6703330659
 21
189.1406227786
  0
LINE
  5
37B
100
AcDbEntity
  8
2
100
AcDbLine
 62
7
  6
CONTINUOUS
 10
116.6703330659
 20
184.6036619455
 11
116.6703330659
 21
148.3155019221
  0
LINE
  5
37C
100
AcDbEntity
  8
2
100
AcDbLine
 62
7
  6
CONTINUOUS
 10
116.6703330659
 20
143.778541089
 11
116.6703330659
 21
107.4903810656
  0
LINE
  5
37D
100
AcDbEntity
  8
2
100
AcDbLine
 62
7
  6
CONTINUOUS
 10
116.7161338611
 20
225.491078315
 11
116.7161338611
 21
189.2029182916
  0
LINE
  5
37E
100
AcDbEntity
  8
2
100
AcDbLine
 62
7
  6
CONTINUOUS
 10
116.7161338611
 20
184.6659574585
 11
116.7161338611
 21
148.3777974351
  0
LINE
  5
37F
100
AcDbEntity
  8
2
100
AcDbLine
 62
7
  6
CONTINUOUS
 10
116.7161338611
 20
143.8408366021
 11
116.7161338611
 21
107.5526765787
  0
LINE
  5
380
100
AcDbEntity
  8
1
100
AcDbLine
 62
7
  6
CONTINUOUS
 10
119.0895935708
 20
98.4305329845
 11
119.0895935708
 21
222.5389003882
  0
LINE
  5
381
100
AcDbEntity
  8
1
100
AcDbLine
 62
7
  6
CONTINUOUS
 10
122.6251127569
 20
224.5801211575
 11
122.6251127569
 21
53.1146135603
  0
LINE
  5
382
100
AcDbEntity
  8
1
100
AcDbLine
 62
7
  6
CONTINUOUS
 10
122.9786646755
 20
53.3187356373
 11
122.9786646755
 21
224.7842432345
  0
LINE
  5
383
100
AcDbEntity
  8
2
100
AcDbLine
 62
7
  6
CONTINUOUS
 10
102.0493836192
 20
194.3187018682
 11
102.0823405152
 21
194.3863236512
  0
LINE
  5
384
100
AcDbEntity
  8
2
100
AcDbLine
 62
7
  6
CONTINUOUS
 10
102.5771623921
 20
190.0366076185
 11
102.6210952478
 21
190.0979445179
  0
LINE
  5
385
100
AcDbEntity
  8
2
100
AcDbLine
 62
7
  6
CONTINUOUS
 10
111.9913529368
 20
225.5949714017
 11
111.9545432496
 21
225.5659993757
  0
LINE
  5
386
100
AcDbEntity
  8
2
100
AcDbLine
 62
7
  6
CONTINUOUS
 10
106.8518660887
 20
228.4760319558
 11
106.3567425934
 21
228.180371644
  0
LINE
  5
387
100
AcDbEntity
  8
2
100
AcDbLine
 62
7
  6
CONTINUOUS
 10
106.4317952913
 20
228.1729737346
 11
106.9269187865
 21
228.4686340465
  0
LINE
  5
388
100
AcDbEntity
  8
1
100
AcDbLine
 62
7
  6
CONTINUOUS
 10
78.0065957479
 20
209.6785444439
 11
76.9459128314
 21
209.0661625319
  0
LINE
  5
389
100
AcDbEntity
  8
1
100
AcDbLine
 62
7
  6
CONTINUOUS
 10
260.6517682388
 20
314.3123194539
 11
207.2654285291
 21
283.4898858366
  0
LINE
  5
38A
100
AcDbEntity
  8
1
100
AcDbLine
 62
7
  6
CONTINUOUS
 10
91.7951935077
 20
215.1900801603
 11
91.865928032
 21
215.2309185132
  0
LINE
  5
38B
100
AcDbEntity
  8
1
100
AcDbLine
 62
7
  6
CONTINUOUS
 10
207.9725459086
 20
282.0202147011
 11
262.2781206066
 21
313.3733657185
  0
LINE
  5
38C
100
AcDbEntity
  8
1
100
AcDbLine
 62
7
  6
CONTINUOUS
 10
82.956363824
 20
206.8208591622
 11
81.8956809074
 21
206.2084772502
  0
LINE
  5
38D
100
AcDbEntity
  8
2
100
AcDbLine
 62
7
  6
CONTINUOUS
 10
115.8394144563
 20
225.1939656364
 11
116.5642827616
 21
225.6124662975
  0
LINE
  5
38E
100
AcDbEntity
  8
2
100
AcDbLine
 62
7
  6
CONTINUOUS
 10
116.6703330659
 20
225.4287828019
 11
115.9454647607
 21
225.0102821407
  0
LINE
  5
38F
100
AcDbEntity
  8
1
100
AcDbLine
 62
7
  6
CONTINUOUS
 10
91.8659463605
 20
208.2090238281
 11
89.7445988565
 21
206.9842705864
  0
LINE
  5
390
100
AcDbEntity
  8
1
100
AcDbLine
 62
7
  6
CONTINUOUS
 10
54.8840894068
 20
185.8608376709
 11
53.2526738041
 21
184.9189450558
  0
LINE
  5
391
100
AcDbEntity
  8
1
100
AcDbLine
 62
7
  6
CONTINUOUS
 10
119.0895935708
 20
222.5389003882
 11
122.6251127569
 21
224.5801211575
  0
LINE
  5
392
100
AcDbEntity
  8
1
100
AcDbLine
 62
7
  6
CONTINUOUS
 10
122.9786646755
 20
224.7842432345
 11
207.9725459086
 21
273.8551905298
  0
LINE
  5
393
100
AcDbEntity
  8
1
100
AcDbLine
 62
7
  6
CONTINUOUS
 10
87.9061319
 20
203.9631738806
 11
86.8454489834
 21
203.3507919686
  0
LINE
  5
394
100
AcDbEntity
  8
2
100
AcDbLine
 62
7
  6
CONTINUOUS
 10
106.8518660887
 20
187.6509110993
 11
106.9269187865
 21
187.64351319
  0
LINE
  5
395
100
AcDbEntity
  8
2
100
AcDbLine
 62
7
  6
CONTINUOUS
 10
106.4317952913
 20
187.3478528781
 11
106.3567892383
 21
187.3552786056
  0
LINE
  5
396
100
AcDbEntity
  8
2
100
AcDbLine
 62
7
  6
CONTINUOUS
 10
111.5914683905
 20
188.7252837068
 11
111.6649365434
 21
188.7052070296
  0
LINE
  5
397
100
AcDbEntity
  8
1
100
AcDbLine
 62
7
  6
CONTINUOUS
 10
46.1716309884
 20
225.4964857041
 11
47.5858504387
 21
224.680004195
  0
LINE
  5
398
100
AcDbEntity
  8
2
100
AcDbLine
 62
7
  6
CONTINUOUS
 10
111.5914490424
 20
188.7252948714
 11
106.3586476633
 21
191.74638581
  0
LINE
  5
399
100
AcDbEntity
  8
2
100
AcDbLine
 62
7
  6
CONTINUOUS
 10
101.9012914834
 20
194.3197833824
 11
96.8095486781
 21
197.2594359578
  0
LINE
  5
39A
100
AcDbEntity
  8
1
100
AcDbLine
 62
7
  6
CONTINUOUS
 10
46.9645134765
 20
226.0533626385
 11
45.5502940262
 21
226.8698441475
  0
LINE
  5
39B
100
AcDbEntity
  8
2
100
AcDbLine
 62
7
  6
CONTINUOUS
 10
111.5603821943
 20
188.7939627936
 11
106.3275808152
 21
191.8150537322
  0
LINE
  5
39C
100
AcDbEntity
  8
2
100
AcDbLine
 62
7
  6
CONTINUOUS
 10
101.8702246353
 20
194.3884513045
 11
96.77848183
 21
197.32810388
  0
LINE
  5
39D
100
AcDbEntity
  8
2
100
AcDbLine
 62
7
  6
CONTINUOUS
 10
101.9781127244
 20
194.4816763848
 11
106.2818264223
 21
191.9969823341
  0
LINE
  5
39E
100
AcDbEntity
  8
2
100
AcDbLine
 62
7
  6
CONTINUOUS
 10
106.3244631195
 20
192.0230984572
 11
101.8733423311
 21
194.592896106
  0
LINE
  5
39F
100
AcDbEntity
  8
1
100
AcDbLine
 62
7
  6
CONTINUOUS
 10
89.1789110764
 20
202.0035974787
 11
86.8454489834
 21
203.3507919686
  0
LINE
  5
3A0
100
AcDbEntity
  8
1
100
AcDbLine
 62
7
  6
CONTINUOUS
 10
84.2291430004
 20
204.8612827603
 11
81.8956809074
 21
206.2084772502
  0
LINE
  5
3A1
100
AcDbEntity
  8
1
100
AcDbLine
 62
7
  6
CONTINUOUS
 10
79.2793749244
 20
207.718968042
 11
76.9459128314
 21
209.0661625319
  0
LINE
  5
3A2
100
AcDbEntity
  8
1
100
AcDbLine
 62
7
  6
CONTINUOUS
 10
74.3296068483
 20
210.5766533236
 11
71.9961447553
 21
211.9238478135
  0
LINE
  5
3A3
100
AcDbEntity
  8
1
100
AcDbLine
 62
7
  6
CONTINUOUS
 10
67.1877986243
 20
214.8223603068
 11
55.4497771869
 21
221.5991568319
  0
LINE
  5
3A4
100
AcDbEntity
  8
1
100
AcDbLine
 62
7
  6
CONTINUOUS
 10
71.9961447553
 20
213.1486014392
 11
74.3296068483
 21
211.8014069493
  0
LINE
  5
3A5
100
AcDbEntity
  8
1
100
AcDbLine
 62
7
  6
CONTINUOUS
 10
76.9459128314
 20
210.2909161576
 11
79.2793749244
 21
208.9437216676
  0
LINE
  5
3A6
100
AcDbEntity
  8
1
100
AcDbLine
 62
7
  6
CONTINUOUS
 10
81.8956809074
 20
207.4332308759
 11
84.2291430004
 21
206.086036386
  0
LINE
  5
3A7
100
AcDbEntity
  8
1
100
AcDbLine
 62
7
  6
CONTINUOUS
 10
86.8454489834
 20
204.5755455943
 11
89.1789110764
 21
203.2283511044
  0
LINE
  5
3A8
100
AcDbEntity
  8
1
100
AcDbLine
 62
7
  6
CONTINUOUS
 10
51.9142285612
 20
225.6015244642
 11
53.3710325929
 21
224.7604572918
  0
LINE
  5
3A9
100
AcDbEntity
  8
1
100
AcDbLine
 62
7
  6
CONTINUOUS
 10
89.7445988565
 20
206.9842705864
 11
71.4304569752
 21
217.5577061285
  0
LINE
  5
3AA
100
AcDbEntity
  8
1
100
AcDbLine
 62
7
  6
CONTINUOUS
 10
260.6517682388
 20
110.1867151715
 11
262.2781206066
 21
109.2477614361
  0
LINE
  5
3AB
100
AcDbEntity
  8
1
100
AcDbLine
 62
7
  6
CONTINUOUS
 10
68.6727054954
 20
221.1093808373
 11
61.6016082439
 21
225.1917883825
  0
LINE
  5
3AC
100
AcDbEntity
  8
1
100
AcDbLine
 62
7
  6
CONTINUOUS
 10
73.1325984225
 20
219.5550212795
 11
69.5564992829
 21
221.6196363725
  0
LINE
  5
3AD
100
AcDbEntity
  8
1
100
AcDbLine
 62
7
  6
CONTINUOUS
 10
61.6016082439
 20
228.9885246221
 11
60.8944985188
 21
229.3967653766
  0
LINE
  5
3AE
100
AcDbEntity
  8
1
100
AcDbLine
 62
7
  6
CONTINUOUS
 10
46.9645134765
 20
247.5403098137
 11
45.5502940262
 21
248.7250753931
  0
LINE
  5
3AF
100
AcDbEntity
  8
1
100
AcDbLine
 62
7
  6
CONTINUOUS
 10
47.7917768089
 20
252.3073896229
 11
49.1714439429
 21
251.1515703254
  0
LINE
  5
3B0
100
AcDbEntity
  8
1
100
AcDbLine
 62
7
  6
CONTINUOUS
 10
51.3748628726
 20
252.4576567176
 11
49.9952691542
 21
253.613414511
  0
LINE
  5
3B1
100
AcDbEntity
  8
1
100
AcDbLine
 62
7
  6
CONTINUOUS
 10
52.8526559496
 20
256.6797537453
 11
54.3140187447
 21
255.4554937208
  0
LINE
  5
3B2
100
AcDbEntity
  8
2
100
AcDbLine
 62
7
  6
CONTINUOUS
 10
96.7345474056
 20
233.5646358999
 11
96.77848183
 21
233.5033992768
  0
LINE
  5
3B3
100
AcDbEntity
  8
1
100
AcDbLine
 62
7
  6
CONTINUOUS
 10
125.3261067148
 20
260.2614732519
 11
125.3261067148
 21
255.4032838699
  0
LINE
  5
3B4
100
AcDbEntity
  8
1
100
AcDbLine
 62
7
  6
CONTINUOUS
 10
128.1402442184
 20
320.9600837142
 11
128.1402442184
 21
324.0690124167
  0
LINE
  5
3B5
100
AcDbEntity
  8
1
100
AcDbLine
 62
7
  6
CONTINUOUS
 10
130.1905173579
 20
320.8352158058
 11
130.1905173579
 21
321.2113033396
  0
LINE
  5
3B6
100
AcDbEntity
  8
1
100
AcDbLine
 62
7
  6
CONTINUOUS
 10
132.3826888068
 20
316.8434382604
 11
132.3826888068
 21
311.9445084137
  0
LINE
  5
3B7
100
AcDbEntity
  8
1
100
AcDbLine
 62
7
  6
CONTINUOUS
 10
136.2717922951
 20
314.5981141105
 11
136.2717922951
 21
314.1898716563
  0
LINE
  5
3B8
100
AcDbEntity
  8
1
100
AcDbLine
 62
7
  6
CONTINUOUS
 10
137.4488430165
 20
313.5103181787
 11
137.4488430165
 21
298.4050234618
  0
LINE
  5
3B9
100
AcDbEntity
  8
1
100
AcDbLine
 62
7
  6
CONTINUOUS
 10
138.0828303765
 20
299.2886973167
 11
138.0828303765
 21
314.3939920336
  0
LINE
  5
3BA
100
AcDbEntity
  8
1
100
AcDbLine
 62
7
  6
CONTINUOUS
 10
132.7360634986
 20
326.518461363
 11
132.9916071963
 21
335.1159781103
  0
LINE
  5
3BB
100
AcDbEntity
  8
1
100
AcDbLine
 62
7
  6
CONTINUOUS
 10
134.4058266466
 20
334.2994966013
 11
134.1502829489
 21
325.701979854
  0
LINE
  5
3BC
100
AcDbEntity
  8
2
100
AcDbLine
 62
7
  6
CONTINUOUS
 10
115.9123333822
 20
188.6810406131
 11
115.9454647607
 21
188.7508411334
  0
LINE
  5
3BD
100
AcDbEntity
  8
2
100
AcDbLine
 62
7
  6
CONTINUOUS
 10
116.6703330659
 20
189.1406227786
 11
116.6371736488
 21
189.0708071696
  0
LINE
  5
3BE
100
AcDbEntity
  8
2
100
AcDbLine
 62
7
  6
CONTINUOUS
 10
102.0493836192
 20
153.4935810117
 11
102.0823405152
 21
153.5612027947
  0
LINE
  5
3BF
100
AcDbEntity
  8
2
100
AcDbLine
 62
7
  6
CONTINUOUS
 10
116.7161338611
 20
189.2029182916
 11
116.6703330659
 21
189.1406227786
  0
LINE
  5
3C0
100
AcDbEntity
  8
2
100
AcDbLine
 62
7
  6
CONTINUOUS
 10
97.2919892037
 20
193.1678287602
 11
96.8056563699
 21
192.8670932723
  0
LINE
  5
3C1
100
AcDbEntity
  8
2
100
AcDbLine
 62
7
  6
CONTINUOUS
 10
97.3690291398
 20
193.1616385138
 11
96.882696306
 21
192.8609030259
  0
LINE
  5
3C2
100
AcDbEntity
  8
1
100
AcDbLine
 62
7
  6
CONTINUOUS
 10
87.8000426964
 20
199.0274126513
 11
87.2697148185
 21
198.7212295359
  0
LINE
  5
3C3
100
AcDbEntity
  8
1
100
AcDbLine
 62
7
  6
CONTINUOUS
 10
54.8840894068
 20
174.5931043145
 11
53.4870437302
 21
173.7865244317
  0
LINE
  5
3C4
100
AcDbEntity
  8
1
100
AcDbLine
 62
7
  6
CONTINUOUS
 10
56.2982970812
 20
174.7563906885
 11
54.8840894068
 21
173.9399023808
  0
LINE
  5
3C5
100
AcDbEntity
  8
1
100
AcDbLine
 62
7
  6
CONTINUOUS
 10
91.1588183068
 20
191.9851420918
 11
91.6891461847
 21
192.2913252072
  0
LINE
  5
3C6
100
AcDbEntity
  8
2
100
AcDbLine
 62
7
  6
CONTINUOUS
 10
115.8397543293
 20
188.6631442593
 11
115.9123333822
 21
188.6810406131
  0
LINE
  5
3C7
100
AcDbEntity
  8
1
100
AcDbLine
 62
7
  6
CONTINUOUS
 10
53.2646906502
 20
172.9561267178
 11
51.6036717294
 21
172.6991655907
  0
LINE
  5
3C8
100
AcDbEntity
  8
2
100
AcDbLine
 62
7
  6
CONTINUOUS
 10
106.9269187865
 20
187.64351319
 11
107.0037686135
 21
187.6520297527
  0
LINE
  5
3C9
100
AcDbEntity
  8
2
100
AcDbLine
 62
7
  6
CONTINUOUS
 10
102.5461108152
 20
190.2256014605
 11
102.4692609882
 21
190.2170848978
  0
LINE
  5
3CA
100
AcDbEntity
  8
2
100
AcDbLine
 62
7
  6
CONTINUOUS
 10
115.8412661804
 20
184.160855495
 11
111.6664483944
 21
184.1187726547
  0
LINE
  5
3CB
100
AcDbEntity
  8
2
100
AcDbLine
 62
7
  6
CONTINUOUS
 10
111.6645966703
 20
184.3267619395
 11
115.8394144563
 21
184.3688447799
  0
LINE
  5
3CC
100
AcDbEntity
  8
2
100
AcDbLine
 62
7
  6
CONTINUOUS
 10
116.5642827616
 20
184.7873454411
 11
111.9545432496
 21
184.7408785192
  0
LINE
  5
3CD
100
AcDbEntity
  8
2
100
AcDbLine
 62
7
  6
CONTINUOUS
 10
116.5646219136
 20
184.8159498384
 11
111.9913765074
 21
184.769850783
  0
LINE
  5
3CE
100
AcDbEntity
  8
2
100
AcDbLine
 62
7
  6
CONTINUOUS
 10
115.8397543293
 20
188.6631442593
 11
111.6649365434
 21
188.7052070296
  0
LINE
  5
3CF
100
AcDbEntity
  8
2
100
AcDbLine
 62
7
  6
CONTINUOUS
 10
111.6664483944
 20
188.7685981144
 11
115.8412661804
 21
188.7265353441
  0
LINE
  5
3D0
100
AcDbEntity
  8
2
100
AcDbLine
 62
7
  6
CONTINUOUS
 10
97.2919892037
 20
193.1678287602
 11
97.3690291398
 21
193.1616385138
  0
LINE
  5
3D1
100
AcDbEntity
  8
2
100
AcDbLine
 62
7
  6
CONTINUOUS
 10
96.882696306
 20
192.8609030259
 11
96.805686071
 21
192.8671116244
  0
LINE
  5
3D2
100
AcDbEntity
  8
1
100
AcDbLine
 62
7
  6
CONTINUOUS
 10
60.8944985188
 20
231.6829721446
 11
61.6016082439
 21
231.2747313901
  0
LINE
  5
3D3
100
AcDbEntity
  8
1
100
AcDbLine
 62
7
  6
CONTINUOUS
 10
91.865928032
 20
213.9243634135
 11
78.5014953474
 21
221.6401476672
  0
LINE
  5
3D4
100
AcDbEntity
  8
1
100
AcDbLine
 62
7
  6
CONTINUOUS
 10
91.7951935077
 20
215.1900801603
 11
83.2391658334
 21
220.12979329
  0
LINE
  5
3D5
100
AcDbEntity
  8
1
100
AcDbLine
 62
7
  6
CONTINUOUS
 10
79.2086404001
 20
222.4567655908
 11
70.6526127258
 21
227.3964787205
  0
LINE
  5
3D6
100
AcDbEntity
  8
2
100
AcDbLine
 62
7
  6
CONTINUOUS
 10
106.283663829
 20
228.053872922
 11
106.3275808152
 21
227.990349129
  0
LINE
  5
3D7
100
AcDbEntity
  8
1
100
AcDbLine
 62
7
  6
CONTINUOUS
 10
140.3291880709
 20
273.2868575243
 11
140.3291880709
 21
274.1033599414
  0
LINE
  5
3D8
100
AcDbEntity
  8
1
100
AcDbLine
 62
7
  6
CONTINUOUS
 10
140.9384797862
 20
341.8686599881
 11
140.9384797862
 21
340.2356551538
  0
LINE
  5
3D9
100
AcDbEntity
  8
1
100
AcDbLine
 62
7
  6
CONTINUOUS
 10
142.3061163397
 20
281.0746927239
 11
142.3061163397
 21
276.216503342
  0
LINE
  5
3DA
100
AcDbEntity
  8
1
100
AcDbLine
 62
7
  6
CONTINUOUS
 10
146.595298708
 20
345.1345782016
 11
146.595298708
 21
345.9511088374
  0
LINE
  5
3DB
100
AcDbEntity
  8
1
100
AcDbLine
 62
7
  6
CONTINUOUS
 10
148.0095181583
 20
344.3180966925
 11
148.0095181583
 21
345.9511015268
  0
LINE
  5
3DC
100
AcDbEntity
  8
1
100
AcDbLine
 62
7
  6
CONTINUOUS
 10
151.5579678532
 20
275.7332546016
 11
151.5579678532
 21
270.8750652196
  0
LINE
  5
3DD
100
AcDbEntity
  8
2
100
AcDbLine
 62
7
  6
CONTINUOUS
 10
115.9123333822
 20
147.8559197566
 11
115.9454647607
 21
147.9257202769
  0
LINE
  5
3DE
100
AcDbEntity
  8
2
100
AcDbLine
 62
7
  6
CONTINUOUS
 10
116.6703330659
 20
148.3155019221
 11
116.6371736488
 21
148.2456863131
  0
LINE
  5
3DF
100
AcDbEntity
  8
2
100
AcDbLine
 62
7
  6
CONTINUOUS
 10
102.0493836192
 20
112.6684601552
 11
102.0823405152
 21
112.7360819382
  0
LINE
  5
3E0
100
AcDbEntity
  8
2
100
AcDbLine
 62
7
  6
CONTINUOUS
 10
102.5771623921
 20
149.211486762
 11
102.6210952478
 21
149.2728236614
  0
LINE
  5
3E1
100
AcDbEntity
  8
2
100
AcDbLine
 62
7
  6
CONTINUOUS
 10
111.9913529368
 20
184.7698505452
 11
111.9545432496
 21
184.7408785192
  0
LINE
  5
3E2
100
AcDbEntity
  8
2
100
AcDbLine
 62
7
  6
CONTINUOUS
 10
102.4692609882
 20
190.2170848978
 11
101.9744391114
 21
189.9212504505
  0
LINE
  5
3E3
100
AcDbEntity
  8
2
100
AcDbLine
 62
7
  6
CONTINUOUS
 10
102.5771623921
 20
190.0366076185
 11
102.0823405152
 21
189.7407731711
  0
LINE
  5
3E4
100
AcDbEntity
  8
2
100
AcDbLine
 62
7
  6
CONTINUOUS
 10
106.8518660887
 20
187.6509110993
 11
106.3567425934
 21
187.3552507875
  0
LINE
  5
3E5
100
AcDbEntity
  8
2
100
AcDbLine
 62
7
  6
CONTINUOUS
 10
106.4317952913
 20
187.3478528781
 11
106.9269187865
 21
187.64351319
  0
LINE
  5
3E6
100
AcDbEntity
  8
1
100
AcDbLine
 62
7
  6
CONTINUOUS
 10
66.7635210134
 20
169.5880851079
 11
65.349313339
 21
168.7715968002
  0
LINE
  5
3E7
100
AcDbEntity
  8
2
100
AcDbLine
 62
7
  6
CONTINUOUS
 10
102.189704701
 20
189.7153531677
 11
102.0836391254
 21
189.6541165446
  0
LINE
  5
3E8
100
AcDbEntity
  8
1
100
AcDbLine
 62
7
  6
CONTINUOUS
 10
51.0303369888
 20
155.4256399663
 11
50.5000091109
 21
155.1194568509
  0
LINE
  5
3E9
100
AcDbEntity
  8
2
100
AcDbLine
 62
7
  6
CONTINUOUS
 10
102.0823405152
 20
194.3863236512
 11
102.1133379172
 21
194.4036058496
  0
LINE
  5
3EA
100
AcDbEntity
  8
2
100
AcDbLine
 62
7
  6
CONTINUOUS
 10
102.1567322672
 20
194.3785526767
 11
102.0493349371
 21
194.3186746917
  0
LINE
  5
3EB
100
AcDbEntity
  8
1
100
AcDbLine
 62
7
  6
CONTINUOUS
 10
51.6036717294
 20
183.9668989471
 11
53.2646906502
 21
184.2238600742
  0
LINE
  5
3EC
100
AcDbEntity
  8
2
100
AcDbLine
 62
7
  6
CONTINUOUS
 10
97.3690291398
 20
193.1616385138
 11
97.4458789668
 21
193.1701550765
  0
LINE
  5
3ED
100
AcDbEntity
  8
1
100
AcDbLine
 62
7
  6
CONTINUOUS
 10
61.6016082439
 20
246.951577799
 11
60.8944985188
 21
247.3598185535
  0
LINE
  5
3EE
100
AcDbEntity
  8
1
100
AcDbLine
 62
7
  6
CONTINUOUS
 10
60.8944985188
 20
249.6460253214
 11
61.6016082439
 21
249.2377845669
  0
LINE
  5
3EF
100
AcDbEntity
  8
1
100
AcDbLine
 62
7
  6
CONTINUOUS
 10
83.2391658334
 20
236.9497430829
 11
91.5483038978
 21
232.1525685113
  0
LINE
  5
3F0
100
AcDbEntity
  8
1
100
AcDbLine
 62
7
  6
CONTINUOUS
 10
70.6526127258
 20
247.0741869733
 11
79.2086404001
 21
242.1344738436
  0
LINE
  5
3F1
100
AcDbEntity
  8
1
100
AcDbLine
 62
7
  6
CONTINUOUS
 10
61.6016082439
 20
253.0345208066
 11
68.6727054954
 21
248.9521132614
  0
LINE
  5
3F2
100
AcDbEntity
  8
2
100
AcDbLine
 62
7
  6
CONTINUOUS
 10
101.8733423311
 20
230.3557019763
 11
106.3244631195
 21
227.7859043275
  0
LINE
  5
3F3
100
AcDbEntity
  8
2
100
AcDbLine
 62
7
  6
CONTINUOUS
 10
96.77848183
 20
233.5033992768
 11
101.8702246353
 21
230.5637467013
  0
LINE
  5
3F4
100
AcDbEntity
  8
2
100
AcDbLine
 62
7
  6
CONTINUOUS
 10
106.3275808152
 20
227.990349129
 11
111.5603821943
 21
224.9692581904
  0
LINE
  5
3F5
100
AcDbEntity
  8
2
100
AcDbLine
 62
7
  6
CONTINUOUS
 10
106.2838950304
 20
228.0542733837
 11
102.0836391254
 21
230.4792374011
  0
LINE
  5
3F6
100
AcDbEntity
  8
2
100
AcDbLine
 62
7
  6
CONTINUOUS
 10
106.3245987125
 20
228.1532458599
 11
102.189704701
 21
230.5404740242
  0
LINE
  5
3F7
100
AcDbEntity
  8
2
100
AcDbLine
 62
7
  6
CONTINUOUS
 10
111.6645966703
 20
225.151882796
 11
106.4317952913
 21
228.1729737346
  0
LINE
  5
3F8
100
AcDbEntity
  8
2
100
AcDbLine
 62
7
  6
CONTINUOUS
 10
101.9744391114
 20
230.7463713069
 11
96.882696306
 21
233.6860238824
  0
LINE
  5
3F9
100
AcDbEntity
  8
1
100
AcDbLine
 62
7
  6
CONTINUOUS
 10
58.9853258126
 20
255.6065347755
 11
86.2090502308
 21
239.8892657265
  0
LINE
  5
3FA
100
AcDbEntity
  8
2
100
AcDbLine
 62
7
  6
CONTINUOUS
 10
97.3690291398
 20
233.9867593702
 11
102.4692609882
 21
231.0422057543
  0
LINE
  5
3FB
100
AcDbEntity
  8
2
100
AcDbLine
 62
7
  6
CONTINUOUS
 10
106.9269187865
 20
228.4686340465
 11
111.9545432496
 21
225.5659993757
  0
LINE
  5
3FC
100
AcDbEntity
  8
2
100
AcDbLine
 62
7
  6
CONTINUOUS
 10
111.9874491056
 20
225.5998864279
 11
107.0037686135
 21
228.4771506092
  0
LINE
  5
3FD
100
AcDbEntity
  8
2
100
AcDbLine
 62
7
  6
CONTINUOUS
 10
102.5461108152
 20
231.050722317
 11
97.4458789668
 21
233.9952759329
  0
LINE
  5
3FE
100
AcDbEntity
  8
1
100
AcDbLine
 62
7
  6
CONTINUOUS
 10
41.307582684
 20
267.4455584728
 11
86.5626050934
 21
241.3181501835
  0
LINE
  5
3FF
100
AcDbEntity
  8
1
100
AcDbLine
 62
7
  6
CONTINUOUS
 10
108.4829771333
 20
232.7451113353
 11
90.0981242794
 21
243.3593709529
  0
LINE
  5
400
100
AcDbEntity
  8
1
100
AcDbLine
 62
7
  6
CONTINUOUS
 10
153.666348856
 20
349.2170547577
 11
153.666348856
 21
347.5840499235
  0
LINE
  5
401
100
AcDbEntity
  8
1
100
AcDbLine
 62
7
  6
CONTINUOUS
 10
159.3231677779
 20
352.4829729712
 11
159.3231677779
 21
353.2995036071
  0
LINE
  5
402
100
AcDbEntity
  8
1
100
AcDbLine
 62
7
  6
CONTINUOUS
 10
160.7373872282
 20
351.6664914622
 11
160.7373872282
 21
353.2994962965
  0
LINE
  5
403
100
AcDbEntity
  8
2
100
AcDbLine
 62
7
  6
CONTINUOUS
 10
115.9123333822
 20
107.0307989001
 11
115.9454647607
 21
107.1005994204
  0
LINE
  5
404
100
AcDbEntity
  8
2
100
AcDbLine
 62
7
  6
CONTINUOUS
 10
116.6703330659
 20
107.4903810656
 11
116.6371736488
 21
107.4205654566
  0
LINE
  5
405
100
AcDbEntity
  8
2
100
AcDbLine
 62
7
  6
CONTINUOUS
 10
116.7161338611
 20
148.3777974351
 11
116.6703330659
 21
148.3155019221
  0
LINE
  5
406
100
AcDbEntity
  8
1
100
AcDbLine
 62
7
  6
CONTINUOUS
 10
69.733381859
 20
160.5657773056
 11
68.3191741846
 21
159.7492889979
  0
LINE
  5
407
100
AcDbEntity
  8
2
100
AcDbLine
 62
7
  6
CONTINUOUS
 10
115.8394144563
 20
184.3688447799
 11
116.5642827616
 21
184.7873454411
  0
LINE
  5
408
100
AcDbEntity
  8
2
100
AcDbLine
 62
7
  6
CONTINUOUS
 10
116.6703330659
 20
184.6036619455
 11
115.9454647607
 21
184.1851612843
  0
LINE
  5
409
100
AcDbEntity
  8
1
100
AcDbLine
 62
7
  6
CONTINUOUS
 10
86.2039869959
 20
165.8949258952
 11
87.8354025986
 21
166.8368185102
  0
LINE
  5
40A
100
AcDbEntity
  8
1
100
AcDbLine
 62
7
  6
CONTINUOUS
 10
55.4497771869
 20
146.5462546493
 11
55.9801050648
 21
146.8524377647
  0
LINE
  5
40B
100
AcDbEntity
  8
1
100
AcDbLine
 62
7
  6
CONTINUOUS
 10
43.6056775148
 20
132.2939948356
 11
42.1914698404
 21
131.4775065278
  0
LINE
  5
40C
100
AcDbEntity
  8
2
100
AcDbLine
 62
7
  6
CONTINUOUS
 10
115.9454647607
 20
188.7508411334
 11
116.6703330659
 21
189.1406227786
  0
LINE
  5
40D
100
AcDbEntity
  8
2
100
AcDbLine
 62
7
  6
CONTINUOUS
 10
116.6371736488
 20
189.0708071696
 11
115.9123053435
 21
188.6810255244
  0
LINE
  5
40E
100
AcDbEntity
  8
1
100
AcDbLine
 62
7
  6
CONTINUOUS
 10
85.2620946464
 20
164.5346390319
 11
88.9667781589
 21
166.183633303
  0
LINE
  5
40F
100
AcDbEntity
  8
2
100
AcDbLine
 62
7
  6
CONTINUOUS
 10
106.8518660887
 20
228.4760319558
 11
106.9269187865
 21
228.4686340465
  0
LINE
  5
410
100
AcDbEntity
  8
2
100
AcDbLine
 62
7
  6
CONTINUOUS
 10
106.4317952913
 20
228.1729737346
 11
106.3567892383
 21
228.1803994621
  0
LINE
  5
411
100
AcDbEntity
  8
1
100
AcDbLine
 62
7
  6
CONTINUOUS
 10
51.9141402422
 20
273.5692207809
 11
115.5540155054
 21
236.827552874
  0
LINE
  5
412
100
AcDbEntity
  8
1
100
AcDbLine
 62
7
  6
CONTINUOUS
 10
115.907567424
 20
237.031674951
 11
52.2676921608
 21
273.7733428578
  0
LINE
  5
413
100
AcDbEntity
  8
1
100
AcDbLine
 62
7
  6
CONTINUOUS
 10
110.0495767008
 20
246.5834278015
 11
104.0889171657
 21
250.0247383358
  0
LINE
  5
414
100
AcDbEntity
  8
1
100
AcDbLine
 62
7
  6
CONTINUOUS
 10
214.2607485334
 20
86.9081701559
 11
214.0536253664
 21
87.365937517
  0
LINE
  5
415
100
AcDbEntity
  8
1
100
AcDbLine
 62
7
  6
CONTINUOUS
 10
166.3942179259
 20
356.5654495274
 11
166.3942179259
 21
354.9324446932
  0
LINE
  5
416
100
AcDbEntity
  8
1
100
AcDbLine
 62
7
  6
CONTINUOUS
 10
172.0510368477
 20
359.8313677409
 11
172.0510368477
 21
360.6478983768
  0
LINE
  5
417
100
AcDbEntity
  8
1
100
AcDbLine
 62
7
  6
CONTINUOUS
 10
173.465256298
 20
359.0148862319
 11
173.465256298
 21
360.6478910662
  0
LINE
  5
418
100
AcDbEntity
  8
1
100
AcDbLine
 62
7
  6
CONTINUOUS
 10
174.070619077
 20
288.7308622605
 11
174.070619077
 21
283.8726728786
  0
LINE
  5
419
100
AcDbEntity
  8
2
100
AcDbLine
 62
7
  6
CONTINUOUS
 10
111.9913529368
 20
143.9447296887
 11
111.9545432496
 21
143.9157576627
  0
LINE
  5
41A
100
AcDbEntity
  8
2
100
AcDbLine
 62
7
  6
CONTINUOUS
 10
97.2919892037
 20
152.3427079037
 11
96.8056563699
 21
152.0419724159
  0
LINE
  5
41B
100
AcDbEntity
  8
2
100
AcDbLine
 62
7
  6
CONTINUOUS
 10
97.3690291398
 20
152.3365176573
 11
96.882696306
 21
152.0357821695
  0
LINE
  5
41C
100
AcDbEntity
  8
2
100
AcDbLine
 62
7
  6
CONTINUOUS
 10
102.4692609882
 20
149.3919640413
 11
101.9744391114
 21
149.096129594
  0
LINE
  5
41D
100
AcDbEntity
  8
2
100
AcDbLine
 62
7
  6
CONTINUOUS
 10
102.5771623921
 20
149.211486762
 11
102.0823405152
 21
148.9156523146
  0
LINE
  5
41E
100
AcDbEntity
  8
2
100
AcDbLine
 62
7
  6
CONTINUOUS
 10
102.189704701
 20
148.8902323112
 11
102.0836391254
 21
148.8289956882
  0
LINE
  5
41F
100
AcDbEntity
  8
2
100
AcDbLine
 62
7
  6
CONTINUOUS
 10
102.0823405152
 20
153.5612027947
 11
102.1133379172
 21
153.5784849931
  0
LINE
  5
420
100
AcDbEntity
  8
2
100
AcDbLine
 62
7
  6
CONTINUOUS
 10
102.1567322672
 20
153.5534318202
 11
102.0493349371
 21
153.4935538352
  0
LINE
  5
421
100
AcDbEntity
  8
1
100
AcDbLine
 62
7
  6
CONTINUOUS
 10
88.9667781589
 20
154.9158999466
 11
85.2620946464
 21
153.2669056755
  0
LINE
  5
422
100
AcDbEntity
  8
2
100
AcDbLine
 62
7
  6
CONTINUOUS
 10
106.9269187865
 20
228.4686340465
 11
107.0037686135
 21
228.4771506092
  0
LINE
  5
423
100
AcDbEntity
  8
2
100
AcDbLine
 62
7
  6
CONTINUOUS
 10
102.5461108152
 20
231.050722317
 11
102.4692609882
 21
231.0422057543
  0
LINE
  5
424
100
AcDbEntity
  8
2
100
AcDbLine
 62
7
  6
CONTINUOUS
 10
115.8412661804
 20
224.9859763515
 11
111.6664483944
 21
224.9438935112
  0
LINE
  5
425
100
AcDbEntity
  8
2
100
AcDbLine
 62
7
  6
CONTINUOUS
 10
111.6645966703
 20
225.151882796
 11
115.8394144563
 21
225.1939656364
  0
LINE
  5
426
100
AcDbEntity
  8
2
100
AcDbLine
 62
7
  6
CONTINUOUS
 10
116.5642827616
 20
225.6124662975
 11
111.9545432496
 21
225.5659993757
  0
LINE
  5
427
100
AcDbEntity
  8
2
100
AcDbLine
 62
7
  6
CONTINUOUS
 10
116.5646219136
 20
225.6410706949
 11
111.9913765074
 21
225.5949716395
  0
LINE
  5
428
100
AcDbEntity
  8
2
100
AcDbLine
 62
7
  6
CONTINUOUS
 10
97.2919892037
 20
233.9929496166
 11
97.3690291398
 21
233.9867593702
  0
LINE
  5
429
100
AcDbEntity
  8
2
100
AcDbLine
 62
7
  6
CONTINUOUS
 10
96.882696306
 20
233.6860238824
 11
96.805686071
 21
233.6922324808
  0
LINE
  5
42A
100
AcDbEntity
  8
1
100
AcDbLine
 62
7
  6
CONTINUOUS
 10
110.0495767008
 20
251.4416171834
 11
104.0889171657
 21
254.8829277177
  0
LINE
  5
42B
100
AcDbEntity
  8
1
100
AcDbLine
 62
7
  6
CONTINUOUS
 10
126.118532735
 20
256.15601897
 11
125.3261067148
 21
256.6135159961
  0
LINE
  5
42C
100
AcDbEntity
  8
1
100
AcDbLine
 62
7
  6
CONTINUOUS
 10
220.9175405715
 20
93.539151251
 11
221.1246637385
 21
93.0813838899
  0
LINE
  5
42D
100
AcDbEntity
  8
1
100
AcDbLine
 62
7
  6
CONTINUOUS
 10
184.4960508404
 20
372.7319739504
 11
184.4960508404
 21
374.6098970583
  0
LINE
  5
42E
100
AcDbEntity
  8
1
100
AcDbLine
 62
7
  6
CONTINUOUS
 10
186.4759669027
 20
355.9120472404
 11
186.4759669027
 21
372.242095583
  0
LINE
  5
42F
100
AcDbEntity
  8
1
100
AcDbLine
 62
7
  6
CONTINUOUS
 10
191.3903794925
 20
363.4959084287
 11
191.3903794925
 21
364.5058078363
  0
LINE
  5
430
100
AcDbEntity
  8
2
100
AcDbLine
 62
7
  6
CONTINUOUS
 10
116.7161338611
 20
107.5526765787
 11
116.6703330659
 21
107.4903810656
  0
LINE
  5
431
100
AcDbEntity
  8
2
100
AcDbLine
 62
7
  6
CONTINUOUS
 10
106.8518660887
 20
146.8257902429
 11
106.3567425934
 21
146.530129931
  0
LINE
  5
432
100
AcDbEntity
  8
2
100
AcDbLine
 62
7
  6
CONTINUOUS
 10
106.4317952913
 20
146.5227320217
 11
106.9269187865
 21
146.8183923335
  0
LINE
  5
433
100
AcDbEntity
  8
1
100
AcDbLine
 62
7
  6
CONTINUOUS
 10
47.1201070557
 20
107.9094822444
 11
54.8982492651
 21
112.400167937
  0
LINE
  5
434
100
AcDbEntity
  8
1
100
AcDbLine
 62
7
  6
CONTINUOUS
 10
91.6891461847
 20
131.9517965813
 11
91.1588183068
 21
131.6456134659
  0
LINE
  5
435
100
AcDbEntity
  8
1
100
AcDbLine
 62
7
  6
CONTINUOUS
 10
87.8000426964
 20
128.4816038113
 11
87.2697148185
 21
128.1754206959
  0
LINE
  5
436
100
AcDbEntity
  8
1
100
AcDbLine
 62
7
  6
CONTINUOUS
 10
59.7772887048
 20
112.032761456
 11
47.7565234722
 21
105.0926108402
  0
LINE
  5
437
100
AcDbEntity
  8
1
100
AcDbLine
 62
7
  6
CONTINUOUS
 10
90.550030385
 20
129.4339739024
 11
90.0197025071
 21
129.127790787
  0
LINE
  5
438
100
AcDbEntity
  8
2
100
AcDbLine
 62
7
  6
CONTINUOUS
 10
115.8394144563
 20
143.5437239234
 11
116.5642827616
 21
143.9622245846
  0
LINE
  5
439
100
AcDbEntity
  8
2
100
AcDbLine
 62
7
  6
CONTINUOUS
 10
116.6703330659
 20
143.778541089
 11
115.9454647607
 21
143.3600404278
  0
LINE
  5
43A
100
AcDbEntity
  8
2
100
AcDbLine
 62
7
  6
CONTINUOUS
 10
115.9454647607
 20
147.9257202769
 11
116.6703330659
 21
148.3155019221
  0
LINE
  5
43B
100
AcDbEntity
  8
2
100
AcDbLine
 62
7
  6
CONTINUOUS
 10
116.6371736488
 20
148.2456863131
 11
115.9123053435
 21
147.8559046679
  0
LINE
  5
43C
100
AcDbEntity
  8
2
100
AcDbLine
 62
7
  6
CONTINUOUS
 10
97.3690291398
 20
233.9867593702
 11
97.4458789668
 21
233.9952759329
  0
LINE
  5
43D
100
AcDbEntity
  8
1
100
AcDbLine
 62
7
  6
CONTINUOUS
 10
119.3654471797
 20
263.7027837861
 11
125.3261067148
 21
260.2614732519
  0
LINE
  5
43E
100
AcDbEntity
  8
1
100
AcDbLine
 62
7
  6
CONTINUOUS
 10
206.1067527765
 20
88.2083693424
 11
205.9423900303
 21
93.548403904
  0
LINE
  5
43F
100
AcDbEntity
  8
1
100
AcDbLine
 62
7
  6
CONTINUOUS
 10
207.3173812772
 20
94.0064202167
 11
207.5209722268
 21
87.3918878333
  0
LINE
  5
440
100
AcDbEntity
  8
1
100
AcDbLine
 62
7
  6
CONTINUOUS
 10
195.2794829808
 20
362.2604836865
 11
195.2794829808
 21
361.2505842789
  0
LINE
  5
441
100
AcDbEntity
  8
1
100
AcDbLine
 62
7
  6
CONTINUOUS
 10
195.8451878359
 20
348.1350510087
 11
195.8451878359
 21
362.0155920999
  0
LINE
  5
442
100
AcDbEntity
  8
1
100
AcDbLine
 62
7
  6
CONTINUOUS
 10
198.0730509721
 20
282.0201909057
 11
198.0730509721
 21
281.6441033719
  0
LINE
  5
443
100
AcDbEntity
  8
1
100
AcDbLine
 62
7
  6
CONTINUOUS
 10
198.6736267365
 20
360.3826290818
 11
198.6736267365
 21
346.5020879906
  0
LINE
  5
444
100
AcDbEntity
  8
1
100
AcDbLine
 62
7
  6
CONTINUOUS
 10
200.7242278645
 20
361.5665371281
 11
200.7242278645
 21
347.6859960369
  0
LINE
  5
445
100
AcDbEntity
  8
1
100
AcDbLine
 62
7
  6
CONTINUOUS
 10
205.8512090788
 20
284.3063673456
 11
206.1067527765
 21
292.9038840929
  0
LINE
  5
446
100
AcDbEntity
  8
1
100
AcDbLine
 62
7
  6
CONTINUOUS
 10
207.5209722268
 20
292.0874025839
 11
207.2654285291
 21
283.4898858366
  0
LINE
  5
447
100
AcDbEntity
  8
1
100
AcDbLine
 62
7
  6
CONTINUOUS
 10
49.8778526476
 20
101.4183813252
 11
61.8986178802
 21
108.358531941
  0
LINE
  5
448
100
AcDbEntity
  8
1
100
AcDbLine
 62
7
  6
CONTINUOUS
 10
79.9157619011
 20
118.5977036034
 11
78.5015542267
 21
117.7812152957
  0
LINE
  5
449
100
AcDbEntity
  8
1
100
AcDbLine
 62
7
  6
CONTINUOUS
 10
41.1661489631
 20
86.5085857286
 11
39.7519412886
 21
85.6920974209
  0
LINE
  5
44A
100
AcDbEntity
  8
1
100
AcDbLine
 62
7
  6
CONTINUOUS
 10
97.1692215309
 20
115.168596004
 11
93.6337023448
 21
113.1273752346
  0
LINE
  5
44B
100
AcDbEntity
  8
1
100
AcDbLine
 62
7
  6
CONTINUOUS
 10
109.7097265627
 20
284.1572951335
 11
105.8206230744
 21
286.4026192834
  0
LINE
  5
44C
100
AcDbEntity
  8
1
100
AcDbLine
 62
7
  6
CONTINUOUS
 10
101.9054259752
 20
290.1280921568
 11
91.2501832557
 21
296.2797602399
  0
LINE
  5
44D
100
AcDbEntity
  8
1
100
AcDbLine
 62
7
  6
CONTINUOUS
 10
140.3291880709
 20
273.2868575243
 11
148.0597547068
 21
268.8237137658
  0
LINE
  5
44E
100
AcDbEntity
  8
1
100
AcDbLine
 62
7
  6
CONTINUOUS
 10
140.3291880709
 20
274.1033599414
 11
148.7668766512
 21
269.2319683738
  0
LINE
  5
44F
100
AcDbEntity
  8
1
100
AcDbLine
 62
7
  6
CONTINUOUS
 10
151.5579678532
 20
270.8750652196
 11
142.3061163397
 21
276.216503342
  0
LINE
  5
450
100
AcDbEntity
  8
1
100
AcDbLine
 62
7
  6
CONTINUOUS
 10
141.1456029532
 20
339.7778877927
 11
140.9384797862
 21
340.2356551538
  0
LINE
  5
451
100
AcDbEntity
  8
1
100
AcDbLine
 62
7
  6
CONTINUOUS
 10
147.8023949913
 20
346.4088688878
 11
148.0095181583
 21
345.9511015268
  0
LINE
  5
452
100
AcDbEntity
  8
1
100
AcDbLine
 62
7
  6
CONTINUOUS
 10
207.9725459086
 20
94.2246587613
 11
207.9725459086
 21
102.3896829326
  0
LINE
  5
453
100
AcDbEntity
  8
1
100
AcDbLine
 62
7
  6
CONTINUOUS
 10
207.9725459086
 20
273.8551905298
 11
207.9725459086
 21
282.0202147011
  0
LINE
  5
454
100
AcDbEntity
  8
1
100
AcDbLine
 62
7
  6
CONTINUOUS
 10
214.0536253664
 20
299.6565659707
 11
214.0536253664
 21
298.0235611364
  0
LINE
  5
455
100
AcDbEntity
  8
1
100
AcDbLine
 62
7
  6
CONTINUOUS
 10
214.0536253664
 20
88.9989423512
 11
214.0536253664
 21
87.365937517
  0
LINE
  5
456
100
AcDbEntity
  8
1
100
AcDbLine
 62
7
  6
CONTINUOUS
 10
97.1692509706
 20
107.0036593763
 11
100.7047701566
 21
109.0448801457
  0
LINE
  5
457
100
AcDbEntity
  8
1
100
AcDbLine
 62
7
  6
CONTINUOUS
 10
47.1201070557
 20
69.9339548237
 11
49.1707429225
 21
71.1178829263
  0
LINE
  5
458
100
AcDbEntity
  8
2
100
AcDbLine
 62
7
  6
CONTINUOUS
 10
102.0823405152
 20
112.7360819382
 11
102.1133379172
 21
112.7533641366
  0
LINE
  5
459
100
AcDbEntity
  8
2
100
AcDbLine
 62
7
  6
CONTINUOUS
 10
102.1567322672
 20
112.7283109637
 11
102.0493349371
 21
112.6684329788
  0
LINE
  5
45A
100
AcDbEntity
  8
1
100
AcDbLine
 62
7
  6
CONTINUOUS
 10
109.7097265627
 20
299.2625898504
 11
105.8206230744
 21
301.5079140003
  0
LINE
  5
45B
100
AcDbEntity
  8
1
100
AcDbLine
 62
7
  6
CONTINUOUS
 10
151.5579678532
 20
275.7332546016
 11
142.3061163397
 21
281.0746927239
  0
LINE
  5
45C
100
AcDbEntity
  8
1
100
AcDbLine
 62
7
  6
CONTINUOUS
 10
106.9976610508
 20
302.1874731364
 11
110.8867645391
 21
299.9421489865
  0
LINE
  5
45D
100
AcDbEntity
  8
1
100
AcDbLine
 62
7
  6
CONTINUOUS
 10
153.873472023
 20
347.1262825624
 11
153.666348856
 21
347.5840499235
  0
LINE
  5
45E
100
AcDbEntity
  8
1
100
AcDbLine
 62
7
  6
CONTINUOUS
 10
160.5302640612
 20
353.7572636575
 11
160.7373872282
 21
353.2994962965
  0
LINE
  5
45F
100
AcDbEntity
  8
1
100
AcDbLine
 62
7
  6
CONTINUOUS
 10
219.7104442882
 20
92.2648605647
 11
219.7104442882
 21
93.0813912006
  0
LINE
  5
460
100
AcDbEntity
  8
1
100
AcDbLine
 62
7
  6
CONTINUOUS
 10
219.7104442882
 20
302.9224841842
 11
219.7104442882
 21
303.73901482
  0
LINE
  5
461
100
AcDbEntity
  8
1
100
AcDbLine
 62
7
  6
CONTINUOUS
 10
221.1246637385
 20
91.4483790557
 11
221.1246637385
 21
93.0813838899
  0
LINE
  5
462
100
AcDbEntity
  8
1
100
AcDbLine
 62
7
  6
CONTINUOUS
 10
221.1246637385
 20
302.1060026751
 11
221.1246637385
 21
303.7390075094
  0
LINE
  5
463
100
AcDbEntity
  8
1
100
AcDbLine
 62
7
  6
CONTINUOUS
 10
226.7814944362
 20
307.0049607404
 11
226.7814944362
 21
305.3719559061
  0
LINE
  5
464
100
AcDbEntity
  8
1
100
AcDbLine
 62
7
  6
CONTINUOUS
 10
232.4383133581
 20
310.2708789538
 11
232.4383133581
 21
311.0874095897
  0
LINE
  5
465
100
AcDbEntity
  8
1
100
AcDbLine
 62
7
  6
CONTINUOUS
 10
49.1707539196
 20
67.7702872136
 11
47.8979454172
 21
67.0354352686
  0
LINE
  5
466
100
AcDbEntity
  8
1
100
AcDbLine
 62
7
  6
CONTINUOUS
 10
61.8986178802
 20
74.465516606
 11
49.8778526476
 21
67.5253659902
  0
LINE
  5
467
100
AcDbEntity
  8
1
100
AcDbLine
 62
7
  6
CONTINUOUS
 10
112.018525759
 20
102.5130280734
 11
108.4830065729
 21
100.471807304
  0
LINE
  5
468
100
AcDbEntity
  8
1
100
AcDbLine
 62
7
  6
CONTINUOUS
 10
49.2565167568
 20
66.1520081653
 11
61.2772819895
 21
73.0921587811
  0
LINE
  5
469
100
AcDbEntity
  8
1
100
AcDbLine
 62
7
  6
CONTINUOUS
 10
112.0185551987
 20
94.3480914458
 11
119.0895935708
 21
98.4305329845
  0
LINE
  5
46A
100
AcDbEntity
  8
2
100
AcDbLine
 62
7
  6
CONTINUOUS
 10
115.9454647607
 20
107.1005994204
 11
116.6703330659
 21
107.4903810656
  0
LINE
  5
46B
100
AcDbEntity
  8
2
100
AcDbLine
 62
7
  6
CONTINUOUS
 10
116.6371736488
 20
107.4205654566
 11
115.9123053435
 21
107.0307838114
  0
LINE
  5
46C
100
AcDbEntity
  8
1
100
AcDbLine
 62
7
  6
CONTINUOUS
 10
214.7607292036
 20
297.6153028731
 11
214.2607485334
 21
297.5657937753
  0
LINE
  5
46D
100
AcDbEntity
  8
1
100
AcDbLine
 62
7
  6
CONTINUOUS
 10
115.7058926285
 20
309.9054741087
 11
122.2784793977
 21
306.1108752135
  0
LINE
  5
46E
100
AcDbEntity
  8
1
100
AcDbLine
 62
7
  6
CONTINUOUS
 10
116.6925630634
 20
310.9688373888
 11
123.6927232864
 21
306.9273844295
  0
LINE
  5
46F
100
AcDbEntity
  8
1
100
AcDbLine
 62
7
  6
CONTINUOUS
 10
164.8187675635
 20
294.0723003829
 11
174.070619077
 21
288.7308622605
  0
LINE
  5
470
100
AcDbEntity
  8
1
100
AcDbLine
 62
7
  6
CONTINUOUS
 10
166.6013410929
 20
354.4746773321
 11
166.3942179259
 21
354.9324446932
  0
LINE
  5
471
100
AcDbEntity
  8
1
100
AcDbLine
 62
7
  6
CONTINUOUS
 10
233.8525328084
 20
309.4543974448
 11
233.8525328084
 21
311.0874022791
  0
LINE
  5
472
100
AcDbEntity
  8
1
100
AcDbLine
 62
7
  6
CONTINUOUS
 10
239.5093635061
 20
314.35335551
 11
239.5093635061
 21
312.7203506758
  0
LINE
  5
473
100
AcDbEntity
  8
1
100
AcDbLine
 62
7
  6
CONTINUOUS
 10
241.878030943
 20
321.5585778894
 11
241.878030943
 21
335.4391189806
  0
LINE
  5
474
100
AcDbEntity
  8
1
100
AcDbLine
 62
7
  6
CONTINUOUS
 10
244.7064698436
 20
333.8061559626
 11
244.7064698436
 21
323.0693770434
  0
LINE
  5
475
100
AcDbEntity
  8
1
100
AcDbLine
 62
7
  6
CONTINUOUS
 10
245.1661824279
 20
317.6192737235
 11
245.1661824279
 21
318.4358043594
  0
LINE
  5
476
100
AcDbEntity
  8
1
100
AcDbLine
 62
7
  6
CONTINUOUS
 10
245.5549944483
 20
334.2960489472
 11
245.5549944483
 21
323.5592700281
  0
LINE
  5
477
100
AcDbEntity
  8
1
100
AcDbLine
 62
7
  6
CONTINUOUS
 10
220.4175599013
 20
304.1472657726
 11
220.9175405715
 21
304.1967748704
  0
LINE
  5
478
100
AcDbEntity
  8
1
100
AcDbLine
 62
7
  6
CONTINUOUS
 10
227.4885982734
 20
304.9636976428
 11
226.9886176032
 21
304.914188545
  0
LINE
  5
479
100
AcDbEntity
  8
1
100
AcDbLine
 62
7
  6
CONTINUOUS
 10
233.1454289711
 20
311.4956605423
 11
233.6454096414
 21
311.5451696401
  0
LINE
  5
47A
100
AcDbEntity
  8
1
100
AcDbLine
 62
7
  6
CONTINUOUS
 10
240.2164673433
 20
312.3120924125
 11
239.7164866731
 21
312.2625833147
  0
LINE
  5
47B
100
AcDbEntity
  8
1
100
AcDbLine
 62
7
  6
CONTINUOUS
 10
136.2717922951
 20
314.5981141105
 11
132.3826888068
 21
316.8434382604
  0
LINE
  5
47C
100
AcDbEntity
  8
1
100
AcDbLine
 62
7
  6
CONTINUOUS
 10
133.5597267832
 20
317.5229973965
 11
137.4488302715
 21
315.2776732466
  0
LINE
  5
47D
100
AcDbEntity
  8
1
100
AcDbLine
 62
7
  6
CONTINUOUS
 10
130.1905173579
 20
321.2113033396
 11
132.3118465334
 21
319.9865810761
  0
LINE
  5
47E
100
AcDbEntity
  8
1
100
AcDbLine
 62
7
  6
CONTINUOUS
 10
195.9517217966
 20
283.2449131692
 11
198.0730509721
 21
282.0201909057
  0
LINE
  5
47F
100
AcDbEntity
  8
1
100
AcDbLine
 62
7
  6
CONTINUOUS
 10
132.7360634986
 20
326.518461363
 11
134.1502829489
 21
325.701979854
  0
LINE
  5
480
100
AcDbEntity
  8
1
100
AcDbLine
 62
7
  6
CONTINUOUS
 10
205.8512090788
 20
284.3063673456
 11
207.2654285291
 21
283.4898858366
  0
LINE
  5
481
100
AcDbEntity
  8
1
100
AcDbLine
 62
7
  6
CONTINUOUS
 10
173.258133131
 20
361.1056584272
 11
173.465256298
 21
360.6478910662
  0
LINE
  5
482
100
AcDbEntity
  8
1
100
AcDbLine
 62
7
  6
CONTINUOUS
 10
214.2607485334
 20
297.5657937753
 11
214.0536253664
 21
298.0235611364
  0
LINE
  5
483
100
AcDbEntity
  8
1
100
AcDbLine
 62
7
  6
CONTINUOUS
 10
244.5387692726
 20
336.2707721183
 11
244.6439355237
 21
334.8220371631
  0
LINE
  5
484
100
AcDbEntity
  8
1
100
AcDbLine
 62
7
  6
CONTINUOUS
 10
246.5804018782
 20
316.8027922145
 11
246.5804018782
 21
318.4357970488
  0
LINE
  5
485
100
AcDbEntity
  8
1
100
AcDbLine
 62
7
  6
CONTINUOUS
 10
249.3733769546
 20
330.0201665581
 11
249.3733769546
 21
331.0300659657
  0
LINE
  5
486
100
AcDbEntity
  8
1
100
AcDbLine
 62
7
  6
CONTINUOUS
 10
253.2624804429
 20
328.7847418158
 11
253.2624804429
 21
328.0091625796
  0
LINE
  5
487
100
AcDbEntity
  8
1
100
AcDbLine
 62
7
  6
CONTINUOUS
 10
245.873298041
 20
318.844055312
 11
246.3732787112
 21
318.8935644098
  0
LINE
  5
488
100
AcDbEntity
  8
1
100
AcDbLine
 62
7
  6
CONTINUOUS
 10
132.9916071963
 20
335.1159781104
 11
134.4058266466
 21
334.2994966014
  0
LINE
  5
489
100
AcDbEntity
  8
1
100
AcDbLine
 62
7
  6
CONTINUOUS
 10
206.1067527765
 20
292.903884093
 11
207.5209722268
 21
292.087402584
  0
LINE
  5
48A
100
AcDbEntity
  8
1
100
AcDbLine
 62
7
  6
CONTINUOUS
 10
214.7607292036
 20
297.6153028731
 11
214.053616313
 21
298.0235454552
  0
LINE
  5
48B
100
AcDbEntity
  8
1
100
AcDbLine
 62
7
  6
CONTINUOUS
 10
141.6455836234
 20
339.8273968905
 11
140.9384707328
 21
340.2356394726
  0
LINE
  5
48C
100
AcDbEntity
  8
1
100
AcDbLine
 62
7
  6
CONTINUOUS
 10
220.9175405715
 20
304.1967748704
 11
221.1246637385
 21
303.7390075094
  0
LINE
  5
48D
100
AcDbEntity
  8
1
100
AcDbLine
 62
7
  6
CONTINUOUS
 10
226.9886176032
 20
304.914188545
 11
226.7814944362
 21
305.3719559061
  0
LINE
  5
48E
100
AcDbEntity
  8
1
100
AcDbLine
 62
7
  6
CONTINUOUS
 10
260.6517682388
 20
110.1867151715
 11
260.6517682388
 21
124.6388404062
  0
LINE
  5
48F
100
AcDbEntity
  8
1
100
AcDbLine
 62
7
  6
CONTINUOUS
 10
260.6517682388
 20
314.3123194539
 11
260.6517682388
 21
330.6423677964
  0
LINE
  5
490
100
AcDbEntity
  8
1
100
AcDbLine
 62
7
  6
CONTINUOUS
 10
262.2781206066
 20
329.703414061
 11
262.2781206066
 21
313.3733657185
  0
LINE
  5
491
100
AcDbEntity
  8
1
100
AcDbLine
 62
7
  6
CONTINUOUS
 10
262.2781206066
 20
125.5778097787
 11
262.2781206066
 21
109.2477614361
  0
LINE
  5
492
100
AcDbEntity
  8
1
100
AcDbLine
 62
7
  6
CONTINUOUS
 10
265.4600878741
 20
331.5405127535
 11
265.4600878741
 21
111.0848601285
  0
LINE
  5
493
100
AcDbEntity
  8
1
100
AcDbLine
 62
7
  6
CONTINUOUS
 10
207.9725459086
 20
102.3896829326
 11
122.9786646755
 21
53.3187356373
  0
LINE
  5
494
100
AcDbEntity
  8
1
100
AcDbLine
 62
7
  6
CONTINUOUS
 10
122.6251127569
 20
53.1146135603
 11
112.0185551987
 21
46.9909512523
  0
LINE
  5
495
100
AcDbEntity
  8
1
100
AcDbLine
 62
7
  6
CONTINUOUS
 10
214.5877031134
 20
304.0474261468
 11
213.1734836632
 21
304.8639076558
  0
LINE
  5
496
100
AcDbEntity
  8
1
100
AcDbLine
 62
7
  6
CONTINUOUS
 10
141.4725575332
 20
346.2595201642
 11
140.058338083
 21
347.0760016732
  0
LINE
  5
497
100
AcDbEntity
  8
1
100
AcDbLine
 62
7
  6
CONTINUOUS
 10
145.8881948708
 20
343.9098316306
 11
147.3024143211
 21
343.0933501215
  0
LINE
  5
498
100
AcDbEntity
  8
1
100
AcDbLine
 62
7
  6
CONTINUOUS
 10
219.003340451
 20
301.6977376132
 11
220.4175599013
 21
300.8812561041
  0
LINE
  5
499
100
AcDbEntity
  8
1
100
AcDbLine
 62
7
  6
CONTINUOUS
 10
221.1246637385
 20
302.1060026751
 11
219.7104442882
 21
302.9224841842
  0
LINE
  5
49A
100
AcDbEntity
  8
1
100
AcDbLine
 62
7
  6
CONTINUOUS
 10
148.0095181583
 20
344.3180966925
 11
146.595298708
 21
345.1345782016
  0
LINE
  5
49B
100
AcDbEntity
  8
1
100
AcDbLine
 62
7
  6
CONTINUOUS
 10
147.3024052677
 20
346.3593441088
 11
148.0095181583
 21
345.9511015268
  0
LINE
  5
49C
100
AcDbEntity
  8
1
100
AcDbLine
 62
7
  6
CONTINUOUS
 10
220.4175508479
 20
304.1472500914
 11
221.1246637385
 21
303.7390075094
  0
LINE
  5
49D
100
AcDbEntity
  8
1
100
AcDbLine
 62
7
  6
CONTINUOUS
 10
227.4885982734
 20
304.9636976428
 11
226.7814853829
 21
305.3719402249
  0
LINE
  5
49E
100
AcDbEntity
  8
1
100
AcDbLine
 62
7
  6
CONTINUOUS
 10
154.3734526932
 20
347.1757916602
 11
153.6663398027
 21
347.5840342423
  0
LINE
  5
49F
100
AcDbEntity
  8
1
100
AcDbLine
 62
7
  6
CONTINUOUS
 10
233.6454096414
 20
311.5451696401
 11
233.8525328084
 21
311.0874022791
  0
LINE
  5
4A0
100
AcDbEntity
  8
1
100
AcDbLine
 62
7
  6
CONTINUOUS
 10
201.8748499165
 20
95.48709245
 11
120.9075450396
 21
48.740876221
  0
LINE
  5
4A1
100
AcDbEntity
  8
1
100
AcDbLine
 62
7
  6
CONTINUOUS
 10
109.9474355628
 20
42.413091836
 11
120.553993121
 21
48.5367541441
  0
LINE
  5
4A2
100
AcDbEntity
  8
1
100
AcDbLine
 62
7
  6
CONTINUOUS
 10
262.2781206066
 20
125.5778097787
 11
207.9725459086
 21
94.2246587613
  0
LINE
  5
4A3
100
AcDbEntity
  8
1
100
AcDbLine
 62
7
  6
CONTINUOUS
 10
220.4175599013
 20
93.4896421532
 11
214.7607292036
 21
90.2236889222
  0
LINE
  5
4A4
100
AcDbEntity
  8
1
100
AcDbLine
 62
7
  6
CONTINUOUS
 10
214.0536253664
 20
88.1824117154
 11
219.003340451
 21
91.0401139937
  0
LINE
  5
4A5
100
AcDbEntity
  8
1
100
AcDbLine
 62
7
  6
CONTINUOUS
 10
141.6455836234
 20
339.8273968905
 11
141.1456029532
 21
339.7778877927
  0
LINE
  5
4A6
100
AcDbEntity
  8
1
100
AcDbLine
 62
7
  6
CONTINUOUS
 10
147.3024143211
 20
346.35935979
 11
147.8023949913
 21
346.4088688878
  0
LINE
  5
4A7
100
AcDbEntity
  8
1
100
AcDbLine
 62
7
  6
CONTINUOUS
 10
154.3734526932
 20
347.1757916602
 11
153.873472023
 21
347.1262825624
  0
LINE
  5
4A8
100
AcDbEntity
  8
1
100
AcDbLine
 62
7
  6
CONTINUOUS
 10
158.6160639407
 20
351.2582264002
 11
160.0302833909
 21
350.4417448912
  0
LINE
  5
4A9
100
AcDbEntity
  8
1
100
AcDbLine
 62
7
  6
CONTINUOUS
 10
231.7312095209
 20
309.0461323828
 11
233.1454289711
 21
308.2296508738
  0
LINE
  5
4AA
100
AcDbEntity
  8
1
100
AcDbLine
 62
7
  6
CONTINUOUS
 10
233.8525328084
 20
309.4543974448
 11
232.4383133581
 21
310.2708789538
  0
LINE
  5
4AB
100
AcDbEntity
  8
1
100
AcDbLine
 62
7
  6
CONTINUOUS
 10
160.7373872282
 20
351.6664914622
 11
159.3231677779
 21
352.4829729712
  0
LINE
  5
4AC
100
AcDbEntity
  8
1
100
AcDbLine
 62
7
  6
CONTINUOUS
 10
160.0302743376
 20
353.7077388785
 11
160.7373872282
 21
353.2994962965
  0
LINE
  5
4AD
100
AcDbEntity
  8
1
100
AcDbLine
 62
7
  6
CONTINUOUS
 10
233.1454199178
 20
311.4956448611
 11
233.8525328084
 21
311.0874022791
  0
LINE
  5
4AE
100
AcDbEntity
  8
1
100
AcDbLine
 62
7
  6
CONTINUOUS
 10
240.2164673433
 20
312.3120924125
 11
239.5093544527
 21
312.7203349946
  0
LINE
  5
4AF
100
AcDbEntity
  8
1
100
AcDbLine
 62
7
  6
CONTINUOUS
 10
167.1013217631
 20
354.5241864299
 11
166.3942088725
 21
354.932429012
  0
LINE
  5
4B0
100
AcDbEntity
  8
1
100
AcDbLine
 62
7
  6
CONTINUOUS
 10
239.7164866731
 20
312.2625833147
 11
239.5093635061
 21
312.7203506758
  0
LINE
  5
4B1
100
AcDbEntity
  8
1
100
AcDbLine
 62
7
  6
CONTINUOUS
 10
246.3732787112
 20
318.8935644098
 11
246.5804018782
 21
318.4357970488
  0
LINE
  5
4B2
100
AcDbEntity
  8
1
100
AcDbLine
 62
7
  6
CONTINUOUS
 10
214.7607292036
 20
86.9576792537
 11
220.4175599013
 21
90.2236324847
  0
LINE
  5
4B3
100
AcDbEntity
  8
1
100
AcDbLine
 62
7
  6
CONTINUOUS
 10
214.5877031134
 20
83.5917735218
 11
260.6517682388
 21
110.1867151715
  0
LINE
  5
4B4
100
AcDbEntity
  8
1
100
AcDbLine
 62
7
  6
CONTINUOUS
 10
262.2781206066
 20
109.2477614361
 11
265.4600878741
 21
111.0848601285
  0
LINE
  5
4B5
100
AcDbEntity
  8
1
100
AcDbLine
 62
7
  6
CONTINUOUS
 10
160.0302833909
 20
353.7077545597
 11
160.5302640612
 21
353.7572636575
  0
LINE
  5
4B6
100
AcDbEntity
  8
1
100
AcDbLine
 62
7
  6
CONTINUOUS
 10
167.1013217631
 20
354.5241864299
 11
166.6013410929
 21
354.4746773321
  0
LINE
  5
4B7
100
AcDbEntity
  8
1
100
AcDbLine
 62
7
  6
CONTINUOUS
 10
172.7581524608
 20
361.0561493294
 11
173.258133131
 21
361.1056584272
  0
LINE
  5
4B8
100
AcDbEntity
  8
1
100
AcDbLine
 62
7
  6
CONTINUOUS
 10
171.3439330105
 20
358.6066211699
 11
172.7581524608
 21
357.7901396609
  0
LINE
  5
4B9
100
AcDbEntity
  8
1
100
AcDbLine
 62
7
  6
CONTINUOUS
 10
244.4590785907
 20
316.3945271525
 11
245.873298041
 21
315.5780456435
  0
LINE
  5
4BA
100
AcDbEntity
  8
1
100
AcDbLine
 62
7
  6
CONTINUOUS
 10
246.5804018782
 20
316.8027922145
 11
245.1661824279
 21
317.6192737235
  0
LINE
  5
4BB
100
AcDbEntity
  8
1
100
AcDbLine
 62
7
  6
CONTINUOUS
 10
173.465256298
 20
359.0148862319
 11
172.0510368477
 21
359.8313677409
  0
LINE
  5
4BC
100
AcDbEntity
  8
1
100
AcDbLine
 62
7
  6
CONTINUOUS
 10
172.7581434074
 20
361.0561336482
 11
173.465256298
 21
360.6478910662
  0
LINE
  5
4BD
100
AcDbEntity
  8
1
100
AcDbLine
 62
7
  6
CONTINUOUS
 10
245.8732889876
 20
318.8440396308
 11
246.5804018782
 21
318.4357970488
  0
LINE
  5
4BE
100
AcDbEntity
  8
1
100
AcDbLine
 62
7
  6
CONTINUOUS
 10
195.8451878359
 20
348.1350510087
 11
198.6736267365
 21
346.5020879906
  0
LINE
  5
4BF
100
AcDbEntity
  8
1
100
AcDbLine
 62
7
  6
CONTINUOUS
 10
241.878030943
 20
321.5585778894
 11
241.983853017
 21
321.4974828687
  0
LINE
  5
4C0
100
AcDbEntity
  8
1
100
AcDbLine
 62
7
  6
CONTINUOUS
 10
241.878030943
 20
323.9263742657
 11
200.7242278645
 21
347.6859960369
  0
LINE
  5
4C1
100
AcDbEntity
  8
1
100
AcDbLine
 62
7
  6
CONTINUOUS
 10
195.8451878359
 20
350.502847385
 11
186.4759669027
 21
355.9120472404
  0
LINE
  5
4C2
100
AcDbEntity
  8
1
100
AcDbLine
 62
7
  6
CONTINUOUS
 10
260.6517682388
 20
314.3123194539
 11
262.2781206066
 21
313.3733657185
  0
LINE
  5
4C3
100
AcDbEntity
  8
1
100
AcDbLine
 62
7
  6
CONTINUOUS
 10
195.8451878359
 20
362.0155920999
 11
198.6736267365
 21
360.3826290818
  0
LINE
  5
4C4
100
AcDbEntity
  8
1
100
AcDbLine
 62
7
  6
CONTINUOUS
 10
241.878030943
 20
335.4391189806
 11
244.7064698436
 21
333.8061559626
  0
LINE
  5
4C5
100
AcDbEntity
  8
1
100
AcDbLine
 62
7
  6
CONTINUOUS
 10
196.6937124406
 20
362.5054850846
 11
198.9120141395
 21
361.224776975
  0
LINE
  5
4C6
100
AcDbEntity
  8
1
100
AcDbLine
 62
7
  6
CONTINUOUS
 10
243.3366927493
 20
335.5767570567
 11
245.5549944483
 21
334.2960489472
  0
LINE
  5
4C7
100
AcDbEntity
  8
1
100
AcDbLine
 62
7
  6
CONTINUOUS
 10
200.1140906628
 20
361.9187920366
 11
200.7242278645
 21
361.5665371281
  0
LINE
  5
4C8
100
AcDbEntity
  8
1
100
AcDbLine
 62
7
  6
CONTINUOUS
 10
243.9286320709
 20
336.6230270269
 11
244.5387692726
 21
336.2707721183
  0
LINE
  5
4C9
100
AcDbEntity
  8
1
100
AcDbLine
 62
7
  6
CONTINUOUS
 10
258.1768930326
 20
330.8464830747
 11
186.4759669027
 21
372.242095583
  0
LINE
  5
4CA
100
AcDbEntity
  8
1
100
AcDbLine
 62
7
  6
CONTINUOUS
 10
186.1224032083
 20
373.6709433229
 11
184.4960508404
 21
374.6098970583
  0
LINE
  5
4CB
100
AcDbEntity
  8
1
100
AcDbLine
 62
7
  6
CONTINUOUS
 10
260.6517682388
 20
330.6423677964
 11
262.2781206066
 21
329.703414061
  0
LINE
  5
4CC
100
AcDbEntity
  8
1
100
AcDbLine
 62
7
  6
CONTINUOUS
 10
187.6780181079
 20
376.4469957507
 11
265.4600878741
 21
331.5405127535
  0
ARC
  5
4CD
100
AcDbEntity
  8
1
100
AcDbCircle
 62
7
  6
CONTINUOUS
 10
54.6599775113
 20
112.7820768202
 40
1.1201423526
100
AcDbArc
 50
15.3469188471
 51
23.3847119984
  0
ARC
  5
4CE
100
AcDbEntity
  8
1
100
AcDbCircle
 62
7
  6
CONTINUOUS
 10
53.1949341558
 20
173.4101677802
 40
0.4593683216
100
AcDbArc
 50
278.7343305484
 51
285.0003763579
  0
ARC
  5
4CF
100
AcDbEntity
  8
1
100
AcDbCircle
 62
7
  6
CONTINUOUS
 10
113.8217774782
 20
53.3178656051
 40
9.1568872387
100
AcDbArc
 50
358.4322670863
 51
0.0054438991
  0
ARC
  5
4D0
100
AcDbEntity
  8
2
100
AcDbCircle
 62
7
  6
CONTINUOUS
 10
115.8414270645
 20
107.3311092232
 40
0.2548156428
100
AcDbArc
 50
269.9638248961
 51
278.5350635296
  0
ARC
  5
4D1
100
AcDbEntity
  8
2
100
AcDbCircle
 62
7
  6
CONTINUOUS
 10
111.6565146212
 20
107.3253336919
 40
0.2059248722
100
AcDbArc
 50
251.5805512245
 51
255.0473599211
  0
ARC
  5
4D2
100
AcDbEntity
  8
2
100
AcDbCircle
 62
7
  6
CONTINUOUS
 10
106.4336463908
 20
110.2260486423
 40
0.15
100
AcDbArc
 50
180.8462644003
 51
240.0005612632
  0
ARC
  5
4D3
100
AcDbEntity
  8
2
100
AcDbCircle
 62
7
  6
CONTINUOUS
 10
96.8845474056
 20
115.7390987901
 40
0.15
100
AcDbArc
 50
180.0
 51
240.023656126
  0
ARC
  5
4D4
100
AcDbEntity
  8
2
100
AcDbCircle
 62
7
  6
CONTINUOUS
 10
101.9762902109
 20
112.7994462147
 40
0.15
100
AcDbArc
 50
240.0005612632
 51
299.1625803043
  0
ARC
  5
4D5
100
AcDbEntity
  8
2
100
AcDbCircle
 62
7
  6
CONTINUOUS
 10
116.5661338611
 20
107.5526765787
 40
0.15
100
AcDbArc
 50
298.2681431636
 51
0.010385039
  0
ARC
  5
4D6
100
AcDbEntity
  8
2
100
AcDbCircle
 62
7
  6
CONTINUOUS
 10
111.5121302198
 20
132.5379251166
 40
18.8227369074
100
AcDbArc
 50
120.0602021224
 51
120.8026215767
  0
ARC
  5
4D7
100
AcDbEntity
  8
2
100
AcDbCircle
 62
7
  6
CONTINUOUS
 10
111.5121302201
 20
173.3630459727
 40
18.8227369078
100
AcDbArc
 50
120.0602021225
 51
120.8026215767
  0
ARC
  5
4D8
100
AcDbEntity
  8
1
100
AcDbCircle
 62
7
  6
CONTINUOUS
 10
90.0959758446
 20
130.2464002168
 40
2.4314277576
100
AcDbArc
 50
285.7099599631
 51
292.404878807
  0
ARC
  5
4D9
100
AcDbEntity
  8
2
100
AcDbCircle
 62
7
  6
CONTINUOUS
 10
116.4093283348
 20
143.750405374
 40
0.26457118
100
AcDbArc
 50
28.6611947301
 51
38.5518078883
  0
ARC
  5
4DA
100
AcDbEntity
  8
2
100
AcDbCircle
 62
7
  6
CONTINUOUS
 10
116.4093283348
 20
184.5755262305
 40
0.26457118
100
AcDbArc
 50
28.66119473
 51
38.5518078883
  0
ARC
  5
4DB
100
AcDbEntity
  8
2
100
AcDbCircle
 62
7
  6
CONTINUOUS
 10
115.8414270645
 20
148.1562300797
 40
0.2548156428
100
AcDbArc
 50
269.9638248963
 51
278.5350635296
  0
ARC
  5
4DC
100
AcDbEntity
  8
2
100
AcDbCircle
 62
7
  6
CONTINUOUS
 10
115.8414270645
 20
188.9813509361
 40
0.2548156428
100
AcDbArc
 50
269.9638248963
 51
278.5350635295
  0
ARC
  5
4DD
100
AcDbEntity
  8
2
100
AcDbCircle
 62
7
  6
CONTINUOUS
 10
111.6565146212
 20
148.1504545483
 40
0.2059248722
100
AcDbArc
 50
251.5805512242
 51
255.0473599213
  0
ARC
  5
4DE
100
AcDbEntity
  8
2
100
AcDbCircle
 62
7
  6
CONTINUOUS
 10
111.6565146212
 20
188.9755754048
 40
0.2059248722
100
AcDbArc
 50
251.5805512241
 51
255.047359921
  0
ARC
  5
4DF
100
AcDbEntity
  8
2
100
AcDbCircle
 62
7
  6
CONTINUOUS
 10
106.4336463908
 20
146.4013440391
 40
0.15
100
AcDbArc
 50
120.8225633599
 51
179.1263315892
  0
ARC
  5
4E0
100
AcDbEntity
  8
2
100
AcDbCircle
 62
7
  6
CONTINUOUS
 10
102.4711120878
 20
149.2705760588
 40
0.15
100
AcDbArc
 50
0.8585530814
 51
60.0005612631
  0
ARC
  5
4E1
100
AcDbEntity
  8
2
100
AcDbCircle
 62
7
  6
CONTINUOUS
 10
96.8845474056
 20
151.9143941869
 40
0.15
100
AcDbArc
 50
121.7182252079
 51
180.0
  0
ARC
  5
4E2
100
AcDbEntity
  8
2
100
AcDbCircle
 62
7
  6
CONTINUOUS
 10
97.3708802393
 20
152.2151296747
 40
0.15
100
AcDbArc
 50
59.9910745172
 51
121.7315611708
  0
ARC
  5
4E3
100
AcDbEntity
  8
2
100
AcDbCircle
 62
7
  6
CONTINUOUS
 10
116.5661338611
 20
143.8408366021
 40
0.15
100
AcDbArc
 50
0.0
 51
90.5225249286
  0
ARC
  5
4E4
100
AcDbEntity
  8
2
100
AcDbCircle
 62
7
  6
CONTINUOUS
 10
106.9287698861
 20
146.697004351
 40
0.15
100
AcDbArc
 50
60.0005612632
 51
120.8433082939
  0
ARC
  5
4E5
100
AcDbEntity
  8
2
100
AcDbCircle
 62
7
  6
CONTINUOUS
 10
106.4336463908
 20
151.0511694988
 40
0.15
100
AcDbArc
 50
180.8462644003
 51
240.0005612632
  0
ARC
  5
4E6
100
AcDbEntity
  8
2
100
AcDbCircle
 62
7
  6
CONTINUOUS
 10
106.4336463908
 20
187.2264648956
 40
0.15
100
AcDbArc
 50
120.8225633599
 51
179.1263315892
  0
ARC
  5
4E7
100
AcDbEntity
  8
2
100
AcDbCircle
 62
7
  6
CONTINUOUS
 10
102.4711120878
 20
190.0956969153
 40
0.15
100
AcDbArc
 50
0.8585530814
 51
60.0005612632
  0
ARC
  5
4E8
100
AcDbEntity
  8
2
100
AcDbCircle
 62
7
  6
CONTINUOUS
 10
96.8845474056
 20
192.7395150434
 40
0.15
100
AcDbArc
 50
121.7182252079
 51
180.0
  0
ARC
  5
4E9
100
AcDbEntity
  8
2
100
AcDbCircle
 62
7
  6
CONTINUOUS
 10
97.3708802393
 20
193.0402505312
 40
0.15
100
AcDbArc
 50
59.9910745172
 51
121.7315611708
  0
ARC
  5
4EA
100
AcDbEntity
  8
2
100
AcDbCircle
 62
7
  6
CONTINUOUS
 10
96.8845474056
 20
156.5642196466
 40
0.15
100
AcDbArc
 50
180.0
 51
240.023656126
  0
ARC
  5
4EB
100
AcDbEntity
  8
2
100
AcDbCircle
 62
7
  6
CONTINUOUS
 10
101.9762902109
 20
153.6245670711
 40
0.15
100
AcDbArc
 50
240.0005612632
 51
299.1625803043
  0
ARC
  5
4EC
100
AcDbEntity
  8
2
100
AcDbCircle
 62
7
  6
CONTINUOUS
 10
116.5661338611
 20
148.3777974351
 40
0.15
100
AcDbArc
 50
298.2681431637
 51
0.010385039
  0
ARC
  5
4ED
100
AcDbEntity
  8
2
100
AcDbCircle
 62
7
  6
CONTINUOUS
 10
116.5661338611
 20
184.6659574585
 40
0.15
100
AcDbArc
 50
0.0
 51
90.5225249286
  0
ARC
  5
4EE
100
AcDbEntity
  8
2
100
AcDbCircle
 62
7
  6
CONTINUOUS
 10
106.9287698861
 20
187.5221252074
 40
0.15
100
AcDbArc
 50
60.0005612632
 51
120.8433082939
  0
ARC
  5
4EF
100
AcDbEntity
  8
2
100
AcDbCircle
 62
7
  6
CONTINUOUS
 10
106.4336463908
 20
191.8762903553
 40
0.15
100
AcDbArc
 50
180.8462644003
 51
240.0005612631
  0
ARC
  5
4F0
100
AcDbEntity
  8
2
100
AcDbCircle
 62
7
  6
CONTINUOUS
 10
96.8845474056
 20
197.3893405031
 40
0.15
100
AcDbArc
 50
180.0
 51
240.023656126
  0
ARC
  5
4F1
100
AcDbEntity
  8
2
100
AcDbCircle
 62
7
  6
CONTINUOUS
 10
101.9762902109
 20
194.4496879276
 40
0.15
100
AcDbArc
 50
240.0005612632
 51
299.1625803043
  0
ARC
  5
4F2
100
AcDbEntity
  8
2
100
AcDbCircle
 62
7
  6
CONTINUOUS
 10
116.5661338611
 20
189.2029182916
 40
0.15
100
AcDbArc
 50
298.2681431636
 51
360.0
  0
ARC
  5
4F3
100
AcDbEntity
  8
2
100
AcDbCircle
 62
7
  6
CONTINUOUS
 10
111.5121302207
 20
214.1881668281
 40
18.822736909
100
AcDbArc
 50
120.0602021225
 51
120.8026215766
  0
ARC
  5
4F4
100
AcDbEntity
  8
1
100
AcDbCircle
 62
7
  6
CONTINUOUS
 10
83.6546369452
 20
230.6441375002
 40
13.5495288328
100
AcDbArc
 50
12.4696577093
 51
12.8669832933
  0
ARC
  5
4F5
100
AcDbEntity
  8
1
100
AcDbCircle
 62
7
  6
CONTINUOUS
 10
112.5874151918
 20
224.5706667845
 40
10.0377020175
100
AcDbArc
 50
0.0539661124
 51
3.5966371506
  0
ARC
  5
4F6
100
AcDbEntity
  8
1
100
AcDbCircle
 62
7
  6
CONTINUOUS
 10
110.6309793104
 20
228.3067808763
 40
9.840723592
100
AcDbArc
 50
56.368355638
 51
59.9820183097
  0
ARC
  5
4F7
100
AcDbEntity
  8
1
100
AcDbCircle
 62
7
  6
CONTINUOUS
 10
111.0137673817
 20
228.5619595362
 40
9.7818892889
100
AcDbArc
 50
57.3269845767
 51
59.9806857364
  0
ARC
  5
4F8
100
AcDbEntity
  8
1
100
AcDbCircle
 62
7
  6
CONTINUOUS
 10
47.6886963604
 20
265.8438502857
 40
9.15663994
100
AcDbArc
 50
59.9951168027
 51
61.5683735298
  0
ARC
  5
4F9
100
AcDbEntity
  8
1
100
AcDbCircle
 62
7
  6
CONTINUOUS
 10
48.6063948946
 20
271.1248875083
 40
3.3919561693
100
AcDbArc
 50
108.9844550256
 51
116.4726018801
  0
ARC
  5
4FA
100
AcDbEntity
  8
1
100
AcDbCircle
 62
7
  6
CONTINUOUS
 10
48.5859122412
 20
271.1687369429
 40
3.3435741229
100
AcDbArc
 50
116.4933666353
 51
119.9985318005
  0
ARC
  5
4FB
100
AcDbEntity
  8
1
100
AcDbCircle
 62
7
  6
CONTINUOUS
 10
48.9395975675
 20
271.3729364009
 40
3.3435738124
100
AcDbArc
 50
120.0011746132
 51
123.5057884278
  0
ARC
  5
4FC
100
AcDbEntity
  8
1
100
AcDbCircle
 62
7
  6
CONTINUOUS
 10
50.1676901907
 20
225.7481770946
 40
1.7324486191
100
AcDbArc
 50
16.2902827129
 51
17.8643273906
  0
ARC
  5
4FD
100
AcDbEntity
  8
2
100
AcDbCircle
 62
7
  6
CONTINUOUS
 10
116.4093283348
 20
225.4006470869
 40
0.26457118
100
AcDbArc
 50
28.6611947301
 51
38.5518078884
  0
ARC
  5
4FE
100
AcDbEntity
  8
2
100
AcDbCircle
 62
7
  6
CONTINUOUS
 10
106.4336463908
 20
228.0515857521
 40
0.15
100
AcDbArc
 50
120.8225633599
 51
179.1263315892
  0
ARC
  5
4FF
100
AcDbEntity
  8
2
100
AcDbCircle
 62
7
  6
CONTINUOUS
 10
102.4711120878
 20
230.9208177718
 40
0.15
100
AcDbArc
 50
0.8585530813
 51
60.0005612632
  0
ARC
  5
500
100
AcDbEntity
  8
2
100
AcDbCircle
 62
7
  6
CONTINUOUS
 10
96.8845474056
 20
233.5646358999
 40
0.15
100
AcDbArc
 50
121.7182252079
 51
180.0
  0
ARC
  5
501
100
AcDbEntity
  8
2
100
AcDbCircle
 62
7
  6
CONTINUOUS
 10
97.3708802393
 20
233.8653713877
 40
0.15
100
AcDbArc
 50
59.9910745172
 51
121.7315611708
  0
ARC
  5
502
100
AcDbEntity
  8
2
100
AcDbCircle
 62
7
  6
CONTINUOUS
 10
116.5661338611
 20
225.491078315
 40
0.15
100
AcDbArc
 50
0.0
 51
90.5225249286
  0
ARC
  5
503
100
AcDbEntity
  8
2
100
AcDbCircle
 62
7
  6
CONTINUOUS
 10
106.9287698861
 20
228.3472460639
 40
0.15
100
AcDbArc
 50
60.0005612632
 51
120.8433082939
  0
ARC
  5
504
100
AcDbEntity
  8
1
100
AcDbCircle
 62
7
  6
CONTINUOUS
 10
118.8543675554
 20
51.4720799879
 40
3.3919720472
100
AcDbArc
 50
303.5265691756
 51
311.0169308286
  0
ARC
  5
505
100
AcDbEntity
  8
1
100
AcDbCircle
 62
7
  6
CONTINUOUS
 10
119.2357954249
 20
51.6366028491
 40
3.3435741229
100
AcDbArc
 50
296.4933666353
 51
299.9985318005
  0
ARC
  5
506
100
AcDbEntity
  8
1
100
AcDbCircle
 62
7
  6
CONTINUOUS
 10
118.8821100986
 20
51.4324033911
 40
3.3435738124
100
AcDbArc
 50
300.0011746132
 51
303.5057884278
  0
ARC
  5
507
100
AcDbEntity
  8
1
100
AcDbCircle
 62
7
  6
CONTINUOUS
 10
188.0802765453
 20
355.4700372062
 40
9.2327297025
100
AcDbArc
 50
31.768790563
 51
38.7624528832
  0
ARC
  5
508
100
AcDbEntity
  8
1
100
AcDbCircle
 62
7
  6
CONTINUOUS
 10
141.8816223676
 20
335.9254477762
 40
2.0752044639
100
AcDbArc
 50
281.7356935492
 51
285.9857945713
  0
ARC
  5
509
100
AcDbEntity
  8
1
100
AcDbCircle
 62
7
  6
CONTINUOUS
 10
128.3649010402
 20
320.7896607042
 40
0.259918201
100
AcDbArc
 50
119.9801986278
 51
122.4774127577
  0
SPLINE
  5
50A
100
AcDbEntity
  8
2
100
AcDbSpline
 62
7
  6
CONTINUOUS
 70
0
 71
3
 72
9
 73
5
 74
0
 42
0.0000001
 43
0.0000001
 44
0.0000000001
 40
0.0
 40
0.0
 40
0.0
 40
0.0
 40
0.2359220441
 40
1.0
 40
1.0
 40
1.0
 40
1.0
 10
106.3275808152
 20
146.340107416
 30
0.0
 10
106.3275808152
 20
146.3437182935
 30
0.0
 10
106.3281822726
 20
146.3590221113
 30
0.0
 10
106.3309357104
 20
146.374204093
 30
0.0
 10
106.3339320948
 20
146.3855082143
 30
0.0
  0
SPLINE
  5
50B
100
AcDbEntity
  8
2
100
AcDbSpline
 62
7
  6
CONTINUOUS
 70
0
 71
3
 72
9
 73
5
 74
0
 42
0.0000001
 43
0.0000001
 44
0.0000000001
 40
0.0
 40
0.0
 40
0.0
 40
0.0
 40
0.2436211959
 40
1.0
 40
1.0
 40
1.0
 40
1.0
 10
106.3339320948
 20
146.3855082143
 30
0.0
 10
106.3352407604
 20
146.3904452695
 30
0.0
 10
106.3413468948
 20
146.4105115284
 30
0.0
 10
106.3501356001
 20
146.4297382325
 30
0.0
 10
106.3579950714
 20
146.4435111065
 30
0.0
  0
SPLINE
  5
50C
100
AcDbEntity
  8
2
100
AcDbSpline
 62
7
  6
CONTINUOUS
 70
0
 71
3
 72
9
 73
5
 74
0
 42
0.0000001
 43
0.0000001
 44
0.0000000001
 40
0.0
 40
0.0
 40
0.0
 40
0.0
 40
0.2551471735
 40
1.0
 40
1.0
 40
1.0
 40
1.0
 10
106.3579950714
 20
146.4435111065
 30
0.0
 10
106.3607875224
 20
146.448404575
 30
0.0
 10
106.3723566598
 20
146.467214598
 30
0.0
 10
106.3863351987
 20
146.484587905
 30
0.0
 10
106.3980378454
 20
146.4961455867
 30
0.0
  0
SPLINE
  5
50D
100
AcDbEntity
  8
2
100
AcDbSpline
 62
7
  6
CONTINUOUS
 70
0
 71
3
 72
9
 73
5
 74
0
 42
0.0000001
 43
0.0000001
 44
0.0000000001
 40
0.0
 40
0.0
 40
0.0
 40
0.0
 40
0.2624858699
 40
1.0
 40
1.0
 40
1.0
 40
1.0
 10
106.3980378454
 20
146.4961455867
 30
0.0
 10
106.4007162826
 20
146.498790845
 30
0.0
 10
106.4111833392
 20
146.5085922801
 30
0.0
 10
106.4227154205
 20
146.5173067769
 30
0.0
 10
106.4317952913
 20
146.5227320217
 30
0.0
  0
SPLINE
  5
50E
100
AcDbEntity
  8
2
100
AcDbSpline
 62
7
  6
CONTINUOUS
 70
0
 71
3
 72
9
 73
5
 74
0
 42
0.0000001
 43
0.0000001
 44
0.0000000001
 40
0.0
 40
0.0
 40
0.0
 40
0.0
 40
0.254847545
 40
1.0
 40
1.0
 40
1.0
 40
1.0
 10
111.6664483944
 20
143.2936517982
 30
0.0
 10
111.6661813286
 20
143.3113190571
 30
0.0
 10
111.6653017158
 20
143.3806460058
 30
0.0
 10
111.6646104327
 20
143.4499776273
 30
0.0
 10
111.6645966703
 20
143.5016410831
 30
0.0
  0
SPLINE
  5
50F
100
AcDbEntity
  8
2
100
AcDbSpline
 62
7
  6
CONTINUOUS
 70
0
 71
3
 72
9
 73
5
 74
0
 42
0.0000001
 43
0.0000001
 44
0.0000000001
 40
0.0
 40
0.0
 40
0.0
 40
0.0
 40
0.2291140225
 40
1.0
 40
1.0
 40
1.0
 40
1.0
 10
111.5603821943
 20
143.3190164774
 30
0.0
 10
111.5676414593
 20
143.3148254336
 30
0.0
 10
111.6009336924
 20
143.2993597294
 30
0.0
 10
111.6382452168
 20
143.2936517304
 30
0.0
 10
111.6664483944
 20
143.2936517982
 30
0.0
  0
SPLINE
  5
510
100
AcDbEntity
  8
2
100
AcDbSpline
 62
7
  6
CONTINUOUS
 70
0
 71
3
 72
9
 73
5
 74
0
 42
0.0000001
 43
0.0000001
 44
0.0000000001
 40
0.0
 40
0.0
 40
0.0
 40
0.0
 40
0.5011255058
 40
1.0
 40
1.0
 40
1.0
 40
1.0
 10
111.6645966703
 20
143.5016410831
 30
0.0
 10
111.6336156223
 20
143.4831298318
 30
0.0
 10
111.5847587799
 20
143.4260917951
 30
0.0
 10
111.5603821943
 20
143.3549444148
 30
0.0
 10
111.5603821943
 20
143.3190164774
 30
0.0
  0
SPLINE
  5
511
100
AcDbEntity
  8
2
100
AcDbSpline
 62
7
  6
CONTINUOUS
 70
0
 71
3
 72
9
 73
5
 74
0
 42
0.0000001
 43
0.0000001
 44
0.0000000001
 40
0.0
 40
0.0
 40
0.0
 40
0.0
 40
0.2443151864
 40
1.0
 40
1.0
 40
1.0
 40
1.0
 10
101.9781120357
 20
112.8314315431
 30
0.0
 10
101.9672630909
 20
112.8376968695
 30
0.0
 10
101.9253169159
 20
112.8675463074
 30
0.0
 10
101.8925482868
 20
112.9089984041
 30
0.0
 10
101.8733423311
 20
112.9426543931
 30
0.0
  0
SPLINE
  5
512
100
AcDbEntity
  8
2
100
AcDbSpline
 62
7
  6
CONTINUOUS
 70
0
 71
3
 72
13
 73
9
 74
0
 42
0.0000001
 43
0.0000001
 44
0.0000000001
 40
0.0
 40
0.0
 40
0.0
 40
0.0
 40
0.0207165327
 40
0.0763645798
 40
0.1639485812
 40
0.2809410149
 40
0.5937162687
 40
1.0
 40
1.0
 40
1.0
 40
1.0
 10
106.2818179323
 20
110.3467476483
 30
0.0
 10
106.281818902
 20
110.3470930053
 30
0.0
 10
106.2834261614
 20
110.3475941721
 30
0.0
 10
106.285225772
 20
110.3492715902
 30
0.0
 10
106.2891708273
 20
110.3514611776
 30
0.0
 10
106.2963748303
 20
110.3560305251
 30
0.0
 10
106.3084038594
 20
110.3632034535
 30
0.0
 10
106.3186494077
 20
110.3693818998
 30
0.0
 10
106.3244631195
 20
110.3728567443
 30
0.0
  0
SPLINE
  5
513
100
AcDbEntity
  8
2
100
AcDbSpline
 62
7
  6
CONTINUOUS
 70
0
 71
3
 72
9
 73
5
 74
0
 42
0.0000001
 43
0.0000001
 44
0.0000000001
 40
0.0
 40
0.0
 40
0.0
 40
0.0
 40
0.2445918917
 40
1.0
 40
1.0
 40
1.0
 40
1.0
 10
106.2818396705
 20
146.2842820569
 30
0.0
 10
106.2816476433
 20
146.2715907213
 30
0.0
 10
106.2858562677
 20
146.2196558571
 30
0.0
 10
106.3050338608
 20
146.1697099136
 30
0.0
 10
106.3244631195
 20
146.1356626146
 30
0.0
  0
SPLINE
  5
514
100
AcDbEntity
  8
2
100
AcDbSpline
 62
7
  6
CONTINUOUS
 70
0
 71
3
 72
14
 73
10
 74
0
 42
0.0000001
 43
0.0000001
 44
0.0000000001
 40
0.0
 40
0.0
 40
0.0
 40
0.0
 40
0.0169064719
 40
0.0671961091
 40
0.1502312859
 40
0.2647606797
 40
0.4094988612
 40
0.582476357
 40
1.0
 40
1.0
 40
1.0
 40
1.0
 10
111.6649365886
 20
107.0549698061
 30
0.0
 10
111.6652939488
 20
107.0549688054
 30
0.0
 10
111.6647463421
 20
107.0572361747
 30
0.0
 10
111.6655090339
 20
107.0595937301
 30
0.0
 10
111.6653230066
 20
107.0652891345
 30
0.0
 10
111.6656601653
 20
107.0723232227
 30
0.0
 10
111.6658008922
 20
107.0815330273
 30
0.0
 10
111.6661246179
 20
107.0970365258
 30
0.0
 10
111.6663150007
 20
107.1095319767
 30
0.0
 10
111.6664483944
 20
107.1183564014
 30
0.0
  0
SPLINE
  5
515
100
AcDbEntity
  8
2
100
AcDbSpline
 62
7
  6
CONTINUOUS
 70
0
 71
3
 72
13
 73
9
 74
0
 42
0.0000001
 43
0.0000001
 44
0.0000000001
 40
0.0
 40
0.0
 40
0.0
 40
0.0
 40
0.0162771657
 40
0.0647173917
 40
0.1450198921
 40
0.2566496724
 40
0.5713638791
 40
1.0
 40
1.0
 40
1.0
 40
1.0
 10
116.5646219538
 20
143.9908249942
 30
0.0
 10
116.5644668777
 20
143.9908319386
 30
0.0
 10
116.5646581681
 20
143.9898379902
 30
0.0
 10
116.5643669356
 20
143.9888193707
 30
0.0
 10
116.5644453757
 20
143.9863232411
 30
0.0
 10
116.5642977674
 20
143.9816146685
 30
0.0
 10
116.5643108426
 20
143.9733692283
 30
0.0
 10
116.5642816727
 20
143.9663123863
 30
0.0
 10
116.5642827616
 20
143.9622245846
 30
0.0
  0
SPLINE
  5
516
100
AcDbEntity
  8
2
100
AcDbSpline
 62
7
  6
CONTINUOUS
 70
0
 71
3
 72
9
 73
5
 74
0
 42
0.0000001
 43
0.0000001
 44
0.0000000001
 40
0.0
 40
0.0
 40
0.0
 40
0.0
 40
0.5522160321
 40
1.0
 40
1.0
 40
1.0
 40
1.0
 10
116.6703330659
 20
143.778541089
 30
0.0
 10
116.6832141868
 20
143.7857228462
 30
0.0
 10
116.7053581737
 20
143.8021339751
 30
0.0
 10
116.7161547013
 20
143.8288777544
 30
0.0
 10
116.7161320684
 20
143.8408366009
 30
0.0
  0
SPLINE
  5
517
100
AcDbEntity
  8
2
100
AcDbSpline
 62
7
  6
CONTINUOUS
 70
0
 71
3
 72
9
 73
5
 74
0
 42
0.0000001
 43
0.0000001
 44
0.0000000001
 40
0.0
 40
0.0
 40
0.0
 40
0.0
 40
0.2315671867
 40
1.0
 40
1.0
 40
1.0
 40
1.0
 10
116.5642827616
 20
143.9622245846
 30
0.0
 10
116.5689345945
 20
143.9594418499
 30
0.0
 10
116.5883322943
 20
143.9462769205
 30
0.0
 10
116.6050074114
 20
143.9293456033
 30
0.0
 10
116.6162348895
 20
143.915291962
 30
0.0
  0
SPLINE
  5
518
100
AcDbEntity
  8
2
100
AcDbSpline
 62
7
  6
CONTINUOUS
 70
0
 71
3
 72
9
 73
5
 74
0
 42
0.0000001
 43
0.0000001
 44
0.0000000001
 40
0.0
 40
0.0
 40
0.0
 40
0.0
 40
0.2554414047
 40
1.0
 40
1.0
 40
1.0
 40
1.0
 10
116.6414819278
 20
143.8773014676
 30
0.0
 10
116.6439115147
 20
143.8728659987
 30
0.0
 10
116.6529257791
 20
143.8552382372
 30
0.0
 10
116.6599867973
 20
143.8365816399
 30
0.0
 10
116.6638015761
 20
143.822342825
 30
0.0
  0
SPLINE
  5
519
100
AcDbEntity
  8
2
100
AcDbSpline
 62
7
  6
CONTINUOUS
 70
0
 71
3
 72
9
 73
5
 74
0
 42
0.0000001
 43
0.0000001
 44
0.0000000001
 40
0.0
 40
0.0
 40
0.0
 40
0.0
 40
0.2636555929
 40
1.0
 40
1.0
 40
1.0
 40
1.0
 10
116.6638015761
 20
143.822342825
 30
0.0
 10
116.6648101467
 20
143.818578295
 30
0.0
 10
116.6682496178
 20
143.8042051683
 30
0.0
 10
116.6701642847
 20
143.7894242475
 30
0.0
 10
116.6703330659
 20
143.778541089
 30
0.0
  0
SPLINE
  5
51A
100
AcDbEntity
  8
2
100
AcDbSpline
 62
7
  6
CONTINUOUS
 70
0
 71
3
 72
9
 73
5
 74
0
 42
0.0000001
 43
0.0000001
 44
0.0000000001
 40
0.0
 40
0.0
 40
0.0
 40
0.0
 40
0.2046314557
 40
1.0
 40
1.0
 40
1.0
 40
1.0
 10
115.8394144563
 20
143.5437239234
 30
0.0
 10
115.8394182357
 20
143.5295362577
 30
0.0
 10
115.8397296981
 20
143.4602039187
 30
0.0
 10
115.8404326789
 20
143.3908734455
 30
0.0
 10
115.8412661804
 20
143.3357346385
 30
0.0
  0
SPLINE
  5
51B
100
AcDbEntity
  8
2
100
AcDbSpline
 62
7
  6
CONTINUOUS
 70
0
 71
3
 72
9
 73
5
 74
0
 42
0.0000001
 43
0.0000001
 44
0.0000000001
 40
0.0
 40
0.0
 40
0.0
 40
0.0
 40
0.4999997576
 40
1.0
 40
1.0
 40
1.0
 40
1.0
 10
115.9454647607
 20
143.3600404278
 30
0.0
 10
115.9449069037
 20
143.3963144318
 30
0.0
 10
115.9195242067
 20
143.4675208072
 30
0.0
 10
115.8705475382
 20
143.5251000587
 30
0.0
 10
115.8394144563
 20
143.5437239234
 30
0.0
  0
SPLINE
  5
51C
100
AcDbEntity
  8
2
100
AcDbSpline
 62
7
  6
CONTINUOUS
 70
0
 71
3
 72
9
 73
5
 74
0
 42
0.0000001
 43
0.0000001
 44
0.0000000001
 40
0.0
 40
0.0
 40
0.0
 40
0.0
 40
0.2663785888
 40
1.0
 40
1.0
 40
1.0
 40
1.0
 10
115.8412661804
 20
143.3357346385
 30
0.0
 10
115.8508186815
 20
143.3357346615
 30
0.0
 10
115.8865757141
 20
143.337721344
 30
0.0
 10
115.9224867152
 20
143.3472292411
 30
0.0
 10
115.9454647607
 20
143.3600404278
 30
0.0
  0
SPLINE
  5
51D
100
AcDbEntity
  8
2
100
AcDbSpline
 62
7
  6
CONTINUOUS
 70
0
 71
3
 72
9
 73
5
 74
0
 42
0.0000001
 43
0.0000001
 44
0.0000000001
 40
0.0
 40
0.0
 40
0.0
 40
0.0
 40
0.2548993649
 40
1.0
 40
1.0
 40
1.0
 40
1.0
 10
111.6664483944
 20
107.1183564014
 30
0.0
 10
111.6610382761
 20
107.1183563884
 30
0.0
 10
111.6398229691
 20
107.1190264646
 30
0.0
 10
111.6186588612
 20
107.1222942375
 30
0.0
 10
111.6033817754
 20
107.1263815527
 30
0.0
  0
SPLINE
  5
51E
100
AcDbEntity
  8
2
100
AcDbSpline
 62
7
  6
CONTINUOUS
 70
0
 71
3
 72
9
 73
5
 74
0
 42
0.0000001
 43
0.0000001
 44
0.0000000001
 40
0.0
 40
0.0
 40
0.0
 40
0.0
 40
0.2605912122
 40
1.0
 40
1.0
 40
1.0
 40
1.0
 10
111.5914483107
 20
107.1299585957
 30
0.0
 10
111.5886459244
 20
107.130893326
 30
0.0
 10
111.5779764082
 20
107.1347224177
 30
0.0
 10
111.5676414593
 20
107.1395300368
 30
0.0
 10
111.5603821943
 20
107.1437210807
 30
0.0
  0
SPLINE
  5
51F
100
AcDbEntity
  8
2
100
AcDbSpline
 62
7
  6
CONTINUOUS
 70
0
 71
3
 72
14
 73
10
 74
0
 42
0.0000001
 43
0.0000001
 44
0.0000000001
 40
0.0
 40
0.0
 40
0.0
 40
0.0
 40
0.417523643
 40
0.5905011388
 40
0.7352393203
 40
0.8497687141
 40
0.9328038909
 40
0.9830935281
 40
1.0
 40
1.0
 40
1.0
 40
1.0
 10
115.8412661804
 20
107.0762936311
 30
0.0
 10
115.8411327866
 20
107.0674692064
 30
0.0
 10
115.8409424039
 20
107.0549737555
 30
0.0
 10
115.8406186782
 20
107.039470257
 30
0.0
 10
115.8404779513
 20
107.0302604524
 30
0.0
 10
115.8401407926
 20
107.0232263643
 30
0.0
 10
115.8403268198
 20
107.0175309598
 30
0.0
 10
115.8395641281
 20
107.0151734044
 30
0.0
 10
115.8401117348
 20
107.0129060352
 30
0.0
 10
115.8397543746
 20
107.0129070359
 30
0.0
  0
SPLINE
  5
520
100
AcDbEntity
  8
2
100
AcDbSpline
 62
7
  6
CONTINUOUS
 70
0
 71
3
 72
9
 73
5
 74
0
 42
0.0000001
 43
0.0000001
 44
0.0000000001
 40
0.0
 40
0.0
 40
0.0
 40
0.0
 40
0.2330707554
 40
1.0
 40
1.0
 40
1.0
 40
1.0
 10
115.9454647607
 20
107.1005994204
 30
0.0
 10
115.940726331
 20
107.0979575689
 30
0.0
 10
115.9197593215
 20
107.0877724639
 30
0.0
 10
115.89689713
 20
107.0817799441
 30
0.0
 10
115.8792454352
 20
107.0791156069
 30
0.0
  0
SPLINE
  5
521
100
AcDbEntity
  8
2
100
AcDbSpline
 62
7
  6
CONTINUOUS
 70
0
 71
3
 72
9
 73
5
 74
0
 42
0.0000001
 43
0.0000001
 44
0.0000000001
 40
0.0
 40
0.0
 40
0.0
 40
0.0
 40
0.2362806677
 40
1.0
 40
1.0
 40
1.0
 40
1.0
 10
102.0823405152
 20
112.7360819382
 30
0.0
 10
102.079286979
 20
112.7343189888
 30
0.0
 10
102.0660735181
 20
112.7273632433
 30
0.0
 10
102.0519147825
 20
112.7222801028
 30
0.0
 10
102.0409155539
 20
112.7192966964
 30
0.0
  0
SPLINE
  5
522
100
AcDbEntity
  8
2
100
AcDbSpline
 62
7
  6
CONTINUOUS
 70
0
 71
3
 72
9
 73
5
 74
0
 42
0.0000001
 43
0.0000001
 44
0.0000000001
 40
0.0
 40
0.0
 40
0.0
 40
0.0
 40
0.2432680767
 40
1.0
 40
1.0
 40
1.0
 40
1.0
 10
102.0409155539
 20
112.7192966964
 30
0.0
 10
102.0358097905
 20
112.7179118205
 30
0.0
 10
102.014606541
 20
112.7130298742
 30
0.0
 10
101.9927349074
 20
112.7111750149
 30
0.0
 10
101.9762794125
 20
112.7113400737
 30
0.0
  0
SPLINE
  5
523
100
AcDbEntity
  8
2
100
AcDbSpline
 62
7
  6
CONTINUOUS
 70
0
 71
3
 72
9
 73
5
 74
0
 42
0.0000001
 43
0.0000001
 44
0.0000000001
 40
0.0
 40
0.0
 40
0.0
 40
0.0
 40
0.2550476526
 40
1.0
 40
1.0
 40
1.0
 40
1.0
 10
101.9762794125
 20
112.7113400737
 30
0.0
 10
101.9706521115
 20
112.711396519
 30
0.0
 10
101.9486068917
 20
112.7123543006
 30
0.0
 10
101.9266464338
 20
112.7161602619
 30
0.0
 10
101.9108826492
 20
112.7208171141
 30
0.0
  0
SPLINE
  5
524
100
AcDbEntity
  8
2
100
AcDbSpline
 62
7
  6
CONTINUOUS
 70
0
 71
3
 72
9
 73
5
 74
0
 42
0.0000001
 43
0.0000001
 44
0.0000000001
 40
0.0
 40
0.0
 40
0.0
 40
0.0
 40
0.2626405033
 40
1.0
 40
1.0
 40
1.0
 40
1.0
 10
101.9108826492
 20
112.7208171141
 30
0.0
 10
101.9071645762
 20
112.7219154872
 30
0.0
 10
101.8931318366
 20
112.7264883584
 30
0.0
 10
101.8795682438
 20
112.7326268543
 30
0.0
 10
101.8702246353
 20
112.7382095916
 30
0.0
  0
SPLINE
  5
525
100
AcDbEntity
  8
2
100
AcDbSpline
 62
7
  6
CONTINUOUS
 70
0
 71
3
 72
9
 73
5
 74
0
 42
0.0000001
 43
0.0000001
 44
0.0000000001
 40
0.0
 40
0.0
 40
0.0
 40
0.0
 40
0.2364079103
 40
1.0
 40
1.0
 40
1.0
 40
1.0
 10
96.77848183
 20
151.8531575638
 30
0.0
 10
96.77848183
 20
151.8565921875
 30
0.0
 10
96.7790249074
 20
151.8711192186
 30
0.0
 10
96.7815224589
 20
151.885541302
 30
0.0
 10
96.784246568
 20
151.8962954004
 30
0.0
  0
SPLINE
  5
526
100
AcDbEntity
  8
2
100
AcDbSpline
 62
7
  6
CONTINUOUS
 70
0
 71
3
 72
9
 73
5
 74
0
 42
0.0000001
 43
0.0000001
 44
0.0000000001
 40
0.0
 40
0.0
 40
0.0
 40
0.0
 40
0.2431254879
 40
1.0
 40
1.0
 40
1.0
 40
1.0
 10
96.784246568
 20
151.8962954004
 30
0.0
 10
96.7855445316
 20
151.9014194347
 30
0.0
 10
96.7916824345
 20
151.9222879775
 30
0.0
 10
96.8007402973
 20
151.9422691159
 30
0.0
 10
96.8088960861
 20
151.9565612543
 30
0.0
  0
SPLINE
  5
527
100
AcDbEntity
  8
2
100
AcDbSpline
 62
7
  6
CONTINUOUS
 70
0
 71
3
 72
9
 73
5
 74
0
 42
0.0000001
 43
0.0000001
 44
0.0000000001
 40
0.0
 40
0.0
 40
0.0
 40
0.0
 40
0.2547551842
 40
1.0
 40
1.0
 40
1.0
 40
1.0
 10
96.8088960861
 20
151.9565612543
 30
0.0
 10
96.8115847366
 20
151.9612728236
 30
0.0
 10
96.8227191998
 20
151.9794251457
 30
0.0
 10
96.8360917328
 20
151.996242376
 30
0.0
 10
96.8472585309
 20
152.0075177149
 30
0.0
  0
SPLINE
  5
528
100
AcDbEntity
  8
2
100
AcDbSpline
 62
7
  6
CONTINUOUS
 70
0
 71
3
 72
9
 73
5
 74
0
 42
0.0000001
 43
0.0000001
 44
0.0000000001
 40
0.0
 40
0.0
 40
0.0
 40
0.0
 40
0.2628900105
 40
1.0
 40
1.0
 40
1.0
 40
1.0
 10
96.8472585309
 20
152.0075177149
 30
0.0
 10
96.8500575949
 20
152.0103439856
 30
0.0
 10
96.8609979007
 20
152.0207928585
 30
0.0
 10
96.8731220447
 20
152.0300615251
 30
0.0
 10
96.882696306
 20
152.0357821695
 30
0.0
  0
SPLINE
  5
529
100
AcDbEntity
  8
2
100
AcDbSpline
 62
7
  6
CONTINUOUS
 70
0
 71
3
 72
9
 73
5
 74
0
 42
0.0000001
 43
0.0000001
 44
0.0000000001
 40
0.0
 40
0.0
 40
0.0
 40
0.0
 40
0.5000011079
 40
1.0
 40
1.0
 40
1.0
 40
1.0
 10
102.0823405152
 20
148.9156523146
 30
0.0
 10
102.0812531474
 20
148.9516131811
 30
0.0
 10
102.0552442162
 20
149.0219463765
 30
0.0
 10
102.0056012332
 20
149.0781496892
 30
0.0
 10
101.9744391114
 20
149.096129594
 30
0.0
  0
SPLINE
  5
52A
100
AcDbEntity
  8
2
100
AcDbSpline
 62
7
  6
CONTINUOUS
 70
0
 71
3
 72
9
 73
5
 74
0
 42
0.0000001
 43
0.0000001
 44
0.0000000001
 40
0.0
 40
0.0
 40
0.0
 40
0.0
 40
0.4988588655
 40
1.0
 40
1.0
 40
1.0
 40
1.0
 10
101.8702246353
 20
148.9135049884
 30
0.0
 10
101.9018771795
 20
148.8958687676
 30
0.0
 10
101.9765515887
 20
148.8826596362
 30
0.0
 10
102.0508171378
 20
148.8974523928
 30
0.0
 10
102.0823405152
 20
148.9156523146
 30
0.0
  0
SPLINE
  5
52B
100
AcDbEntity
  8
2
100
AcDbSpline
 62
7
  6
CONTINUOUS
 70
0
 71
3
 72
9
 73
5
 74
0
 42
0.0000001
 43
0.0000001
 44
0.0000000001
 40
0.0
 40
0.0
 40
0.0
 40
0.0
 40
0.5011255058
 40
1.0
 40
1.0
 40
1.0
 40
1.0
 10
101.9744391114
 20
149.096129594
 30
0.0
 10
101.9434580633
 20
149.0776183427
 30
0.0
 10
101.8946012209
 20
149.020580306
 30
0.0
 10
101.8702246353
 20
148.9494329258
 30
0.0
 10
101.8702246353
 20
148.9135049884
 30
0.0
  0
SPLINE
  5
52C
100
AcDbEntity
  8
2
100
AcDbSpline
 62
7
  6
CONTINUOUS
 70
0
 71
3
 72
9
 73
5
 74
0
 42
0.0000001
 43
0.0000001
 44
0.0000000001
 40
0.0
 40
0.0
 40
0.0
 40
0.0
 40
0.2360948092
 40
1.0
 40
1.0
 40
1.0
 40
1.0
 10
102.4692609882
 20
149.3919640413
 30
0.0
 10
102.4722914694
 20
149.3902155159
 30
0.0
 10
102.4848491157
 20
149.3823300337
 30
0.0
 10
102.4963209555
 20
149.3727767641
 30
0.0
 10
102.5044441551
 20
149.3648921871
 30
0.0
  0
SPLINE
  5
52D
100
AcDbEntity
  8
2
100
AcDbSpline
 62
7
  6
CONTINUOUS
 70
0
 71
3
 72
9
 73
5
 74
0
 42
0.0000001
 43
0.0000001
 44
0.0000000001
 40
0.0
 40
0.0
 40
0.0
 40
0.0
 40
0.2434028331
 40
1.0
 40
1.0
 40
1.0
 40
1.0
 10
102.5044441551
 20
149.3648921871
 30
0.0
 10
102.5081970401
 20
149.3612495448
 30
0.0
 10
102.5230640874
 20
149.345722233
 30
0.0
 10
102.5358151944
 20
149.3282019311
 30
0.0
 10
102.5441574794
 20
149.3142485217
 30
0.0
  0
SPLINE
  5
52E
100
AcDbEntity
  8
2
100
AcDbSpline
 62
7
  6
CONTINUOUS
 70
0
 71
3
 72
9
 73
5
 74
0
 42
0.0000001
 43
0.0000001
 44
0.0000000001
 40
0.0
 40
0.0
 40
0.0
 40
0.0
 40
0.2556011989
 40
1.0
 40
1.0
 40
1.0
 40
1.0
 10
102.5441574794
 20
149.3142485217
 30
0.0
 10
102.5470783743
 20
149.3093629965
 30
0.0
 10
102.557876687
 20
149.2898859955
 30
0.0
 10
102.5662393098
 20
149.2690113688
 30
0.0
 10
102.5706038112
 20
149.2530188786
 30
0.0
  0
SPLINE
  5
52F
100
AcDbEntity
  8
2
100
AcDbSpline
 62
7
  6
CONTINUOUS
 70
0
 71
3
 72
9
 73
5
 74
0
 42
0.0000001
 43
0.0000001
 44
0.0000000001
 40
0.0
 40
0.0
 40
0.0
 40
0.0
 40
0.2627854962
 40
1.0
 40
1.0
 40
1.0
 40
1.0
 10
102.5706038112
 20
149.2530188786
 30
0.0
 10
102.5715747015
 20
149.2494613234
 30
0.0
 10
102.574915671
 20
149.2358339382
 30
0.0
 10
102.5768497186
 20
149.2218273385
 30
0.0
 10
102.5771623921
 20
149.211486762
 30
0.0
  0
SPLINE
  5
530
100
AcDbEntity
  8
2
100
AcDbSpline
 62
7
  6
CONTINUOUS
 70
0
 71
3
 72
9
 73
5
 74
0
 42
0.0000001
 43
0.0000001
 44
0.0000000001
 40
0.0
 40
0.0
 40
0.0
 40
0.0
 40
0.2359220441
 40
1.0
 40
1.0
 40
1.0
 40
1.0
 10
106.3275808152
 20
187.1652282725
 30
0.0
 10
106.3275808152
 20
187.1688391499
 30
0.0
 10
106.3281822726
 20
187.1841429677
 30
0.0
 10
106.3309357104
 20
187.1993249494
 30
0.0
 10
106.3339320948
 20
187.2106290708
 30
0.0
  0
SPLINE
  5
531
100
AcDbEntity
  8
2
100
AcDbSpline
 62
7
  6
CONTINUOUS
 70
0
 71
3
 72
9
 73
5
 74
0
 42
0.0000001
 43
0.0000001
 44
0.0000000001
 40
0.0
 40
0.0
 40
0.0
 40
0.0
 40
0.2436211959
 40
1.0
 40
1.0
 40
1.0
 40
1.0
 10
106.3339320948
 20
187.2106290708
 30
0.0
 10
106.3352407604
 20
187.215566126
 30
0.0
 10
106.3413468948
 20
187.2356323848
 30
0.0
 10
106.3501356001
 20
187.2548590889
 30
0.0
 10
106.3579950714
 20
187.268631963
 30
0.0
  0
SPLINE
  5
532
100
AcDbEntity
  8
2
100
AcDbSpline
 62
7
  6
CONTINUOUS
 70
0
 71
3
 72
9
 73
5
 74
0
 42
0.0000001
 43
0.0000001
 44
0.0000000001
 40
0.0
 40
0.0
 40
0.0
 40
0.0
 40
0.2551471735
 40
1.0
 40
1.0
 40
1.0
 40
1.0
 10
106.3579950714
 20
187.268631963
 30
0.0
 10
106.3607875224
 20
187.2735254315
 30
0.0
 10
106.3723566598
 20
187.2923354544
 30
0.0
 10
106.3863351987
 20
187.3097087615
 30
0.0
 10
106.3980378454
 20
187.3212664431
 30
0.0
  0
SPLINE
  5
533
100
AcDbEntity
  8
2
100
AcDbSpline
 62
7
  6
CONTINUOUS
 70
0
 71
3
 72
9
 73
5
 74
0
 42
0.0000001
 43
0.0000001
 44
0.0000000001
 40
0.0
 40
0.0
 40
0.0
 40
0.0
 40
0.2624858699
 40
1.0
 40
1.0
 40
1.0
 40
1.0
 10
106.3980378454
 20
187.3212664431
 30
0.0
 10
106.4007162826
 20
187.3239117015
 30
0.0
 10
106.4111833392
 20
187.3337131366
 30
0.0
 10
106.4227154205
 20
187.3424276334
 30
0.0
 10
106.4317952913
 20
187.3478528781
 30
0.0
  0
SPLINE
  5
534
100
AcDbEntity
  8
2
100
AcDbSpline
 62
7
  6
CONTINUOUS
 70
0
 71
3
 72
9
 73
5
 74
0
 42
0.0000001
 43
0.0000001
 44
0.0000000001
 40
0.0
 40
0.0
 40
0.0
 40
0.0
 40
0.254847545
 40
1.0
 40
1.0
 40
1.0
 40
1.0
 10
111.6664483944
 20
184.1187726547
 30
0.0
 10
111.6661813286
 20
184.1364399135
 30
0.0
 10
111.6653017158
 20
184.2057668623
 30
0.0
 10
111.6646104327
 20
184.2750984838
 30
0.0
 10
111.6645966703
 20
184.3267619395
 30
0.0
  0
SPLINE
  5
535
100
AcDbEntity
  8
2
100
AcDbSpline
 62
7
  6
CONTINUOUS
 70
0
 71
3
 72
9
 73
5
 74
0
 42
0.0000001
 43
0.0000001
 44
0.0000000001
 40
0.0
 40
0.0
 40
0.0
 40
0.0
 40
0.2291140225
 40
1.0
 40
1.0
 40
1.0
 40
1.0
 10
111.5603821943
 20
184.1441373339
 30
0.0
 10
111.5676414593
 20
184.1399462901
 30
0.0
 10
111.6009336924
 20
184.1244805858
 30
0.0
 10
111.6382452168
 20
184.1187725869
 30
0.0
 10
111.6664483944
 20
184.1187726547
 30
0.0
  0
SPLINE
  5
536
100
AcDbEntity
  8
2
100
AcDbSpline
 62
7
  6
CONTINUOUS
 70
0
 71
3
 72
9
 73
5
 74
0
 42
0.0000001
 43
0.0000001
 44
0.0000000001
 40
0.0
 40
0.0
 40
0.0
 40
0.0
 40
0.5011255058
 40
1.0
 40
1.0
 40
1.0
 40
1.0
 10
111.6645966703
 20
184.3267619395
 30
0.0
 10
111.6336156223
 20
184.3082506882
 30
0.0
 10
111.5847587799
 20
184.2512126515
 30
0.0
 10
111.5603821943
 20
184.1800652713
 30
0.0
 10
111.5603821943
 20
184.1441373339
 30
0.0
  0
SPLINE
  5
537
100
AcDbEntity
  8
2
100
AcDbSpline
 62
7
  6
CONTINUOUS
 70
0
 71
3
 72
9
 73
5
 74
0
 42
0.0000001
 43
0.0000001
 44
0.0000000001
 40
0.0
 40
0.0
 40
0.0
 40
0.0
 40
0.2443151864
 40
1.0
 40
1.0
 40
1.0
 40
1.0
 10
101.9781120357
 20
153.6565523996
 30
0.0
 10
101.9672630909
 20
153.662817726
 30
0.0
 10
101.9253169159
 20
153.6926671639
 30
0.0
 10
101.8925482868
 20
153.7341192606
 30
0.0
 10
101.8733423311
 20
153.7677752495
 30
0.0
  0
SPLINE
  5
538
100
AcDbEntity
  8
2
100
AcDbSpline
 62
7
  6
CONTINUOUS
 70
0
 71
3
 72
13
 73
9
 74
0
 42
0.0000001
 43
0.0000001
 44
0.0000000001
 40
0.0
 40
0.0
 40
0.0
 40
0.0
 40
0.0207165327
 40
0.0763645798
 40
0.1639485812
 40
0.2809410149
 40
0.5937162687
 40
1.0
 40
1.0
 40
1.0
 40
1.0
 10
106.2818179323
 20
151.1718685048
 30
0.0
 10
106.281818902
 20
151.1722138618
 30
0.0
 10
106.2834261614
 20
151.1727150286
 30
0.0
 10
106.285225772
 20
151.1743924467
 30
0.0
 10
106.2891708273
 20
151.1765820341
 30
0.0
 10
106.2963748303
 20
151.1811513816
 30
0.0
 10
106.3084038594
 20
151.1883243099
 30
0.0
 10
106.3186494077
 20
151.1945027563
 30
0.0
 10
106.3244631195
 20
151.1979776008
 30
0.0
  0
SPLINE
  5
539
100
AcDbEntity
  8
2
100
AcDbSpline
 62
7
  6
CONTINUOUS
 70
0
 71
3
 72
9
 73
5
 74
0
 42
0.0000001
 43
0.0000001
 44
0.0000000001
 40
0.0
 40
0.0
 40
0.0
 40
0.0
 40
0.2445918917
 40
1.0
 40
1.0
 40
1.0
 40
1.0
 10
106.2818396705
 20
187.1094029133
 30
0.0
 10
106.2816476433
 20
187.0967115778
 30
0.0
 10
106.2858562677
 20
187.0447767135
 30
0.0
 10
106.3050338608
 20
186.9948307701
 30
0.0
 10
106.3244631195
 20
186.960783471
 30
0.0
  0
SPLINE
  5
53A
100
AcDbEntity
  8
2
100
AcDbSpline
 62
7
  6
CONTINUOUS
 70
0
 71
3
 72
14
 73
10
 74
0
 42
0.0000001
 43
0.0000001
 44
0.0000000001
 40
0.0
 40
0.0
 40
0.0
 40
0.0
 40
0.0169064719
 40
0.0671961091
 40
0.1502312859
 40
0.2647606797
 40
0.4094988612
 40
0.582476357
 40
1.0
 40
1.0
 40
1.0
 40
1.0
 10
111.6649365886
 20
147.8800906626
 30
0.0
 10
111.6652939488
 20
147.8800896619
 30
0.0
 10
111.6647463421
 20
147.8823570312
 30
0.0
 10
111.6655090339
 20
147.8847145866
 30
0.0
 10
111.6653230066
 20
147.890409991
 30
0.0
 10
111.6656601653
 20
147.8974440791
 30
0.0
 10
111.6658008922
 20
147.9066538838
 30
0.0
 10
111.6661246179
 20
147.9221573823
 30
0.0
 10
111.6663150007
 20
147.9346528332
 30
0.0
 10
111.6664483944
 20
147.9434772579
 30
0.0
  0
SPLINE
  5
53B
100
AcDbEntity
  8
2
100
AcDbSpline
 62
7
  6
CONTINUOUS
 70
0
 71
3
 72
13
 73
9
 74
0
 42
0.0000001
 43
0.0000001
 44
0.0000000001
 40
0.0
 40
0.0
 40
0.0
 40
0.0
 40
0.0162771657
 40
0.0647173917
 40
0.1450198921
 40
0.2566496724
 40
0.5713638791
 40
1.0
 40
1.0
 40
1.0
 40
1.0
 10
116.5646219538
 20
184.8159458507
 30
0.0
 10
116.5644668777
 20
184.8159527951
 30
0.0
 10
116.5646581681
 20
184.8149588467
 30
0.0
 10
116.5643669356
 20
184.8139402272
 30
0.0
 10
116.5644453757
 20
184.8114440976
 30
0.0
 10
116.5642977674
 20
184.806735525
 30
0.0
 10
116.5643108426
 20
184.7984900848
 30
0.0
 10
116.5642816727
 20
184.7914332427
 30
0.0
 10
116.5642827616
 20
184.7873454411
 30
0.0
  0
SPLINE
  5
53C
100
AcDbEntity
  8
2
100
AcDbSpline
 62
7
  6
CONTINUOUS
 70
0
 71
3
 72
9
 73
5
 74
0
 42
0.0000001
 43
0.0000001
 44
0.0000000001
 40
0.0
 40
0.0
 40
0.0
 40
0.0
 40
0.5522160321
 40
1.0
 40
1.0
 40
1.0
 40
1.0
 10
116.6703330659
 20
184.6036619455
 30
0.0
 10
116.6832141868
 20
184.6108437027
 30
0.0
 10
116.7053581737
 20
184.6272548316
 30
0.0
 10
116.7161547013
 20
184.6539986108
 30
0.0
 10
116.7161320684
 20
184.6659574574
 30
0.0
  0
SPLINE
  5
53D
100
AcDbEntity
  8
2
100
AcDbSpline
 62
7
  6
CONTINUOUS
 70
0
 71
3
 72
9
 73
5
 74
0
 42
0.0000001
 43
0.0000001
 44
0.0000000001
 40
0.0
 40
0.0
 40
0.0
 40
0.0
 40
0.2315671867
 40
1.0
 40
1.0
 40
1.0
 40
1.0
 10
116.5642827616
 20
184.7873454411
 30
0.0
 10
116.5689345945
 20
184.7845627064
 30
0.0
 10
116.5883322943
 20
184.771397777
 30
0.0
 10
116.6050074114
 20
184.7544664598
 30
0.0
 10
116.6162348895
 20
184.7404128185
 30
0.0
  0
SPLINE
  5
53E
100
AcDbEntity
  8
2
100
AcDbSpline
 62
7
  6
CONTINUOUS
 70
0
 71
3
 72
9
 73
5
 74
0
 42
0.0000001
 43
0.0000001
 44
0.0000000001
 40
0.0
 40
0.0
 40
0.0
 40
0.0
 40
0.2554414047
 40
1.0
 40
1.0
 40
1.0
 40
1.0
 10
116.6414819278
 20
184.7024223241
 30
0.0
 10
116.6439115147
 20
184.6979868551
 30
0.0
 10
116.6529257791
 20
184.6803590937
 30
0.0
 10
116.6599867973
 20
184.6617024963
 30
0.0
 10
116.6638015761
 20
184.6474636814
 30
0.0
  0
SPLINE
  5
53F
100
AcDbEntity
  8
2
100
AcDbSpline
 62
7
  6
CONTINUOUS
 70
0
 71
3
 72
9
 73
5
 74
0
 42
0.0000001
 43
0.0000001
 44
0.0000000001
 40
0.0
 40
0.0
 40
0.0
 40
0.0
 40
0.263655593
 40
1.0
 40
1.0
 40
1.0
 40
1.0
 10
116.6638015761
 20
184.6474636814
 30
0.0
 10
116.6648101467
 20
184.6436991514
 30
0.0
 10
116.6682496178
 20
184.6293260247
 30
0.0
 10
116.6701642847
 20
184.614545104
 30
0.0
 10
116.6703330659
 20
184.6036619455
 30
0.0
  0
SPLINE
  5
540
100
AcDbEntity
  8
2
100
AcDbSpline
 62
7
  6
CONTINUOUS
 70
0
 71
3
 72
9
 73
5
 74
0
 42
0.0000001
 43
0.0000001
 44
0.0000000001
 40
0.0
 40
0.0
 40
0.0
 40
0.0
 40
0.2046314557
 40
1.0
 40
1.0
 40
1.0
 40
1.0
 10
115.8394144563
 20
184.3688447799
 30
0.0
 10
115.8394182357
 20
184.3546571142
 30
0.0
 10
115.8397296981
 20
184.2853247752
 30
0.0
 10
115.8404326789
 20
184.215994302
 30
0.0
 10
115.8412661804
 20
184.160855495
 30
0.0
  0
SPLINE
  5
541
100
AcDbEntity
  8
2
100
AcDbSpline
 62
7
  6
CONTINUOUS
 70
0
 71
3
 72
9
 73
5
 74
0
 42
0.0000001
 43
0.0000001
 44
0.0000000001
 40
0.0
 40
0.0
 40
0.0
 40
0.0
 40
0.4999997576
 40
1.0
 40
1.0
 40
1.0
 40
1.0
 10
115.9454647607
 20
184.1851612843
 30
0.0
 10
115.9449069037
 20
184.2214352883
 30
0.0
 10
115.9195242067
 20
184.2926416637
 30
0.0
 10
115.8705475382
 20
184.3502209151
 30
0.0
 10
115.8394144563
 20
184.3688447799
 30
0.0
  0
SPLINE
  5
542
100
AcDbEntity
  8
2
100
AcDbSpline
 62
7
  6
CONTINUOUS
 70
0
 71
3
 72
9
 73
5
 74
0
 42
0.0000001
 43
0.0000001
 44
0.0000000001
 40
0.0
 40
0.0
 40
0.0
 40
0.0
 40
0.2663785888
 40
1.0
 40
1.0
 40
1.0
 40
1.0
 10
115.8412661804
 20
184.160855495
 30
0.0
 10
115.8508186815
 20
184.160855518
 30
0.0
 10
115.8865757141
 20
184.1628422005
 30
0.0
 10
115.9224867152
 20
184.1723500976
 30
0.0
 10
115.9454647607
 20
184.1851612843
 30
0.0
  0
SPLINE
  5
543
100
AcDbEntity
  8
2
100
AcDbSpline
 62
7
  6
CONTINUOUS
 70
0
 71
3
 72
9
 73
5
 74
0
 42
0.0000001
 43
0.0000001
 44
0.0000000001
 40
0.0
 40
0.0
 40
0.0
 40
0.0
 40
0.2548993649
 40
1.0
 40
1.0
 40
1.0
 40
1.0
 10
111.6664483944
 20
147.9434772579
 30
0.0
 10
111.6610382761
 20
147.9434772449
 30
0.0
 10
111.6398229691
 20
147.9441473211
 30
0.0
 10
111.6186588612
 20
147.947415094
 30
0.0
 10
111.6033817754
 20
147.9515024092
 30
0.0
  0
SPLINE
  5
544
100
AcDbEntity
  8
2
100
AcDbSpline
 62
7
  6
CONTINUOUS
 70
0
 71
3
 72
9
 73
5
 74
0
 42
0.0000001
 43
0.0000001
 44
0.0000000001
 40
0.0
 40
0.0
 40
0.0
 40
0.0
 40
0.2605912122
 40
1.0
 40
1.0
 40
1.0
 40
1.0
 10
111.5914483107
 20
147.9550794521
 30
0.0
 10
111.5886459244
 20
147.9560141825
 30
0.0
 10
111.5779764082
 20
147.9598432741
 30
0.0
 10
111.5676414593
 20
147.9646508933
 30
0.0
 10
111.5603821943
 20
147.9688419371
 30
0.0
  0
SPLINE
  5
545
100
AcDbEntity
  8
2
100
AcDbSpline
 62
7
  6
CONTINUOUS
 70
0
 71
3
 72
14
 73
10
 74
0
 42
0.0000001
 43
0.0000001
 44
0.0000000001
 40
0.0
 40
0.0
 40
0.0
 40
0.0
 40
0.417523643
 40
0.5905011388
 40
0.7352393203
 40
0.8497687141
 40
0.9328038909
 40
0.9830935281
 40
1.0
 40
1.0
 40
1.0
 40
1.0
 10
115.8412661804
 20
147.9014144876
 30
0.0
 10
115.8411327866
 20
147.8925900629
 30
0.0
 10
115.8409424039
 20
147.880094612
 30
0.0
 10
115.8406186782
 20
147.8645911135
 30
0.0
 10
115.8404779513
 20
147.8553813089
 30
0.0
 10
115.8401407926
 20
147.8483472208
 30
0.0
 10
115.8403268198
 20
147.8426518163
 30
0.0
 10
115.8395641281
 20
147.8402942609
 30
0.0
 10
115.8401117348
 20
147.8380268916
 30
0.0
 10
115.8397543746
 20
147.8380278924
 30
0.0
  0
SPLINE
  5
546
100
AcDbEntity
  8
2
100
AcDbSpline
 62
7
  6
CONTINUOUS
 70
0
 71
3
 72
9
 73
5
 74
0
 42
0.0000001
 43
0.0000001
 44
0.0000000001
 40
0.0
 40
0.0
 40
0.0
 40
0.0
 40
0.2330707554
 40
1.0
 40
1.0
 40
1.0
 40
1.0
 10
115.9454647607
 20
147.9257202769
 30
0.0
 10
115.940726331
 20
147.9230784254
 30
0.0
 10
115.9197593215
 20
147.9128933204
 30
0.0
 10
115.89689713
 20
147.9069008006
 30
0.0
 10
115.8792454352
 20
147.9042364633
 30
0.0
  0
SPLINE
  5
547
100
AcDbEntity
  8
2
100
AcDbSpline
 62
7
  6
CONTINUOUS
 70
0
 71
3
 72
9
 73
5
 74
0
 42
0.0000001
 43
0.0000001
 44
0.0000000001
 40
0.0
 40
0.0
 40
0.0
 40
0.0
 40
0.2362806677
 40
1.0
 40
1.0
 40
1.0
 40
1.0
 10
102.0823405152
 20
153.5612027947
 30
0.0
 10
102.079286979
 20
153.5594398452
 30
0.0
 10
102.0660735181
 20
153.5524840998
 30
0.0
 10
102.0519147825
 20
153.5474009593
 30
0.0
 10
102.0409155539
 20
153.5444175529
 30
0.0
  0
SPLINE
  5
548
100
AcDbEntity
  8
2
100
AcDbSpline
 62
7
  6
CONTINUOUS
 70
0
 71
3
 72
9
 73
5
 74
0
 42
0.0000001
 43
0.0000001
 44
0.0000000001
 40
0.0
 40
0.0
 40
0.0
 40
0.0
 40
0.2432680767
 40
1.0
 40
1.0
 40
1.0
 40
1.0
 10
102.0409155539
 20
153.5444175529
 30
0.0
 10
102.0358097905
 20
153.543032677
 30
0.0
 10
102.014606541
 20
153.5381507307
 30
0.0
 10
101.9927349074
 20
153.5362958714
 30
0.0
 10
101.9762794125
 20
153.5364609301
 30
0.0
  0
SPLINE
  5
549
100
AcDbEntity
  8
2
100
AcDbSpline
 62
7
  6
CONTINUOUS
 70
0
 71
3
 72
9
 73
5
 74
0
 42
0.0000001
 43
0.0000001
 44
0.0000000001
 40
0.0
 40
0.0
 40
0.0
 40
0.0
 40
0.2550476526
 40
1.0
 40
1.0
 40
1.0
 40
1.0
 10
101.9762794125
 20
153.5364609301
 30
0.0
 10
101.9706521115
 20
153.5365173755
 30
0.0
 10
101.9486068917
 20
153.5374751571
 30
0.0
 10
101.9266464338
 20
153.5412811184
 30
0.0
 10
101.9108826492
 20
153.5459379706
 30
0.0
  0
SPLINE
  5
54A
100
AcDbEntity
  8
2
100
AcDbSpline
 62
7
  6
CONTINUOUS
 70
0
 71
3
 72
9
 73
5
 74
0
 42
0.0000001
 43
0.0000001
 44
0.0000000001
 40
0.0
 40
0.0
 40
0.0
 40
0.0
 40
0.2626405033
 40
1.0
 40
1.0
 40
1.0
 40
1.0
 10
101.9108826492
 20
153.5459379706
 30
0.0
 10
101.9071645762
 20
153.5470363437
 30
0.0
 10
101.8931318366
 20
153.5516092149
 30
0.0
 10
101.8795682438
 20
153.5577477107
 30
0.0
 10
101.8702246353
 20
153.5633304481
 30
0.0
  0
SPLINE
  5
54B
100
AcDbEntity
  8
2
100
AcDbSpline
 62
7
  6
CONTINUOUS
 70
0
 71
3
 72
9
 73
5
 74
0
 42
0.0000001
 43
0.0000001
 44
0.0000000001
 40
0.0
 40
0.0
 40
0.0
 40
0.0
 40
0.2364079103
 40
1.0
 40
1.0
 40
1.0
 40
1.0
 10
96.77848183
 20
192.6782784203
 30
0.0
 10
96.77848183
 20
192.681713044
 30
0.0
 10
96.7790249074
 20
192.696240075
 30
0.0
 10
96.7815224589
 20
192.7106621585
 30
0.0
 10
96.784246568
 20
192.7214162569
 30
0.0
  0
SPLINE
  5
54C
100
AcDbEntity
  8
2
100
AcDbSpline
 62
7
  6
CONTINUOUS
 70
0
 71
3
 72
9
 73
5
 74
0
 42
0.0000001
 43
0.0000001
 44
0.0000000001
 40
0.0
 40
0.0
 40
0.0
 40
0.0
 40
0.2431254879
 40
1.0
 40
1.0
 40
1.0
 40
1.0
 10
96.784246568
 20
192.7214162569
 30
0.0
 10
96.7855445316
 20
192.7265402911
 30
0.0
 10
96.7916824345
 20
192.7474088339
 30
0.0
 10
96.8007402973
 20
192.7673899724
 30
0.0
 10
96.8088960861
 20
192.7816821108
 30
0.0
  0
SPLINE
  5
54D
100
AcDbEntity
  8
2
100
AcDbSpline
 62
7
  6
CONTINUOUS
 70
0
 71
3
 72
9
 73
5
 74
0
 42
0.0000001
 43
0.0000001
 44
0.0000000001
 40
0.0
 40
0.0
 40
0.0
 40
0.0
 40
0.2547551842
 40
1.0
 40
1.0
 40
1.0
 40
1.0
 10
96.8088960861
 20
192.7816821108
 30
0.0
 10
96.8115847366
 20
192.7863936801
 30
0.0
 10
96.8227191998
 20
192.8045460021
 30
0.0
 10
96.8360917328
 20
192.8213632324
 30
0.0
 10
96.8472585309
 20
192.8326385713
 30
0.0
  0
SPLINE
  5
54E
100
AcDbEntity
  8
2
100
AcDbSpline
 62
7
  6
CONTINUOUS
 70
0
 71
3
 72
9
 73
5
 74
0
 42
0.0000001
 43
0.0000001
 44
0.0000000001
 40
0.0
 40
0.0
 40
0.0
 40
0.0
 40
0.2628900105
 40
1.0
 40
1.0
 40
1.0
 40
1.0
 10
96.8472585309
 20
192.8326385713
 30
0.0
 10
96.8500575949
 20
192.8354648421
 30
0.0
 10
96.8609979007
 20
192.845913715
 30
0.0
 10
96.8731220447
 20
192.8551823816
 30
0.0
 10
96.882696306
 20
192.8609030259
 30
0.0
  0
SPLINE
  5
54F
100
AcDbEntity
  8
2
100
AcDbSpline
 62
7
  6
CONTINUOUS
 70
0
 71
3
 72
9
 73
5
 74
0
 42
0.0000001
 43
0.0000001
 44
0.0000000001
 40
0.0
 40
0.0
 40
0.0
 40
0.0
 40
0.5000011079
 40
1.0
 40
1.0
 40
1.0
 40
1.0
 10
102.0823405152
 20
189.7407731711
 30
0.0
 10
102.0812531474
 20
189.7767340376
 30
0.0
 10
102.0552442162
 20
189.8470672329
 30
0.0
 10
102.0056012332
 20
189.9032705456
 30
0.0
 10
101.9744391114
 20
189.9212504505
 30
0.0
  0
SPLINE
  5
550
100
AcDbEntity
  8
2
100
AcDbSpline
 62
7
  6
CONTINUOUS
 70
0
 71
3
 72
9
 73
5
 74
0
 42
0.0000001
 43
0.0000001
 44
0.0000000001
 40
0.0
 40
0.0
 40
0.0
 40
0.0
 40
0.4988588655
 40
1.0
 40
1.0
 40
1.0
 40
1.0
 10
101.8702246353
 20
189.7386258448
 30
0.0
 10
101.9018771795
 20
189.7209896241
 30
0.0
 10
101.9765515887
 20
189.7077804927
 30
0.0
 10
102.0508171378
 20
189.7225732493
 30
0.0
 10
102.0823405152
 20
189.7407731711
 30
0.0
  0
SPLINE
  5
551
100
AcDbEntity
  8
2
100
AcDbSpline
 62
7
  6
CONTINUOUS
 70
0
 71
3
 72
9
 73
5
 74
0
 42
0.0000001
 43
0.0000001
 44
0.0000000001
 40
0.0
 40
0.0
 40
0.0
 40
0.0
 40
0.5011255058
 40
1.0
 40
1.0
 40
1.0
 40
1.0
 10
101.9744391114
 20
189.9212504505
 30
0.0
 10
101.9434580633
 20
189.9027391992
 30
0.0
 10
101.8946012209
 20
189.8457011625
 30
0.0
 10
101.8702246353
 20
189.7745537822
 30
0.0
 10
101.8702246353
 20
189.7386258448
 30
0.0
  0
SPLINE
  5
552
100
AcDbEntity
  8
2
100
AcDbSpline
 62
7
  6
CONTINUOUS
 70
0
 71
3
 72
9
 73
5
 74
0
 42
0.0000001
 43
0.0000001
 44
0.0000000001
 40
0.0
 40
0.0
 40
0.0
 40
0.0
 40
0.2360948092
 40
1.0
 40
1.0
 40
1.0
 40
1.0
 10
102.4692609882
 20
190.2170848978
 30
0.0
 10
102.4722914694
 20
190.2153363724
 30
0.0
 10
102.4848491157
 20
190.2074508902
 30
0.0
 10
102.4963209555
 20
190.1978976206
 30
0.0
 10
102.5044441551
 20
190.1900130436
 30
0.0
  0
SPLINE
  5
553
100
AcDbEntity
  8
2
100
AcDbSpline
 62
7
  6
CONTINUOUS
 70
0
 71
3
 72
9
 73
5
 74
0
 42
0.0000001
 43
0.0000001
 44
0.0000000001
 40
0.0
 40
0.0
 40
0.0
 40
0.0
 40
0.2434028331
 40
1.0
 40
1.0
 40
1.0
 40
1.0
 10
102.5044441551
 20
190.1900130436
 30
0.0
 10
102.5081970401
 20
190.1863704012
 30
0.0
 10
102.5230640874
 20
190.1708430895
 30
0.0
 10
102.5358151944
 20
190.1533227876
 30
0.0
 10
102.5441574794
 20
190.1393693782
 30
0.0
  0
SPLINE
  5
554
100
AcDbEntity
  8
2
100
AcDbSpline
 62
7
  6
CONTINUOUS
 70
0
 71
3
 72
9
 73
5
 74
0
 42
0.0000001
 43
0.0000001
 44
0.0000000001
 40
0.0
 40
0.0
 40
0.0
 40
0.0
 40
0.2556011989
 40
1.0
 40
1.0
 40
1.0
 40
1.0
 10
102.5441574794
 20
190.1393693782
 30
0.0
 10
102.5470783743
 20
190.134483853
 30
0.0
 10
102.557876687
 20
190.1150068519
 30
0.0
 10
102.5662393098
 20
190.0941322253
 30
0.0
 10
102.5706038112
 20
190.078139735
 30
0.0
  0
SPLINE
  5
555
100
AcDbEntity
  8
2
100
AcDbSpline
 62
7
  6
CONTINUOUS
 70
0
 71
3
 72
9
 73
5
 74
0
 42
0.0000001
 43
0.0000001
 44
0.0000000001
 40
0.0
 40
0.0
 40
0.0
 40
0.0
 40
0.2627854962
 40
1.0
 40
1.0
 40
1.0
 40
1.0
 10
102.5706038112
 20
190.078139735
 30
0.0
 10
102.5715747015
 20
190.0745821799
 30
0.0
 10
102.574915671
 20
190.0609547946
 30
0.0
 10
102.5768497186
 20
190.046948195
 30
0.0
 10
102.5771623921
 20
190.0366076185
 30
0.0
  0
SPLINE
  5
556
100
AcDbEntity
  8
2
100
AcDbSpline
 62
7
  6
CONTINUOUS
 70
0
 71
3
 72
9
 73
5
 74
0
 42
0.0000001
 43
0.0000001
 44
0.0000000001
 40
0.0
 40
0.0
 40
0.0
 40
0.0
 40
0.2359220441
 40
1.0
 40
1.0
 40
1.0
 40
1.0
 10
106.3275808152
 20
227.990349129
 30
0.0
 10
106.3275808152
 20
227.9939600064
 30
0.0
 10
106.3281822726
 20
228.0092638242
 30
0.0
 10
106.3309357104
 20
228.0244458059
 30
0.0
 10
106.3339320948
 20
228.0357499272
 30
0.0
  0
SPLINE
  5
557
100
AcDbEntity
  8
2
100
AcDbSpline
 62
7
  6
CONTINUOUS
 70
0
 71
3
 72
9
 73
5
 74
0
 42
0.0000001
 43
0.0000001
 44
0.0000000001
 40
0.0
 40
0.0
 40
0.0
 40
0.0
 40
0.2436211959
 40
1.0
 40
1.0
 40
1.0
 40
1.0
 10
106.3339320948
 20
228.0357499272
 30
0.0
 10
106.3352407604
 20
228.0406869824
 30
0.0
 10
106.3413468948
 20
228.0607532413
 30
0.0
 10
106.3501356001
 20
228.0799799454
 30
0.0
 10
106.3579950714
 20
228.0937528194
 30
0.0
  0
SPLINE
  5
558
100
AcDbEntity
  8
2
100
AcDbSpline
 62
7
  6
CONTINUOUS
 70
0
 71
3
 72
9
 73
5
 74
0
 42
0.0000001
 43
0.0000001
 44
0.0000000001
 40
0.0
 40
0.0
 40
0.0
 40
0.0
 40
0.2551471735
 40
1.0
 40
1.0
 40
1.0
 40
1.0
 10
106.3579950714
 20
228.0937528194
 30
0.0
 10
106.3607875224
 20
228.098646288
 30
0.0
 10
106.3723566598
 20
228.1174563109
 30
0.0
 10
106.3863351987
 20
228.134829618
 30
0.0
 10
106.3980378454
 20
228.1463872996
 30
0.0
  0
SPLINE
  5
559
100
AcDbEntity
  8
2
100
AcDbSpline
 62
7
  6
CONTINUOUS
 70
0
 71
3
 72
9
 73
5
 74
0
 42
0.0000001
 43
0.0000001
 44
0.0000000001
 40
0.0
 40
0.0
 40
0.0
 40
0.0
 40
0.2624858699
 40
1.0
 40
1.0
 40
1.0
 40
1.0
 10
106.3980378454
 20
228.1463872996
 30
0.0
 10
106.4007162826
 20
228.1490325579
 30
0.0
 10
106.4111833392
 20
228.1588339931
 30
0.0
 10
106.4227154205
 20
228.1675484898
 30
0.0
 10
106.4317952913
 20
228.1729737346
 30
0.0
  0
SPLINE
  5
55A
100
AcDbEntity
  8
2
100
AcDbSpline
 62
7
  6
CONTINUOUS
 70
0
 71
3
 72
9
 73
5
 74
0
 42
0.0000001
 43
0.0000001
 44
0.0000000001
 40
0.0
 40
0.0
 40
0.0
 40
0.0
 40
0.254847545
 40
1.0
 40
1.0
 40
1.0
 40
1.0
 10
111.6664483944
 20
224.9438935112
 30
0.0
 10
111.6661813286
 20
224.96156077
 30
0.0
 10
111.6653017158
 20
225.0308877188
 30
0.0
 10
111.6646104327
 20
225.1002193402
 30
0.0
 10
111.6645966703
 20
225.151882796
 30
0.0
  0
SPLINE
  5
55B
100
AcDbEntity
  8
2
100
AcDbSpline
 62
7
  6
CONTINUOUS
 70
0
 71
3
 72
9
 73
5
 74
0
 42
0.0000001
 43
0.0000001
 44
0.0000000001
 40
0.0
 40
0.0
 40
0.0
 40
0.0
 40
0.2291140225
 40
1.0
 40
1.0
 40
1.0
 40
1.0
 10
111.5603821943
 20
224.9692581904
 30
0.0
 10
111.5676414593
 20
224.9650671466
 30
0.0
 10
111.6009336924
 20
224.9496014423
 30
0.0
 10
111.6382452168
 20
224.9438934434
 30
0.0
 10
111.6664483944
 20
224.9438935112
 30
0.0
  0
SPLINE
  5
55C
100
AcDbEntity
  8
2
100
AcDbSpline
 62
7
  6
CONTINUOUS
 70
0
 71
3
 72
9
 73
5
 74
0
 42
0.0000001
 43
0.0000001
 44
0.0000000001
 40
0.0
 40
0.0
 40
0.0
 40
0.0
 40
0.5011255058
 40
1.0
 40
1.0
 40
1.0
 40
1.0
 10
111.6645966703
 20
225.151882796
 30
0.0
 10
111.6336156223
 20
225.1333715447
 30
0.0
 10
111.5847587799
 20
225.076333508
 30
0.0
 10
111.5603821943
 20
225.0051861278
 30
0.0
 10
111.5603821943
 20
224.9692581904
 30
0.0
  0
SPLINE
  5
55D
100
AcDbEntity
  8
2
100
AcDbSpline
 62
7
  6
CONTINUOUS
 70
0
 71
3
 72
9
 73
5
 74
0
 42
0.0000001
 43
0.0000001
 44
0.0000000001
 40
0.0
 40
0.0
 40
0.0
 40
0.0
 40
0.2443151864
 40
1.0
 40
1.0
 40
1.0
 40
1.0
 10
101.9781120357
 20
194.4816732561
 30
0.0
 10
101.9672630909
 20
194.4879385824
 30
0.0
 10
101.9253169159
 20
194.5177880204
 30
0.0
 10
101.8925482868
 20
194.559240117
 30
0.0
 10
101.8733423311
 20
194.592896106
 30
0.0
  0
SPLINE
  5
55E
100
AcDbEntity
  8
2
100
AcDbSpline
 62
7
  6
CONTINUOUS
 70
0
 71
3
 72
13
 73
9
 74
0
 42
0.0000001
 43
0.0000001
 44
0.0000000001
 40
0.0
 40
0.0
 40
0.0
 40
0.0
 40
0.0207165327
 40
0.0763645798
 40
0.1639485812
 40
0.2809410149
 40
0.5937162687
 40
1.0
 40
1.0
 40
1.0
 40
1.0
 10
106.2818179323
 20
191.9969893613
 30
0.0
 10
106.281818902
 20
191.9973347183
 30
0.0
 10
106.2834261614
 20
191.9978358851
 30
0.0
 10
106.285225772
 20
191.9995133032
 30
0.0
 10
106.2891708273
 20
192.0017028905
 30
0.0
 10
106.2963748303
 20
192.006272238
 30
0.0
 10
106.3084038594
 20
192.0134451664
 30
0.0
 10
106.3186494077
 20
192.0196236127
 30
0.0
 10
106.3244631195
 20
192.0230984572
 30
0.0
  0
SPLINE
  5
55F
100
AcDbEntity
  8
2
100
AcDbSpline
 62
7
  6
CONTINUOUS
 70
0
 71
3
 72
9
 73
5
 74
0
 42
0.0000001
 43
0.0000001
 44
0.0000000001
 40
0.0
 40
0.0
 40
0.0
 40
0.0
 40
0.2445918917
 40
1.0
 40
1.0
 40
1.0
 40
1.0
 10
106.2818396705
 20
227.9345237698
 30
0.0
 10
106.2816476433
 20
227.9218324343
 30
0.0
 10
106.2858562677
 20
227.86989757
 30
0.0
 10
106.3050338608
 20
227.8199516266
 30
0.0
 10
106.3244631195
 20
227.7859043275
 30
0.0
  0
SPLINE
  5
560
100
AcDbEntity
  8
2
100
AcDbSpline
 62
7
  6
CONTINUOUS
 70
0
 71
3
 72
14
 73
10
 74
0
 42
0.0000001
 43
0.0000001
 44
0.0000000001
 40
0.0
 40
0.0
 40
0.0
 40
0.0
 40
0.0169064719
 40
0.0671961091
 40
0.1502312859
 40
0.2647606797
 40
0.4094988612
 40
0.582476357
 40
1.0
 40
1.0
 40
1.0
 40
1.0
 10
111.6649365886
 20
188.7052115191
 30
0.0
 10
111.6652939488
 20
188.7052105184
 30
0.0
 10
111.6647463421
 20
188.7074778877
 30
0.0
 10
111.6655090339
 20
188.7098354431
 30
0.0
 10
111.6653230066
 20
188.7155308475
 30
0.0
 10
111.6656601653
 20
188.7225649356
 30
0.0
 10
111.6658008922
 20
188.7317747403
 30
0.0
 10
111.6661246179
 20
188.7472782388
 30
0.0
 10
111.6663150007
 20
188.7597736897
 30
0.0
 10
111.6664483944
 20
188.7685981144
 30
0.0
  0
SPLINE
  5
561
100
AcDbEntity
  8
2
100
AcDbSpline
 62
7
  6
CONTINUOUS
 70
0
 71
3
 72
13
 73
9
 74
0
 42
0.0000001
 43
0.0000001
 44
0.0000000001
 40
0.0
 40
0.0
 40
0.0
 40
0.0
 40
0.0162771657
 40
0.0647173917
 40
0.1450198921
 40
0.2566496724
 40
0.571363879
 40
1.0
 40
1.0
 40
1.0
 40
1.0
 10
116.5646219538
 20
225.6410667071
 30
0.0
 10
116.5644668777
 20
225.6410736515
 30
0.0
 10
116.5646581681
 20
225.6400797031
 30
0.0
 10
116.5643669356
 20
225.6390610837
 30
0.0
 10
116.5644453757
 20
225.6365649541
 30
0.0
 10
116.5642977674
 20
225.6318563815
 30
0.0
 10
116.5643108426
 20
225.6236109413
 30
0.0
 10
116.5642816727
 20
225.6165540992
 30
0.0
 10
116.5642827616
 20
225.6124662976
 30
0.0
  0
SPLINE
  5
562
100
AcDbEntity
  8
2
100
AcDbSpline
 62
7
  6
CONTINUOUS
 70
0
 71
3
 72
9
 73
5
 74
0
 42
0.0000001
 43
0.0000001
 44
0.0000000001
 40
0.0
 40
0.0
 40
0.0
 40
0.0
 40
0.5522160321
 40
1.0
 40
1.0
 40
1.0
 40
1.0
 10
116.6703330659
 20
225.428782802
 30
0.0
 10
116.6832141868
 20
225.4359645592
 30
0.0
 10
116.7053581737
 20
225.452375688
 30
0.0
 10
116.7161547013
 20
225.4791194673
 30
0.0
 10
116.7161320684
 20
225.4910783139
 30
0.0
  0
SPLINE
  5
563
100
AcDbEntity
  8
2
100
AcDbSpline
 62
7
  6
CONTINUOUS
 70
0
 71
3
 72
9
 73
5
 74
0
 42
0.0000001
 43
0.0000001
 44
0.0000000001
 40
0.0
 40
0.0
 40
0.0
 40
0.0
 40
0.2315671867
 40
1.0
 40
1.0
 40
1.0
 40
1.0
 10
116.5642827616
 20
225.6124662976
 30
0.0
 10
116.5689345945
 20
225.6096835628
 30
0.0
 10
116.5883322943
 20
225.5965186334
 30
0.0
 10
116.6050074114
 20
225.5795873163
 30
0.0
 10
116.6162348895
 20
225.565533675
 30
0.0
  0
SPLINE
  5
564
100
AcDbEntity
  8
2
100
AcDbSpline
 62
7
  6
CONTINUOUS
 70
0
 71
3
 72
9
 73
5
 74
0
 42
0.0000001
 43
0.0000001
 44
0.0000000001
 40
0.0
 40
0.0
 40
0.0
 40
0.0
 40
0.2554414047
 40
1.0
 40
1.0
 40
1.0
 40
1.0
 10
116.6414819278
 20
225.5275431805
 30
0.0
 10
116.6439115147
 20
225.5231077116
 30
0.0
 10
116.6529257791
 20
225.5054799502
 30
0.0
 10
116.6599867973
 20
225.4868233528
 30
0.0
 10
116.6638015761
 20
225.4725845379
 30
0.0
  0
SPLINE
  5
565
100
AcDbEntity
  8
2
100
AcDbSpline
 62
7
  6
CONTINUOUS
 70
0
 71
3
 72
9
 73
5
 74
0
 42
0.0000001
 43
0.0000001
 44
0.0000000001
 40
0.0
 40
0.0
 40
0.0
 40
0.0
 40
0.263655593
 40
1.0
 40
1.0
 40
1.0
 40
1.0
 10
116.6638015761
 20
225.4725845379
 30
0.0
 10
116.6648101467
 20
225.4688200079
 30
0.0
 10
116.6682496178
 20
225.4544468812
 30
0.0
 10
116.6701642847
 20
225.4396659605
 30
0.0
 10
116.6703330659
 20
225.4287828019
 30
0.0
  0
SPLINE
  5
566
100
AcDbEntity
  8
2
100
AcDbSpline
 62
7
  6
CONTINUOUS
 70
0
 71
3
 72
9
 73
5
 74
0
 42
0.0000001
 43
0.0000001
 44
0.0000000001
 40
0.0
 40
0.0
 40
0.0
 40
0.0
 40
0.2046314557
 40
1.0
 40
1.0
 40
1.0
 40
1.0
 10
115.8394144563
 20
225.1939656364
 30
0.0
 10
115.8394182357
 20
225.1797779707
 30
0.0
 10
115.8397296981
 20
225.1104456317
 30
0.0
 10
115.8404326789
 20
225.0411151585
 30
0.0
 10
115.8412661804
 20
224.9859763515
 30
0.0
  0
SPLINE
  5
567
100
AcDbEntity
  8
2
100
AcDbSpline
 62
7
  6
CONTINUOUS
 70
0
 71
3
 72
9
 73
5
 74
0
 42
0.0000001
 43
0.0000001
 44
0.0000000001
 40
0.0
 40
0.0
 40
0.0
 40
0.0
 40
0.4999997576
 40
1.0
 40
1.0
 40
1.0
 40
1.0
 10
115.9454647607
 20
225.0102821407
 30
0.0
 10
115.9449069037
 20
225.0465561448
 30
0.0
 10
115.9195242067
 20
225.1177625201
 30
0.0
 10
115.8705475382
 20
225.1753417716
 30
0.0
 10
115.8394144563
 20
225.1939656364
 30
0.0
  0
SPLINE
  5
568
100
AcDbEntity
  8
2
100
AcDbSpline
 62
7
  6
CONTINUOUS
 70
0
 71
3
 72
9
 73
5
 74
0
 42
0.0000001
 43
0.0000001
 44
0.0000000001
 40
0.0
 40
0.0
 40
0.0
 40
0.0
 40
0.2663785888
 40
1.0
 40
1.0
 40
1.0
 40
1.0
 10
115.8412661804
 20
224.9859763515
 30
0.0
 10
115.8508186815
 20
224.9859763744
 30
0.0
 10
115.8865757141
 20
224.987963057
 30
0.0
 10
115.9224867152
 20
224.9974709541
 30
0.0
 10
115.9454647607
 20
225.0102821408
 30
0.0
  0
SPLINE
  5
569
100
AcDbEntity
  8
2
100
AcDbSpline
 62
7
  6
CONTINUOUS
 70
0
 71
3
 72
9
 73
5
 74
0
 42
0.0000001
 43
0.0000001
 44
0.0000000001
 40
0.0
 40
0.0
 40
0.0
 40
0.0
 40
0.2548993649
 40
1.0
 40
1.0
 40
1.0
 40
1.0
 10
111.6664483944
 20
188.7685981144
 30
0.0
 10
111.6610382761
 20
188.7685981014
 30
0.0
 10
111.6398229691
 20
188.7692681775
 30
0.0
 10
111.6186588612
 20
188.7725359505
 30
0.0
 10
111.6033817754
 20
188.7766232657
 30
0.0
  0
SPLINE
  5
56A
100
AcDbEntity
  8
2
100
AcDbSpline
 62
7
  6
CONTINUOUS
 70
0
 71
3
 72
9
 73
5
 74
0
 42
0.0000001
 43
0.0000001
 44
0.0000000001
 40
0.0
 40
0.0
 40
0.0
 40
0.0
 40
0.2605912122
 40
1.0
 40
1.0
 40
1.0
 40
1.0
 10
111.5914483107
 20
188.7802003086
 30
0.0
 10
111.5886459244
 20
188.781135039
 30
0.0
 10
111.5779764082
 20
188.7849641306
 30
0.0
 10
111.5676414593
 20
188.7897717498
 30
0.0
 10
111.5603821943
 20
188.7939627936
 30
0.0
  0
SPLINE
  5
56B
100
AcDbEntity
  8
2
100
AcDbSpline
 62
7
  6
CONTINUOUS
 70
0
 71
3
 72
14
 73
10
 74
0
 42
0.0000001
 43
0.0000001
 44
0.0000000001
 40
0.0
 40
0.0
 40
0.0
 40
0.0
 40
0.417523643
 40
0.5905011388
 40
0.7352393203
 40
0.8497687141
 40
0.9328038909
 40
0.9830935281
 40
1.0
 40
1.0
 40
1.0
 40
1.0
 10
115.8412661804
 20
188.7265353441
 30
0.0
 10
115.8411327866
 20
188.7177109194
 30
0.0
 10
115.8409424039
 20
188.7052154685
 30
0.0
 10
115.8406186782
 20
188.68971197
 30
0.0
 10
115.8404779513
 20
188.6805021653
 30
0.0
 10
115.8401407926
 20
188.6734680772
 30
0.0
 10
115.8403268198
 20
188.6677726728
 30
0.0
 10
115.8395641281
 20
188.6654151174
 30
0.0
 10
115.8401117348
 20
188.6631477481
 30
0.0
 10
115.8397543746
 20
188.6631487488
 30
0.0
  0
SPLINE
  5
56C
100
AcDbEntity
  8
2
100
AcDbSpline
 62
7
  6
CONTINUOUS
 70
0
 71
3
 72
9
 73
5
 74
0
 42
0.0000001
 43
0.0000001
 44
0.0000000001
 40
0.0
 40
0.0
 40
0.0
 40
0.0
 40
0.2330707554
 40
1.0
 40
1.0
 40
1.0
 40
1.0
 10
115.9454647607
 20
188.7508411334
 30
0.0
 10
115.940726331
 20
188.7481992819
 30
0.0
 10
115.9197593215
 20
188.7380141769
 30
0.0
 10
115.89689713
 20
188.7320216571
 30
0.0
 10
115.8792454352
 20
188.7293573198
 30
0.0
  0
SPLINE
  5
56D
100
AcDbEntity
  8
2
100
AcDbSpline
 62
7
  6
CONTINUOUS
 70
0
 71
3
 72
9
 73
5
 74
0
 42
0.0000001
 43
0.0000001
 44
0.0000000001
 40
0.0
 40
0.0
 40
0.0
 40
0.0
 40
0.2362806677
 40
1.0
 40
1.0
 40
1.0
 40
1.0
 10
102.0823405152
 20
194.3863236512
 30
0.0
 10
102.079286979
 20
194.3845607017
 30
0.0
 10
102.0660735181
 20
194.3776049563
 30
0.0
 10
102.0519147825
 20
194.3725218158
 30
0.0
 10
102.0409155539
 20
194.3695384094
 30
0.0
  0
SPLINE
  5
56E
100
AcDbEntity
  8
2
100
AcDbSpline
 62
7
  6
CONTINUOUS
 70
0
 71
3
 72
9
 73
5
 74
0
 42
0.0000001
 43
0.0000001
 44
0.0000000001
 40
0.0
 40
0.0
 40
0.0
 40
0.0
 40
0.2432680767
 40
1.0
 40
1.0
 40
1.0
 40
1.0
 10
102.0409155539
 20
194.3695384094
 30
0.0
 10
102.0358097905
 20
194.3681535334
 30
0.0
 10
102.014606541
 20
194.3632715871
 30
0.0
 10
101.9927349074
 20
194.3614167278
 30
0.0
 10
101.9762794125
 20
194.3615817866
 30
0.0
  0
SPLINE
  5
56F
100
AcDbEntity
  8
2
100
AcDbSpline
 62
7
  6
CONTINUOUS
 70
0
 71
3
 72
9
 73
5
 74
0
 42
0.0000001
 43
0.0000001
 44
0.0000000001
 40
0.0
 40
0.0
 40
0.0
 40
0.0
 40
0.2550476526
 40
1.0
 40
1.0
 40
1.0
 40
1.0
 10
101.9762794125
 20
194.3615817866
 30
0.0
 10
101.9706521115
 20
194.3616382319
 30
0.0
 10
101.9486068917
 20
194.3625960136
 30
0.0
 10
101.9266464338
 20
194.3664019748
 30
0.0
 10
101.9108826492
 20
194.3710588271
 30
0.0
  0
SPLINE
  5
570
100
AcDbEntity
  8
2
100
AcDbSpline
 62
7
  6
CONTINUOUS
 70
0
 71
3
 72
9
 73
5
 74
0
 42
0.0000001
 43
0.0000001
 44
0.0000000001
 40
0.0
 40
0.0
 40
0.0
 40
0.0
 40
0.2626405033
 40
1.0
 40
1.0
 40
1.0
 40
1.0
 10
101.9108826492
 20
194.3710588271
 30
0.0
 10
101.9071645762
 20
194.3721572002
 30
0.0
 10
101.8931318366
 20
194.3767300714
 30
0.0
 10
101.8795682438
 20
194.3828685672
 30
0.0
 10
101.8702246353
 20
194.3884513045
 30
0.0
  0
SPLINE
  5
571
100
AcDbEntity
  8
2
100
AcDbSpline
 62
7
  6
CONTINUOUS
 70
0
 71
3
 72
9
 73
5
 74
0
 42
0.0000001
 43
0.0000001
 44
0.0000000001
 40
0.0
 40
0.0
 40
0.0
 40
0.0
 40
0.2364079103
 40
1.0
 40
1.0
 40
1.0
 40
1.0
 10
96.77848183
 20
233.5033992768
 30
0.0
 10
96.77848183
 20
233.5068339005
 30
0.0
 10
96.7790249074
 20
233.5213609315
 30
0.0
 10
96.7815224589
 20
233.5357830149
 30
0.0
 10
96.784246568
 20
233.5465371134
 30
0.0
  0
SPLINE
  5
572
100
AcDbEntity
  8
2
100
AcDbSpline
 62
7
  6
CONTINUOUS
 70
0
 71
3
 72
9
 73
5
 74
0
 42
0.0000001
 43
0.0000001
 44
0.0000000001
 40
0.0
 40
0.0
 40
0.0
 40
0.0
 40
0.2431254879
 40
1.0
 40
1.0
 40
1.0
 40
1.0
 10
96.784246568
 20
233.5465371134
 30
0.0
 10
96.7855445316
 20
233.5516611476
 30
0.0
 10
96.7916824345
 20
233.5725296904
 30
0.0
 10
96.8007402973
 20
233.5925108288
 30
0.0
 10
96.8088960861
 20
233.6068029672
 30
0.0
  0
SPLINE
  5
573
100
AcDbEntity
  8
2
100
AcDbSpline
 62
7
  6
CONTINUOUS
 70
0
 71
3
 72
9
 73
5
 74
0
 42
0.0000001
 43
0.0000001
 44
0.0000000001
 40
0.0
 40
0.0
 40
0.0
 40
0.0
 40
0.2547551842
 40
1.0
 40
1.0
 40
1.0
 40
1.0
 10
96.8088960861
 20
233.6068029672
 30
0.0
 10
96.8115847366
 20
233.6115145366
 30
0.0
 10
96.8227191998
 20
233.6296668586
 30
0.0
 10
96.8360917328
 20
233.6464840889
 30
0.0
 10
96.8472585309
 20
233.6577594278
 30
0.0
  0
SPLINE
  5
574
100
AcDbEntity
  8
2
100
AcDbSpline
 62
7
  6
CONTINUOUS
 70
0
 71
3
 72
9
 73
5
 74
0
 42
0.0000001
 43
0.0000001
 44
0.0000000001
 40
0.0
 40
0.0
 40
0.0
 40
0.0
 40
0.2628900105
 40
1.0
 40
1.0
 40
1.0
 40
1.0
 10
96.8472585309
 20
233.6577594278
 30
0.0
 10
96.8500575949
 20
233.6605856986
 30
0.0
 10
96.8609979007
 20
233.6710345715
 30
0.0
 10
96.8731220447
 20
233.6803032381
 30
0.0
 10
96.882696306
 20
233.6860238824
 30
0.0
  0
SPLINE
  5
575
100
AcDbEntity
  8
2
100
AcDbSpline
 62
7
  6
CONTINUOUS
 70
0
 71
3
 72
9
 73
5
 74
0
 42
0.0000001
 43
0.0000001
 44
0.0000000001
 40
0.0
 40
0.0
 40
0.0
 40
0.0
 40
0.5000011079
 40
1.0
 40
1.0
 40
1.0
 40
1.0
 10
102.0823405152
 20
230.5658940276
 30
0.0
 10
102.0812531474
 20
230.6018548941
 30
0.0
 10
102.0552442162
 20
230.6721880894
 30
0.0
 10
102.0056012332
 20
230.7283914021
 30
0.0
 10
101.9744391114
 20
230.7463713069
 30
0.0
  0
SPLINE
  5
576
100
AcDbEntity
  8
2
100
AcDbSpline
 62
7
  6
CONTINUOUS
 70
0
 71
3
 72
9
 73
5
 74
0
 42
0.0000001
 43
0.0000001
 44
0.0000000001
 40
0.0
 40
0.0
 40
0.0
 40
0.0
 40
0.4988588655
 40
1.0
 40
1.0
 40
1.0
 40
1.0
 10
101.8702246353
 20
230.5637467013
 30
0.0
 10
101.9018771795
 20
230.5461104805
 30
0.0
 10
101.9765515887
 20
230.5329013492
 30
0.0
 10
102.0508171378
 20
230.5476941058
 30
0.0
 10
102.0823405152
 20
230.5658940276
 30
0.0
  0
SPLINE
  5
577
100
AcDbEntity
  8
2
100
AcDbSpline
 62
7
  6
CONTINUOUS
 70
0
 71
3
 72
9
 73
5
 74
0
 42
0.0000001
 43
0.0000001
 44
0.0000000001
 40
0.0
 40
0.0
 40
0.0
 40
0.0
 40
0.5011255058
 40
1.0
 40
1.0
 40
1.0
 40
1.0
 10
101.9744391114
 20
230.7463713069
 30
0.0
 10
101.9434580633
 20
230.7278600556
 30
0.0
 10
101.8946012209
 20
230.6708220189
 30
0.0
 10
101.8702246353
 20
230.5996746387
 30
0.0
 10
101.8702246353
 20
230.5637467013
 30
0.0
  0
SPLINE
  5
578
100
AcDbEntity
  8
2
100
AcDbSpline
 62
7
  6
CONTINUOUS
 70
0
 71
3
 72
9
 73
5
 74
0
 42
0.0000001
 43
0.0000001
 44
0.0000000001
 40
0.0
 40
0.0
 40
0.0
 40
0.0
 40
0.2360948092
 40
1.0
 40
1.0
 40
1.0
 40
1.0
 10
102.4692609882
 20
231.0422057543
 30
0.0
 10
102.4722914694
 20
231.0404572288
 30
0.0
 10
102.4848491157
 20
231.0325717467
 30
0.0
 10
102.4963209555
 20
231.023018477
 30
0.0
 10
102.5044441551
 20
231.0151339
 30
0.0
  0
SPLINE
  5
579
100
AcDbEntity
  8
2
100
AcDbSpline
 62
7
  6
CONTINUOUS
 70
0
 71
3
 72
9
 73
5
 74
0
 42
0.0000001
 43
0.0000001
 44
0.0000000001
 40
0.0
 40
0.0
 40
0.0
 40
0.0
 40
0.2434028331
 40
1.0
 40
1.0
 40
1.0
 40
1.0
 10
102.5044441551
 20
231.0151339
 30
0.0
 10
102.5081970401
 20
231.0114912577
 30
0.0
 10
102.5230640874
 20
230.995963946
 30
0.0
 10
102.5358151944
 20
230.9784436441
 30
0.0
 10
102.5441574794
 20
230.9644902346
 30
0.0
  0
SPLINE
  5
57A
100
AcDbEntity
  8
2
100
AcDbSpline
 62
7
  6
CONTINUOUS
 70
0
 71
3
 72
9
 73
5
 74
0
 42
0.0000001
 43
0.0000001
 44
0.0000000001
 40
0.0
 40
0.0
 40
0.0
 40
0.0
 40
0.2556011989
 40
1.0
 40
1.0
 40
1.0
 40
1.0
 10
102.5441574794
 20
230.9644902346
 30
0.0
 10
102.5470783743
 20
230.9596047095
 30
0.0
 10
102.557876687
 20
230.9401277084
 30
0.0
 10
102.5662393098
 20
230.9192530818
 30
0.0
 10
102.5706038112
 20
230.9032605915
 30
0.0
  0
SPLINE
  5
57B
100
AcDbEntity
  8
2
100
AcDbSpline
 62
7
  6
CONTINUOUS
 70
0
 71
3
 72
9
 73
5
 74
0
 42
0.0000001
 43
0.0000001
 44
0.0000000001
 40
0.0
 40
0.0
 40
0.0
 40
0.0
 40
0.2627854962
 40
1.0
 40
1.0
 40
1.0
 40
1.0
 10
102.5706038112
 20
230.9032605915
 30
0.0
 10
102.5715747015
 20
230.8997030364
 30
0.0
 10
102.574915671
 20
230.8860756511
 30
0.0
 10
102.5768497186
 20
230.8720690515
 30
0.0
 10
102.5771623921
 20
230.8617284749
 30
0.0
  0
SPLINE
  5
57C
100
AcDbEntity
  8
1
100
AcDbSpline
 62
7
  6
CONTINUOUS
 70
0
 71
3
 72
8
 73
4
 74
0
 42
0.0000001
 43
0.0000001
 44
0.0000000001
 40
0.0
 40
0.0
 40
0.0
 40
0.0
 40
1.0
 40
1.0
 40
1.0
 40
1.0
 10
55.688112001
 20
113.2266646756
 30
0.0
 10
55.6634824538
 20
113.2837956936
 30
0.0
 10
55.6342567573
 20
113.3391024414
 30
0.0
 10
55.6014855456
 20
113.3919854773
 30
0.0
  0
SPLINE
  5
57D
100
AcDbEntity
  8
1
100
AcDbSpline
 62
7
  6
CONTINUOUS
 70
0
 71
3
 72
9
 73
5
 74
0
 42
0.0000001
 43
0.0000001
 44
0.0000000001
 40
0.0
 40
0.0
 40
0.0
 40
0.0
 40
0.2278831371
 40
1.0
 40
1.0
 40
1.0
 40
1.0
 10
55.6014855456
 20
113.3919854773
 30
0.0
 10
55.5631808984
 20
113.4537978401
 30
0.0
 10
55.3731462829
 20
113.7115410029
 30
0.0
 10
55.111609897
 20
113.9099290156
 30
0.0
 10
54.8982316013
 20
114.0331202451
 30
0.0
  0
SPLINE
  5
57E
100
AcDbEntity
  8
1
100
AcDbSpline
 62
7
  6
CONTINUOUS
 70
0
 71
3
 72
8
 73
4
 74
0
 42
0.0000001
 43
0.0000001
 44
0.0000000001
 40
0.0
 40
0.0
 40
0.0
 40
0.0
 40
1.0
 40
1.0
 40
1.0
 40
1.0
 10
53.3991766478
 20
173.0009551738
 30
0.0
 10
53.3726021789
 20
172.9856124886
 30
0.0
 10
53.3434612727
 20
172.9744283141
 30
0.0
 10
53.3138303407
 20
172.9664528356
 30
0.0
  0
SPLINE
  5
57F
100
AcDbEntity
  8
1
100
AcDbSpline
 62
7
  6
CONTINUOUS
 70
0
 71
3
 72
11
 73
7
 74
0
 42
0.0000001
 43
0.0000001
 44
0.0000000001
 40
0.0
 40
0.0
 40
0.0
 40
0.0
 40
0.2177438688
 40
0.4508811915
 40
0.7104582954
 40
1.0
 40
1.0
 40
1.0
 40
1.0
 10
55.7767522308
 20
113.6248902017
 30
0.0
 10
55.7767522054
 20
113.5106485137
 30
0.0
 10
55.7348005701
 20
113.27246546
 30
0.0
 10
55.5541204534
 20
112.9405471613
 30
0.0
 10
55.2685448061
 20
112.6407398791
 30
0.0
 10
55.0298084224
 20
112.4761231985
 30
0.0
 10
54.8982492651
 20
112.400167937
 30
0.0
  0
SPLINE
  5
580
100
AcDbEntity
  8
1
100
AcDbSpline
 62
7
  6
CONTINUOUS
 70
0
 71
3
 72
11
 73
7
 74
0
 42
0.0000001
 43
0.0000001
 44
0.0000000001
 40
0.0
 40
0.0
 40
0.0
 40
0.0
 40
0.289702329
 40
0.5490881649
 40
0.7822156415
 40
1.0
 40
1.0
 40
1.0
 40
1.0
 10
87.2697148185
 20
129.4001743216
 30
0.0
 10
87.5110483509
 20
129.2608434938
 30
0.0
 10
87.9911385662
 20
129.0324551663
 30
0.0
 10
88.72904678
 20
128.8542635536
 30
0.0
 10
89.4214205603
 20
128.8717943321
 30
0.0
 10
89.8382665443
 20
129.0230709677
 30
0.0
 10
90.019688785
 20
129.1278145545
 30
0.0
  0
SPLINE
  5
581
100
AcDbEntity
  8
1
100
AcDbSpline
 62
7
  6
CONTINUOUS
 70
0
 71
3
 72
11
 73
7
 74
0
 42
0.0000001
 43
0.0000001
 44
0.0000000001
 40
0.0
 40
0.0
 40
0.0
 40
0.0
 40
0.2372413576
 40
0.5000010231
 40
0.762760128
 40
1.0
 40
1.0
 40
1.0
 40
1.0
 10
51.5606736986
 20
154.5070957191
 30
0.0
 10
51.5606736986
 20
153.8695350825
 30
0.0
 10
51.7998194184
 20
152.5249706655
 30
0.0
 10
52.6332891623
 20
150.6356282483
 30
0.0
 10
53.8527778256
 20
148.9691597074
 30
0.0
 10
54.8976338138
 20
148.0897811885
 30
0.0
 10
55.4497771869
 20
147.771008275
 30
0.0
  0
SPLINE
  5
582
100
AcDbEntity
  8
1
100
AcDbSpline
 62
7
  6
CONTINUOUS
 70
0
 71
3
 72
11
 73
7
 74
0
 42
0.0000001
 43
0.0000001
 44
0.0000000001
 40
0.0
 40
0.0
 40
0.0
 40
0.0
 40
0.217745073
 40
0.4508830113
 40
0.7104597664
 40
1.0
 40
1.0
 40
1.0
 40
1.0
 10
69.9305476207
 20
217.7061335959
 30
0.0
 10
69.8316071867
 20
217.6490106035
 30
0.0
 10
69.6463023933
 20
217.4935825782
 30
0.0
 10
69.4491831611
 20
217.1711389251
 30
0.0
 10
69.3323237681
 20
216.7739065361
 30
0.0
 10
69.3091277998
 20
216.4848370313
 30
0.0
 10
69.3091277998
 20
216.3329211406
 30
0.0
  0
SPLINE
  5
583
100
AcDbEntity
  8
1
100
AcDbSpline
 62
7
  6
CONTINUOUS
 70
0
 71
3
 72
11
 73
7
 74
0
 42
0.0000001
 43
0.0000001
 44
0.0000000001
 40
0.0
 40
0.0
 40
0.0
 40
0.0
 40
0.2187110597
 40
0.4522642901
 40
0.711471125
 40
1.0
 40
1.0
 40
1.0
 40
1.0
 10
47.5859304973
 20
224.6801426994
 30
0.0
 10
47.6826299451
 20
224.6243029168
 30
0.0
 10
47.9039144205
 20
224.5427009528
 30
0.0
 10
48.27179194
 20
224.5295862907
 30
0.0
 10
48.6641123043
 20
224.6189186741
 30
0.0
 10
48.9201204159
 20
224.7358855869
 30
0.0
 10
49.0488029975
 20
224.8075863918
 30
0.0
  0
SPLINE
  5
584
100
AcDbEntity
  8
1
100
AcDbSpline
 62
7
  6
CONTINUOUS
 70
0
 71
3
 72
11
 73
7
 74
0
 42
0.0000001
 43
0.0000001
 44
0.0000000001
 40
0.0
 40
0.0
 40
0.0
 40
0.0
 40
0.2177488625
 40
0.4508835943
 40
0.7104460086
 40
1.0
 40
1.0
 40
1.0
 40
1.0
 10
46.171711045
 20
225.4966242008
 30
0.0
 10
46.0727733439
 20
225.5537565446
 30
0.0
 10
45.8874663144
 20
225.7091808316
 30
0.0
 10
45.69035638
 20
226.0316230683
 30
0.0
 10
45.5734772564
 20
226.4288481956
 30
0.0
 10
45.5502940262
 20
226.7179206114
 30
0.0
 10
45.5502940262
 20
226.8698441475
 30
0.0
  0
SPLINE
  5
585
100
AcDbEntity
  8
1
100
AcDbSpline
 62
7
  6
CONTINUOUS
 70
0
 71
3
 72
11
 73
7
 74
0
 42
0.0000001
 43
0.0000001
 44
0.0000000001
 40
0.0
 40
0.0
 40
0.0
 40
0.0
 40
0.2178424996
 40
0.4509521654
 40
0.7102762982
 40
1.0
 40
1.0
 40
1.0
 40
1.0
 10
54.9853977088
 20
256.0026356309
 30
0.0
 10
55.2492987504
 20
256.1551298277
 30
0.0
 10
55.8557159936
 20
256.375225641
 30
0.0
 10
56.8627601893
 20
256.4004628205
 30
0.0
 10
57.9360443466
 20
256.1415118068
 30
0.0
 10
58.6342683218
 20
255.8092133271
 30
0.0
 10
58.9853258126
 20
255.6065347755
 30
0.0
  0
SPLINE
  5
586
100
AcDbEntity
  8
1
100
AcDbSpline
 62
7
  6
CONTINUOUS
 70
0
 71
3
 72
11
 73
7
 74
0
 42
0.0000001
 43
0.0000001
 44
0.0000000001
 40
0.0
 40
0.0
 40
0.0
 40
0.0
 40
0.2187405374
 40
0.4548511282
 40
0.714604759
 40
1.0
 40
1.0
 40
1.0
 40
1.0
 10
47.5029521623
 20
274.3323445681
 30
0.0
 10
47.8204434277
 20
274.4416513826
 30
0.0
 10
48.5169517239
 20
274.5715050666
 30
0.0
 10
49.6204292693
 20
274.4929587391
 30
0.0
 10
50.7792994395
 20
274.157430061
 30
0.0
 10
51.5347324208
 20
273.7882670332
 30
0.0
 10
51.9141402422
 20
273.5692207809
 30
0.0
  0
SPLINE
  5
587
100
AcDbEntity
  8
1
100
AcDbSpline
 62
7
  6
CONTINUOUS
 70
0
 71
3
 72
11
 73
7
 74
0
 42
0.0000001
 43
0.0000001
 44
0.0000000001
 40
0.0
 40
0.0
 40
0.0
 40
0.0
 40
0.289775222
 40
0.5490688033
 40
0.782225076
 40
1.0
 40
1.0
 40
1.0
 40
1.0
 10
104.9474579472
 20
42.9083346262
 30
0.0
 10
105.3863597274
 20
42.6549402977
 30
0.0
 10
106.2591637431
 20
42.239521418
 30
0.0
 10
107.6008964225
 20
41.9158081187
 30
0.0
 10
108.8596434825
 20
41.947555385
 30
0.0
 10
109.617552103
 20
42.2227195363
 30
0.0
 10
109.947398809
 20
42.4131554958
 30
0.0
  0
SPLINE
  5
588
100
AcDbEntity
  8
1
100
AcDbSpline
 62
7
  6
CONTINUOUS
 70
0
 71
3
 72
11
 73
7
 74
0
 42
0.0000001
 43
0.0000001
 44
0.0000000001
 40
0.0
 40
0.0
 40
0.0
 40
0.0
 40
0.2372294888
 40
0.5000010919
 40
0.7627721007
 40
1.0
 40
1.0
 40
1.0
 40
1.0
 10
34.2364854325
 20
91.8974342495
 30
0.0
 10
34.2364854325
 20
90.7382906935
 30
0.0
 10
34.6712419677
 20
88.2936176464
 30
0.0
 10
36.1867187525
 20
84.8584149957
 30
0.0
 10
38.4039622303
 20
81.8283886117
 30
0.0
 10
40.3037359665
 20
80.2295605942
 30
0.0
 10
41.307582684
 20
79.650002533
 30
0.0
  0
SPLINE
  5
589
100
AcDbEntity
  8
1
100
AcDbSpline
 62
7
  6
CONTINUOUS
 70
0
 71
3
 72
11
 73
7
 74
0
 42
0.0000001
 43
0.0000001
 44
0.0000000001
 40
0.0
 40
0.0
 40
0.0
 40
0.0
 40
0.237239768
 40
0.4999988393
 40
0.7627585384
 40
1.0
 40
1.0
 40
1.0
 40
1.0
 10
87.2697148185
 20
199.9459831616
 30
0.0
 10
87.9724424398
 20
199.5402723587
 30
0.0
 10
89.3022588551
 20
198.4210637573
 30
0.0
 10
90.8543353399
 20
196.3001042362
 30
0.0
 10
91.9151153972
 20
193.895486398
 30
0.0
 10
92.2194828945
 20
192.1842221259
 30
0.0
 10
92.2194828945
 20
191.37278096
 30
0.0
  0
SPLINE
  5
58A
100
AcDbEntity
  8
1
100
AcDbSpline
 62
7
  6
CONTINUOUS
 70
0
 71
3
 72
11
 73
7
 74
0
 42
0.0000001
 43
0.0000001
 44
0.0000000001
 40
0.0
 40
0.0
 40
0.0
 40
0.0
 40
0.2897033281
 40
0.5490895198
 40
0.7822165953
 40
1.0
 40
1.0
 40
1.0
 40
1.0
 10
92.2194828945
 20
131.0332523342
 30
0.0
 10
92.2194828945
 20
130.6785753234
 30
0.0
 10
92.1657086415
 20
130.0040548193
 30
0.0
 10
91.89253593
 20
129.0772989941
 30
0.0
 10
91.4326038079
 20
128.3252890514
 30
0.0
 10
91.0005879418
 20
127.9620938841
 30
0.0
 10
90.769681685
 20
127.8287809923
 30
0.0
  0
SPLINE
  5
58B
100
AcDbEntity
  8
1
100
AcDbSpline
 62
7
  6
CONTINUOUS
 70
0
 71
3
 72
11
 73
7
 74
0
 42
0.0000001
 43
0.0000001
 44
0.0000000001
 40
0.0
 40
0.0
 40
0.0
 40
0.0
 40
0.2895401978
 40
0.5491171512
 40
0.782255066
 40
1.0
 40
1.0
 40
1.0
 40
1.0
 10
69.3091277998
 20
216.0471452946
 30
0.0
 10
69.3091277998
 20
215.8952294251
 30
0.0
 10
69.2859316503
 20
215.6061598698
 30
0.0
 10
69.1690724427
 20
215.2089273432
 30
0.0
 10
68.9719530464
 20
214.8864837818
 30
0.0
 10
68.7866483806
 20
214.7310557429
 30
0.0
 10
68.6877079809
 20
214.6739328406
 30
0.0
  0
SPLINE
  5
58C
100
AcDbEntity
  8
1
100
AcDbSpline
 62
7
  6
CONTINUOUS
 70
0
 71
3
 72
11
 73
7
 74
0
 42
0.0000001
 43
0.0000001
 44
0.0000000001
 40
0.0
 40
0.0
 40
0.0
 40
0.0
 40
0.2895401978
 40
0.5491171512
 40
0.782255066
 40
1.0
 40
1.0
 40
1.0
 40
1.0
 10
91.865928032
 20
208.2090555742
 30
0.0
 10
91.865928032
 20
208.0571397047
 30
0.0
 10
91.8427318825
 20
207.7680701493
 30
0.0
 10
91.7258726749
 20
207.3708376228
 30
0.0
 10
91.5287532786
 20
207.0483940614
 30
0.0
 10
91.3434486128
 20
206.8929660224
 30
0.0
 10
91.2445082131
 20
206.8358431201
 30
0.0
  0
SPLINE
  5
58D
100
AcDbEntity
  8
1
100
AcDbSpline
 62
7
  6
CONTINUOUS
 70
0
 71
3
 72
11
 73
7
 74
0
 42
0.0000001
 43
0.0000001
 44
0.0000000001
 40
0.0
 40
0.0
 40
0.0
 40
0.0
 40
0.2372278993
 40
0.4999989081
 40
0.7627705112
 40
1.0
 40
1.0
 40
1.0
 40
1.0
 10
86.2090502308
 20
239.8892657265
 30
0.0
 10
87.0121276048
 20
239.4256192775
 30
0.0
 10
88.5319465937
 20
238.1465568635
 30
0.0
 10
90.305741376
 20
235.7225357563
 30
0.0
 10
91.5181228038
 20
232.9743736358
 30
0.0
 10
91.865928032
 20
231.0186351981
 30
0.0
 10
91.865928032
 20
230.0913203533
 30
0.0
  0
SPLINE
  5
58E
100
AcDbEntity
  8
1
100
AcDbSpline
 62
7
  6
CONTINUOUS
 70
0
 71
3
 72
11
 73
7
 74
0
 42
0.0000001
 43
0.0000001
 44
0.0000000001
 40
0.0
 40
0.0
 40
0.0
 40
0.0
 40
0.2177739674
 40
0.4509298424
 40
0.7102237828
 40
1.0
 40
1.0
 40
1.0
 40
1.0
 10
36.3076418222
 20
267.9407376032
 30
0.0
 10
35.9777877471
 20
267.7502973892
 30
0.0
 10
35.3605184785
 20
267.2314992585
 30
0.0
 10
34.703639721
 20
266.1572348433
 30
0.0
 10
34.313117201
 20
264.8333632133
 30
0.0
 10
34.2364854325
 20
263.8697543917
 30
0.0
 10
34.2364854325
 20
263.3629418467
 30
0.0
  0
SPLINE
  5
58F
100
AcDbEntity
  8
1
100
AcDbSpline
 62
7
  6
CONTINUOUS
 70
0
 71
3
 72
11
 73
7
 74
0
 42
0.0000001
 43
0.0000001
 44
0.0000000001
 40
0.0
 40
0.0
 40
0.0
 40
0.0
 40
0.2177843137
 40
0.4509117637
 40
0.7102976701
 40
1.0
 40
1.0
 40
1.0
 40
1.0
 10
51.9498103204
 20
218.6634568185
 30
0.0
 10
52.1807113677
 20
218.7967667026
 30
0.0
 10
52.7112424216
 20
218.9893007671
 30
0.0
 10
53.5924454613
 20
219.0116126582
 30
0.0
 10
54.5316013822
 20
218.7848232458
 30
0.0
 10
55.1426254185
 20
218.4941472594
 30
0.0
 10
55.4497771869
 20
218.316817115
 30
0.0
  0
SPLINE
  5
590
100
AcDbEntity
  8
1
100
AcDbSpline
 62
7
  6
CONTINUOUS
 70
0
 71
3
 72
11
 73
7
 74
0
 42
0.0000001
 43
0.0000001
 44
0.0000000001
 40
0.0
 40
0.0
 40
0.0
 40
0.0
 40
0.2177833598
 40
0.4509104088
 40
0.7102966711
 40
1.0
 40
1.0
 40
1.0
 40
1.0
 10
52.6998032204
 20
217.3644232564
 30
0.0
 10
52.5183769625
 20
217.2596773504
 30
0.0
 10
52.1789358909
 20
216.9743099186
 30
0.0
 10
51.8175606398
 20
216.3834449285
 30
0.0
 10
51.6029249923
 20
215.6552795946
 30
0.0
 10
51.5606736986
 20
215.125299139
 30
0.0
 10
51.5606736986
 20
214.846624345
 30
0.0
  0
SPLINE
  5
591
100
AcDbEntity
  8
1
100
AcDbSpline
 62
7
  6
CONTINUOUS
 70
0
 71
3
 72
11
 73
7
 74
0
 42
0.0000001
 43
0.0000001
 44
0.0000000001
 40
0.0
 40
0.0
 40
0.0
 40
0.0
 40
0.2853953964
 40
0.5451493444
 40
0.7812600351
 40
1.0
 40
1.0
 40
1.0
 40
1.0
 10
122.6251127569
 20
53.1146135603
 30
0.0
 10
122.6251127569
 20
52.6765095493
 30
0.0
 10
122.5671094513
 20
51.8376953269
 30
0.0
 10
122.2782648756
 20
50.6663050028
 30
0.0
 10
121.7945638613
 20
49.671375067
 30
0.0
 10
121.3338621799
 20
49.1330934192
 30
0.0
 10
121.080457809
 20
48.9127838831
 30
0.0
  0
SPLINE
  5
592
100
AcDbEntity
  8
1
100
AcDbSpline
 62
7
  6
CONTINUOUS
 70
0
 71
3
 72
11
 73
7
 74
0
 42
0.0000001
 43
0.0000001
 44
0.0000000001
 40
0.0
 40
0.0
 40
0.0
 40
0.0
 40
0.2395437649
 40
0.4999991045
 40
0.7604549232
 40
1.0
 40
1.0
 40
1.0
 40
1.0
 10
116.0812786933
 20
236.5003196387
 30
0.0
 10
116.9746211804
 20
235.907249308
 30
0.0
 10
118.6574875742
 20
234.3903819519
 30
0.0
 10
120.6541122929
 20
231.6071411774
 30
0.0
 10
122.0661708019
 20
228.486392794
 30
0.0
 10
122.5383961044
 20
226.2705491518
 30
0.0
 10
122.6053470725
 20
225.2003513297
 30
0.0
  0
SPLINE
  5
593
100
AcDbEntity
  8
1
100
AcDbSpline
 62
7
  6
CONTINUOUS
 70
0
 71
3
 72
9
 73
5
 74
0
 42
0.0000001
 43
0.0000001
 44
0.0000000001
 40
0.0
 40
0.0
 40
0.0
 40
0.0
 40
0.2210703201
 40
1.0
 40
1.0
 40
1.0
 40
1.0
 10
53.4870202494
 20
173.1234273597
 30
0.0
 10
53.4870338904
 20
173.1119956989
 30
0.0
 10
53.4778391093
 20
173.0599141242
 30
0.0
 10
53.4340592383
 20
173.0210945266
 30
0.0
 10
53.3991766478
 20
173.0009551738
 30
0.0
  0
SPLINE
  5
594
100
AcDbEntity
  8
1
100
AcDbSpline
 62
7
  6
CONTINUOUS
 70
0
 71
3
 72
9
 73
5
 74
0
 42
0.0000001
 43
0.0000001
 44
0.0000000001
 40
0.0
 40
0.0
 40
0.0
 40
0.0
 40
0.2629609474
 40
1.0
 40
1.0
 40
1.0
 40
1.0
 10
85.367469759
 20
166.0243315569
 30
0.0
 10
85.3418311779
 20
166.0282977365
 30
0.0
 10
85.2436466936
 20
166.035474301
 30
0.0
 10
85.140666121
 20
166.0158604433
 30
0.0
 10
85.0776923344
 20
165.9795027277
 30
0.0
  0
SPLINE
  5
595
100
AcDbEntity
  8
1
100
AcDbSpline
 62
7
  6
CONTINUOUS
 70
0
 71
3
 72
9
 73
5
 74
0
 42
0.0000001
 43
0.0000001
 44
0.0000000001
 40
0.0
 40
0.0
 40
0.0
 40
0.0
 40
0.2798211364
 40
1.0
 40
1.0
 40
1.0
 40
1.0
 10
85.0776923344
 20
165.9795027277
 30
0.0
 10
85.0687511612
 20
165.9743405698
 30
0.0
 10
85.0379233025
 20
165.9542889364
 30
0.0
 10
85.0112332481
 20
165.9259606198
 30
0.0
 10
85.0000471807
 20
165.9018579375
 30
0.0
  0
SPLINE
  5
596
100
AcDbEntity
  8
1
100
AcDbSpline
 62
7
  6
CONTINUOUS
 70
0
 71
3
 72
11
 73
7
 74
0
 42
0.0000001
 43
0.0000001
 44
0.0000000001
 40
0.0
 40
0.0
 40
0.0
 40
0.0
 40
0.2895416688
 40
0.549118971
 40
0.7822562702
 40
1.0
 40
1.0
 40
1.0
 40
1.0
 10
47.1201070557
 20
69.9339548237
 30
0.0
 10
46.9885479168
 20
69.8579995728
 30
0.0
 10
46.7498115797
 20
69.69338271
 30
0.0
 10
46.4642357208
 20
69.3935755195
 30
0.0
 10
46.2835557654
 20
69.0616571246
 30
0.0
 10
46.2416040546
 20
68.8234741746
 30
0.0
 10
46.24160409
 20
68.7092325614
 30
0.0
  0
SPLINE
  5
597
100
AcDbEntity
  8
1
100
AcDbSpline
 62
7
  6
CONTINUOUS
 70
0
 71
3
 72
11
 73
7
 74
0
 42
0.0000001
 43
0.0000001
 44
0.0000000001
 40
0.0
 40
0.0
 40
0.0
 40
0.0
 40
0.2895416688
 40
0.549118971
 40
0.7822562702
 40
1.0
 40
1.0
 40
1.0
 40
1.0
 10
47.1201070557
 20
107.9094822444
 30
0.0
 10
46.9885479168
 20
107.8335269935
 30
0.0
 10
46.7498115797
 20
107.6689101307
 30
0.0
 10
46.4642357208
 20
107.3691029402
 30
0.0
 10
46.2835557654
 20
107.0371845453
 30
0.0
 10
46.2416040546
 20
106.7990015953
 30
0.0
 10
46.24160409
 20
106.6847599821
 30
0.0
  0
SPLINE
  5
598
100
AcDbEntity
  8
1
100
AcDbSpline
 62
7
  6
CONTINUOUS
 70
0
 71
3
 72
11
 73
7
 74
0
 42
0.0000001
 43
0.0000001
 44
0.0000000001
 40
0.0
 40
0.0
 40
0.0
 40
0.0
 40
0.2895421522
 40
0.5491196247
 40
0.782256727
 40
1.0
 40
1.0
 40
1.0
 40
1.0
 10
47.1201247195
 20
66.6679976814
 30
0.0
 10
46.9885631185
 20
66.7439530889
 30
0.0
 10
46.7498222456
 20
66.9085705797
 30
0.0
 10
46.4642405968
 20
67.208379993
 30
0.0
 10
46.283556732
 20
67.5403015997
 30
0.0
 10
46.2416040646
 20
67.7784872967
 30
0.0
 10
46.24160409
 20
67.8927301419
 30
0.0
  0
SPLINE
  5
599
100
AcDbEntity
  8
1
100
AcDbSpline
 62
7
  6
CONTINUOUS
 70
0
 71
3
 72
11
 73
7
 74
0
 42
0.0000001
 43
0.0000001
 44
0.0000000001
 40
0.0
 40
0.0
 40
0.0
 40
0.0
 40
0.2895391946
 40
0.5491157945
 40
0.7822541179
 40
1.0
 40
1.0
 40
1.0
 40
1.0
 10
47.7565234722
 20
66.3005810023
 30
0.0
 10
47.8880832456
 20
66.2246266501
 30
0.0
 10
48.1500164201
 20
66.1001864732
 30
0.0
 10
48.5524489767
 20
66.0027792713
 30
0.0
 10
48.9302432104
 20
66.0122696358
 30
0.0
 10
49.1574946716
 20
66.0950318582
 30
0.0
 10
49.2564328267
 20
66.1521535349
 30
0.0
  0
SPLINE
  5
59A
100
AcDbEntity
  8
1
100
AcDbSpline
 62
7
  6
CONTINUOUS
 70
0
 71
3
 72
11
 73
7
 74
0
 42
0.0000001
 43
0.0000001
 44
0.0000000001
 40
0.0
 40
0.0
 40
0.0
 40
0.0
 40
0.2372523758
 40
0.4999990758
 40
0.7627462798
 40
1.0
 40
1.0
 40
1.0
 40
1.0
 10
47.8979454172
 20
104.1944602721
 30
0.0
 10
48.078655796
 20
104.0901294466
 30
0.0
 10
48.4206342339
 20
103.8023530073
 30
0.0
 10
48.819617254
 20
103.2568972949
 30
0.0
 10
49.0925073723
 20
102.638640087
 30
0.0
 10
49.1707429225
 20
102.1985889371
 30
0.0
 10
49.1707429225
 20
101.9899225632
 30
0.0
  0
SPLINE
  5
59B
100
AcDbEntity
  8
1
100
AcDbSpline
 62
7
  6
CONTINUOUS
 70
0
 71
3
 72
10
 73
6
 74
0
 42
0.0000001
 43
0.0000001
 44
0.0000000001
 40
0.0
 40
0.0
 40
0.0
 40
0.0
 40
0.5477509982
 40
0.7815953095
 40
1.0
 40
1.0
 40
1.0
 40
1.0
 10
49.1707429225
 20
67.7703062613
 30
0.0
 10
49.1707429225
 20
67.5983908528
 30
0.0
 10
49.1341534618
 20
67.3452225582
 30
0.0
 10
48.9684807356
 20
67.0739388456
 30
0.0
 10
48.8572552709
 20
66.9806525302
 30
0.0
 10
48.7978910311
 20
66.9463787888
 30
0.0
  0
SPLINE
  5
59C
100
AcDbEntity
  8
1
100
AcDbSpline
 62
7
  6
CONTINUOUS
 70
0
 71
3
 72
11
 73
7
 74
0
 42
0.0000001
 43
0.0000001
 44
0.0000000001
 40
0.0
 40
0.0
 40
0.0
 40
0.0
 40
0.2895421522
 40
0.5491196247
 40
0.782256727
 40
1.0
 40
1.0
 40
1.0
 40
1.0
 10
47.1201247195
 20
104.6435251021
 30
0.0
 10
46.9885631185
 20
104.7194805096
 30
0.0
 10
46.7498222456
 20
104.8840980004
 30
0.0
 10
46.4642405968
 20
105.1839074137
 30
0.0
 10
46.283556732
 20
105.5158290204
 30
0.0
 10
46.2416040646
 20
105.7540147174
 30
0.0
 10
46.24160409
 20
105.8682575626
 30
0.0
  0
SPLINE
  5
59D
100
AcDbEntity
  8
1
100
AcDbSpline
 62
7
  6
CONTINUOUS
 70
0
 71
3
 72
10
 73
6
 74
0
 42
0.0000001
 43
0.0000001
 44
0.0000000001
 40
0.0
 40
0.0
 40
0.0
 40
0.0
 40
0.4720896469
 40
0.7483114936
 40
1.0
 40
1.0
 40
1.0
 40
1.0
 10
52.8526559496
 20
256.6797537453
 30
0.0
 10
52.473103685
 20
256.1353244393
 30
0.0
 10
51.8502962475
 20
255.2842107759
 30
0.0
 10
50.8877211834
 20
254.256703076
 30
0.0
 10
50.2996589846
 20
253.7938084162
 30
0.0
 10
49.9952691542
 20
253.613414511
 30
0.0
  0
SPLINE
  5
59E
100
AcDbEntity
  8
1
100
AcDbSpline
 62
7
  6
CONTINUOUS
 70
0
 71
3
 72
9
 73
5
 74
0
 42
0.0000001
 43
0.0000001
 44
0.0000000001
 40
0.0
 40
0.0
 40
0.0
 40
0.0
 40
0.2642972873
 40
1.0
 40
1.0
 40
1.0
 40
1.0
 10
51.9142285612
 20
225.6015244642
 30
0.0
 10
51.9142285612
 20
225.6578433277
 30
0.0
 10
51.9077578379
 20
225.8707839336
 30
0.0
 10
51.8745758858
 20
226.083663849
 30
0.0
 10
51.8305859853
 20
226.234135729
 30
0.0
  0
SPLINE
  5
59F
100
AcDbEntity
  8
1
100
AcDbSpline
 62
7
  6
CONTINUOUS
 70
0
 71
3
 72
10
 73
6
 74
0
 42
0.0000001
 43
0.0000001
 44
0.0000000001
 40
0.0
 40
0.0
 40
0.0
 40
0.0
 40
0.2338774571
 40
0.4907476298
 40
1.0
 40
1.0
 40
1.0
 40
1.0
 10
47.7917768089
 20
252.3073896229
 30
0.0
 10
47.5524151975
 20
252.1655026272
 30
0.0
 10
47.080617059
 20
251.8140872957
 30
0.0
 10
46.2514843662
 20
250.9613343974
 30
0.0
 10
45.7858697122
 20
250.1300627649
 30
0.0
 10
45.6491605201
 20
249.539805855
 30
0.0
  0
SPLINE
  5
5A0
100
AcDbEntity
  8
1
100
AcDbSpline
 62
7
  6
CONTINUOUS
 70
0
 71
3
 72
11
 73
7
 74
0
 42
0.0000001
 43
0.0000001
 44
0.0000000001
 40
0.0
 40
0.0
 40
0.0
 40
0.0
 40
0.2886585012
 40
0.5477138545
 40
0.7812510128
 40
1.0
 40
1.0
 40
1.0
 40
1.0
 10
51.2441584905
 20
226.0308192018
 30
0.0
 10
51.3729007876
 20
226.1025532796
 30
0.0
 10
51.6288615853
 20
226.21962567
 30
0.0
 10
52.021216467
 20
226.3087895005
 30
0.0
 10
52.3890091194
 20
226.2956486425
 30
0.0
 10
52.6103390435
 20
226.2141573861
 30
0.0
 10
52.7070882633
 20
226.1583618071
 30
0.0
  0
SPLINE
  5
5A1
100
AcDbEntity
  8
1
100
AcDbSpline
 62
7
  6
CONTINUOUS
 70
0
 71
3
 72
11
 73
7
 74
0
 42
0.0000001
 43
0.0000001
 44
0.0000000001
 40
0.0
 40
0.0
 40
0.0
 40
0.0
 40
0.2895391946
 40
0.5491157945
 40
0.7822541179
 40
1.0
 40
1.0
 40
1.0
 40
1.0
 10
71.4304569752
 20
217.5577061285
 30
0.0
 10
71.2988972018
 20
217.6336604808
 30
0.0
 10
71.0369640272
 20
217.7581006576
 30
0.0
 10
70.6345314707
 20
217.8555078595
 30
0.0
 10
70.256737237
 20
217.846017495
 30
0.0
 10
70.0294857758
 20
217.7632552726
 30
0.0
 10
69.9305476207
 20
217.7061335959
 30
0.0
  0
SPLINE
  5
5A2
100
AcDbEntity
  8
1
100
AcDbSpline
 62
7
  6
CONTINUOUS
 70
0
 71
3
 72
10
 73
6
 74
0
 42
0.0000001
 43
0.0000001
 44
0.0000000001
 40
0.0
 40
0.0
 40
0.0
 40
0.0
 40
0.2184057713
 40
0.4522505057
 40
1.0
 40
1.0
 40
1.0
 40
1.0
 10
48.7978910311
 20
66.9463787888
 30
0.0
 10
48.738528081
 20
66.912105792
 30
0.0
 10
48.6021303023
 20
66.8624261939
 30
0.0
 10
48.2843639873
 20
66.8545899014
 30
0.0
 10
48.0468249904
 20
66.9494815515
 30
0.0
 10
47.8979454172
 20
67.0354352686
 30
0.0
  0
SPLINE
  5
5A3
100
AcDbEntity
  8
1
100
AcDbSpline
 62
7
  6
CONTINUOUS
 70
0
 71
3
 72
9
 73
5
 74
0
 42
0.0000001
 43
0.0000001
 44
0.0000000001
 40
0.0
 40
0.0
 40
0.0
 40
0.0
 40
0.4865997032
 40
1.0
 40
1.0
 40
1.0
 40
1.0
 10
46.24160409
 20
106.6847599821
 30
0.0
 10
46.241604121
 20
106.5849430468
 30
0.0
 10
46.272983784
 20
106.3787461915
 30
0.0
 10
46.3613962407
 20
106.1906817659
 30
0.0
 10
46.4168707753
 20
106.101162287
 30
0.0
  0
SPLINE
  5
5A4
100
AcDbEntity
  8
1
100
AcDbSpline
 62
7
  6
CONTINUOUS
 70
0
 71
3
 72
9
 73
5
 74
0
 42
0.0000001
 43
0.0000001
 44
0.0000000001
 40
0.0
 40
0.0
 40
0.0
 40
0.0
 40
0.2278831371
 40
1.0
 40
1.0
 40
1.0
 40
1.0
 10
46.4168707753
 20
106.101162287
 30
0.0
 10
46.4551754224
 20
106.0393499242
 30
0.0
 10
46.645210038
 20
105.7816067614
 30
0.0
 10
46.9067464239
 20
105.5832187487
 30
0.0
 10
47.1201247195
 20
105.4600275192
 30
0.0
  0
SPLINE
  5
5A5
100
AcDbEntity
  8
1
100
AcDbSpline
 62
7
  6
CONTINUOUS
 70
0
 71
3
 72
11
 73
7
 74
0
 42
0.0000001
 43
0.0000001
 44
0.0000000001
 40
0.0
 40
0.0
 40
0.0
 40
0.0
 40
0.2837343051
 40
0.5435303402
 40
0.7805374727
 40
1.0
 40
1.0
 40
1.0
 40
1.0
 10
87.8000426964
 20
128.4816038113
 30
0.0
 10
88.0527059121
 20
128.3357319358
 30
0.0
 10
88.5562329928
 20
128.0878162506
 30
0.0
 10
89.3280460106
 20
127.8528439329
 30
0.0
 10
90.0662859417
 20
127.7794971557
 30
0.0
 10
90.5371210416
 20
127.8446095279
 30
0.0
 10
90.7543281665
 20
127.9057991913
 30
0.0
  0
SPLINE
  5
5A6
100
AcDbEntity
  8
1
100
AcDbSpline
 62
7
  6
CONTINUOUS
 70
0
 71
3
 72
9
 73
5
 74
0
 42
0.0000001
 43
0.0000001
 44
0.0000000001
 40
0.0
 40
0.0
 40
0.0
 40
0.0
 40
0.242872284
 40
1.0
 40
1.0
 40
1.0
 40
1.0
 10
51.0303369888
 20
155.4256399663
 30
0.0
 10
51.0303369888
 20
155.350132914
 30
0.0
 10
51.0357374304
 20
155.039251718
 30
0.0
 10
51.061847199
 20
154.7288346877
 30
0.0
 10
51.0915370806
 20
154.4953296798
 30
0.0
  0
SPLINE
  5
5A7
100
AcDbEntity
  8
1
100
AcDbSpline
 62
7
  6
CONTINUOUS
 70
0
 71
3
 72
11
 73
7
 74
0
 42
0.0000001
 43
0.0000001
 44
0.0000000001
 40
0.0
 40
0.0
 40
0.0
 40
0.0
 40
0.2418448549
 40
0.5000006634
 40
0.75815611
 40
1.0
 40
1.0
 40
1.0
 40
1.0
 10
51.0915370806
 20
154.4953296798
 30
0.0
 10
51.1770546702
 20
153.8227508633
 30
0.0
 10
51.5234405739
 20
152.4518010515
 30
0.0
 10
52.4247376351
 20
150.515218761
 30
0.0
 10
53.6512219134
 20
148.7663870948
 30
0.0
 10
54.6653076921
 20
147.7809396494
 30
0.0
 10
55.2050193221
 20
147.3705944156
 30
0.0
  0
SPLINE
  5
5A8
100
AcDbEntity
  8
1
100
AcDbSpline
 62
7
  6
CONTINUOUS
 70
0
 71
3
 72
9
 73
5
 74
0
 42
0.0000001
 43
0.0000001
 44
0.0000000001
 40
0.0
 40
0.0
 40
0.0
 40
0.0
 40
0.2570364791
 40
1.0
 40
1.0
 40
1.0
 40
1.0
 10
55.2050193221
 20
147.3705944156
 30
0.0
 10
55.2686316189
 20
147.3222296939
 30
0.0
 10
55.5188325997
 20
147.137692243
 30
0.0
 10
55.7800686456
 20
146.9679262325
 30
0.0
 10
55.9801050648
 20
146.8524377647
 30
0.0
  0
SPLINE
  5
5A9
100
AcDbEntity
  8
1
100
AcDbSpline
 62
7
  6
CONTINUOUS
 70
0
 71
3
 72
11
 73
7
 74
0
 42
0.0000001
 43
0.0000001
 44
0.0000000001
 40
0.0
 40
0.0
 40
0.0
 40
0.0
 40
0.2895401978
 40
0.5491171512
 40
0.782255066
 40
1.0
 40
1.0
 40
1.0
 40
1.0
 10
61.8986178802
 20
74.465516606
 30
0.0
 10
61.8986178802
 20
74.3136007365
 30
0.0
 10
61.8754217308
 20
74.0245311811
 30
0.0
 10
61.7585625231
 20
73.6272986545
 30
0.0
 10
61.5614431268
 20
73.3048550931
 30
0.0
 10
61.376138461
 20
73.1494270542
 30
0.0
 10
61.2771980614
 20
73.0923041519
 30
0.0
  0
SPLINE
  5
5AA
100
AcDbEntity
  8
1
100
AcDbSpline
 62
7
  6
CONTINUOUS
 70
0
 71
3
 72
11
 73
7
 74
0
 42
0.0000001
 43
0.0000001
 44
0.0000000001
 40
0.0
 40
0.0
 40
0.0
 40
0.0
 40
0.2372523758
 40
0.4999990758
 40
0.7627462798
 40
1.0
 40
1.0
 40
1.0
 40
1.0
 10
59.7772887048
 20
112.032761456
 30
0.0
 10
60.0784726694
 20
111.8588767467
 30
0.0
 10
60.6484367327
 20
111.3792493479
 30
0.0
 10
61.3134084328
 20
110.4701564939
 30
0.0
 10
61.7682252966
 20
109.439727814
 30
0.0
 10
61.8986178802
 20
108.7063092309
 30
0.0
 10
61.8986178802
 20
108.358531941
 30
0.0
  0
SPLINE
  5
5AB
100
AcDbEntity
  8
1
100
AcDbSpline
 62
7
  6
CONTINUOUS
 70
0
 71
3
 72
9
 73
5
 74
0
 42
0.0000001
 43
0.0000001
 44
0.0000000001
 40
0.0
 40
0.0
 40
0.0
 40
0.0
 40
0.5226154427
 40
1.0
 40
1.0
 40
1.0
 40
1.0
 10
112.018525759
 20
229.6100017463
 30
0.0
 10
111.5006359227
 20
230.2542597397
 30
0.0
 10
110.4145783117
 20
231.4143036503
 30
0.0
 10
109.1368871831
 20
232.3675847328
 30
0.0
 10
108.4829771333
 20
232.7451113353
 30
0.0
  0
SPLINE
  5
5AC
100
AcDbEntity
  8
1
100
AcDbSpline
 62
7
  6
CONTINUOUS
 70
0
 71
3
 72
11
 73
7
 74
0
 42
0.0000001
 43
0.0000001
 44
0.0000000001
 40
0.0
 40
0.0
 40
0.0
 40
0.0
 40
0.2372413576
 40
0.5000010231
 40
0.762760128
 40
1.0
 40
1.0
 40
1.0
 40
1.0
 10
97.1692215309
 20
115.168596004
 30
0.0
 10
97.1692215309
 20
114.5889954252
 30
0.0
 10
97.3866267307
 20
113.3666641371
 30
0.0
 10
98.1443264979
 20
111.6490801215
 30
0.0
 10
99.2529525554
 20
110.1341087207
 30
0.0
 10
100.2028216357
 20
109.3346737034
 30
0.0
 10
100.7047701566
 20
109.0448801457
 30
0.0
  0
SPLINE
  5
5AD
100
AcDbEntity
  8
1
100
AcDbSpline
 62
7
  6
CONTINUOUS
 70
0
 71
3
 72
11
 73
7
 74
0
 42
0.0000001
 43
0.0000001
 44
0.0000000001
 40
0.0
 40
0.0
 40
0.0
 40
0.0
 40
0.2304334694
 40
0.4846839358
 40
0.7470455872
 40
1.0
 40
1.0
 40
1.0
 40
1.0
 10
90.0981242794
 20
243.3593709529
 30
0.0
 10
90.9033997956
 20
242.8944554346
 30
0.0
 10
92.4577696916
 20
241.6709113074
 30
0.0
 10
94.4058855017
 20
239.3492361457
 30
0.0
 10
95.948823474
 20
236.6358966904
 30
0.0
 10
96.6366355659
 20
234.6565542
 30
0.0
 10
96.8639327769
 20
233.6614600255
 30
0.0
  0
SPLINE
  5
5AE
100
AcDbEntity
  8
1
100
AcDbSpline
 62
7
  6
CONTINUOUS
 70
0
 71
3
 72
11
 73
7
 74
0
 42
0.0000001
 43
0.0000001
 44
0.0000000001
 40
0.0
 40
0.0
 40
0.0
 40
0.0
 40
0.237239768
 40
0.4999988393
 40
0.7627585384
 40
1.0
 40
1.0
 40
1.0
 40
1.0
 10
87.8000426964
 20
199.0274126513
 30
0.0
 10
88.3521858275
 20
198.7086398776
 30
0.0
 10
89.3970415823
 20
197.8292616908
 30
0.0
 10
90.6165302489
 20
196.1627934957
 30
0.0
 10
91.450000294
 20
194.2734509085
 30
0.0
 10
91.6891461847
 20
192.9288861233
 30
0.0
 10
91.6891461847
 20
192.2913252072
 30
0.0
  0
SPLINE
  5
5AF
100
AcDbEntity
  8
1
100
AcDbSpline
 62
7
  6
CONTINUOUS
 70
0
 71
3
 72
9
 73
5
 74
0
 42
0.0000001
 43
0.0000001
 44
0.0000000001
 40
0.0
 40
0.0
 40
0.0
 40
0.0
 40
0.2454428084
 40
1.0
 40
1.0
 40
1.0
 40
1.0
 10
52.2233346366
 20
218.7977335834
 30
0.0
 10
52.1735078042
 20
218.7594096203
 30
0.0
 10
51.9767024145
 20
218.5952811012
 30
0.0
 10
51.8062974759
 20
218.4001628511
 30
0.0
 10
51.6949982501
 20
218.2421816922
 30
0.0
  0
SPLINE
  5
5B0
100
AcDbEntity
  8
1
100
AcDbSpline
 62
7
  6
CONTINUOUS
 70
0
 71
3
 72
9
 73
5
 74
0
 42
0.0000001
 43
0.0000001
 44
0.0000000001
 40
0.0
 40
0.0
 40
0.0
 40
0.0
 40
0.2244731955
 40
1.0
 40
1.0
 40
1.0
 40
1.0
 10
51.6949982501
 20
218.2421816922
 30
0.0
 10
51.5834429049
 20
218.0838369902
 30
0.0
 10
51.1597417243
 20
217.3260629452
 30
0.0
 10
51.0303369888
 20
216.4343595714
 30
0.0
 10
51.0303369888
 20
215.7651685921
 30
0.0
  0
SPLINE
  5
5B1
100
AcDbEntity
  8
1
100
AcDbSpline
 62
7
  6
CONTINUOUS
 70
0
 71
3
 72
11
 73
7
 74
0
 42
0.0000001
 43
0.0000001
 44
0.0000000001
 40
0.0
 40
0.0
 40
0.0
 40
0.0
 40
0.289702329
 40
0.5490881649
 40
0.7822156415
 40
1.0
 40
1.0
 40
1.0
 40
1.0
 10
55.4497771869
 20
217.0920634893
 30
0.0
 10
55.2084436545
 20
217.2313943171
 30
0.0
 10
54.7283534392
 20
217.4597826446
 30
0.0
 10
53.9904452255
 20
217.6379742573
 30
0.0
 10
53.2980714452
 20
217.6204434788
 30
0.0
 10
52.8812254611
 20
217.4691668432
 30
0.0
 10
52.6998032204
 20
217.3644232564
 30
0.0
  0
SPLINE
  5
5B2
100
AcDbEntity
  8
1
100
AcDbSpline
 62
7
  6
CONTINUOUS
 70
0
 71
3
 72
11
 73
7
 74
0
 42
0.0000001
 43
0.0000001
 44
0.0000000001
 40
0.0
 40
0.0
 40
0.0
 40
0.0
 40
0.2177843137
 40
0.4509117637
 40
0.7102976701
 40
1.0
 40
1.0
 40
1.0
 40
1.0
 10
90.769681685
 20
127.8287809923
 30
0.0
 10
90.5387806377
 20
127.6954711082
 30
0.0
 10
90.0082495838
 20
127.5029370438
 30
0.0
 10
89.1270465441
 20
127.4806251527
 30
0.0
 10
88.1878906232
 20
127.7074145651
 30
0.0
 10
87.576866587
 20
127.9980905514
 30
0.0
 10
87.2697148185
 20
128.1754206959
 30
0.0
  0
SPLINE
  5
5B3
100
AcDbEntity
  8
1
100
AcDbSpline
 62
7
  6
CONTINUOUS
 70
0
 71
3
 72
11
 73
7
 74
0
 42
0.0000001
 43
0.0000001
 44
0.0000000001
 40
0.0
 40
0.0
 40
0.0
 40
0.0
 40
0.2372413576
 40
0.5000010231
 40
0.762760128
 40
1.0
 40
1.0
 40
1.0
 40
1.0
 10
91.1588183068
 20
191.9851420918
 30
0.0
 10
91.1588183068
 20
192.6227027284
 30
0.0
 10
90.9196725871
 20
193.9672671454
 30
0.0
 10
90.0862028431
 20
195.8566095625
 30
0.0
 10
88.8667141799
 20
197.5230781034
 30
0.0
 10
87.8218581916
 20
198.4024566224
 30
0.0
 10
87.2697148185
 20
198.7212295359
 30
0.0
  0
SPLINE
  5
5B4
100
AcDbEntity
  8
1
100
AcDbSpline
 62
7
  6
CONTINUOUS
 70
0
 71
3
 72
11
 73
7
 74
0
 42
0.0000001
 43
0.0000001
 44
0.0000000001
 40
0.0
 40
0.0
 40
0.0
 40
0.0
 40
0.2177843137
 40
0.4509117637
 40
0.7102976701
 40
1.0
 40
1.0
 40
1.0
 40
1.0
 10
53.2301310983
 20
217.6706063718
 30
0.0
 10
53.4115533497
 20
217.7753498521
 30
0.0
 10
53.8283991778
 20
217.9266266171
 30
0.0
 10
54.5207729947
 20
217.9441573887
 30
0.0
 10
55.2586812183
 20
217.7659657075
 30
0.0
 10
55.7387715325
 20
217.5375774325
 30
0.0
 10
55.9801050648
 20
217.3982466047
 30
0.0
  0
SPLINE
  5
5B5
100
AcDbEntity
  8
1
100
AcDbSpline
 62
7
  6
CONTINUOUS
 70
0
 71
3
 72
11
 73
7
 74
0
 42
0.0000001
 43
0.0000001
 44
0.0000000001
 40
0.0
 40
0.0
 40
0.0
 40
0.0
 40
0.2897033281
 40
0.5490895198
 40
0.7822165953
 40
1.0
 40
1.0
 40
1.0
 40
1.0
 10
91.6891461847
 20
131.9517965813
 30
0.0
 10
91.6891461847
 20
131.6731217872
 30
0.0
 10
91.6468949859
 20
131.1431413911
 30
0.0
 10
91.432259284
 20
130.4149760999
 30
0.0
 10
91.0708840453
 20
129.8241111449
 30
0.0
 10
90.7314430076
 20
129.5387435134
 30
0.0
 10
90.550016663
 20
129.4339976699
 30
0.0
  0
SPLINE
  5
5B6
100
AcDbEntity
  8
1
100
AcDbSpline
 62
7
  6
CONTINUOUS
 70
0
 71
3
 72
11
 73
7
 74
0
 42
0.0000001
 43
0.0000001
 44
0.0000000001
 40
0.0
 40
0.0
 40
0.0
 40
0.0
 40
0.2177833598
 40
0.4509104088
 40
0.7102966711
 40
1.0
 40
1.0
 40
1.0
 40
1.0
 10
90.019688785
 20
129.1278145545
 30
0.0
 10
90.2011150429
 20
129.2325604605
 30
0.0
 10
90.5405561145
 20
129.5179278923
 30
0.0
 10
90.9019313656
 20
130.1087928824
 30
0.0
 10
91.1165670131
 20
130.8369582163
 30
0.0
 10
91.1588183068
 20
131.3669386719
 30
0.0
 10
91.1588183068
 20
131.6456134659
 30
0.0
  0
SPLINE
  5
5B7
100
AcDbEntity
  8
1
100
AcDbSpline
 62
7
  6
CONTINUOUS
 70
0
 71
3
 72
11
 73
7
 74
0
 42
0.0000001
 43
0.0000001
 44
0.0000000001
 40
0.0
 40
0.0
 40
0.0
 40
0.0
 40
0.2177739674
 40
0.4509298424
 40
0.7102237828
 40
1.0
 40
1.0
 40
1.0
 40
1.0
 10
109.947398809
 20
42.4131554958
 30
0.0
 10
110.2772528841
 20
42.6035957097
 30
0.0
 10
110.8945221526
 20
43.1223938405
 30
0.0
 10
111.5514009101
 20
44.1966582556
 30
0.0
 10
111.9419234301
 20
45.5205298857
 30
0.0
 10
112.0185551987
 20
46.4841387072
 30
0.0
 10
112.0185551987
 20
46.9909512523
 30
0.0
  0
SPLINE
  5
5B8
100
AcDbEntity
  8
1
100
AcDbSpline
 62
7
  6
CONTINUOUS
 70
0
 71
3
 72
11
 73
7
 74
0
 42
0.0000001
 43
0.0000001
 44
0.0000000001
 40
0.0
 40
0.0
 40
0.0
 40
0.0
 40
0.217745073
 40
0.4508830113
 40
0.7104597664
 40
1.0
 40
1.0
 40
1.0
 40
1.0
 10
49.2564328267
 20
66.1521535349
 30
0.0
 10
49.3553732607
 20
66.2092765273
 30
0.0
 10
49.5406780541
 20
66.3647045526
 30
0.0
 10
49.7377972863
 20
66.6871482057
 30
0.0
 10
49.8546566793
 20
67.0843805947
 30
0.0
 10
49.8778526476
 20
67.3734500995
 30
0.0
 10
49.8778526476
 20
67.5253659902
 30
0.0
  0
SPLINE
  5
5B9
100
AcDbEntity
  8
1
100
AcDbSpline
 62
7
  6
CONTINUOUS
 70
0
 71
3
 72
11
 73
7
 74
0
 42
0.0000001
 43
0.0000001
 44
0.0000000001
 40
0.0
 40
0.0
 40
0.0
 40
0.0
 40
0.2372413576
 40
0.5000010231
 40
0.762760128
 40
1.0
 40
1.0
 40
1.0
 40
1.0
 10
112.0185551987
 20
94.3480914458
 30
0.0
 10
112.0185551987
 20
94.9276920245
 30
0.0
 10
111.8011499989
 20
96.1500233126
 30
0.0
 10
111.0434502317
 20
97.8676073283
 30
0.0
 10
109.9348241741
 20
99.3825787291
 30
0.0
 10
108.9849550939
 20
100.1820137463
 30
0.0
 10
108.4830065729
 20
100.471807304
 30
0.0
  0
SPLINE
  5
5BA
100
AcDbEntity
  8
1
100
AcDbSpline
 62
7
  6
CONTINUOUS
 70
0
 71
3
 72
11
 73
7
 74
0
 42
0.0000001
 43
0.0000001
 44
0.0000000001
 40
0.0
 40
0.0
 40
0.0
 40
0.0
 40
0.289775222
 40
0.5490688033
 40
0.782225076
 40
1.0
 40
1.0
 40
1.0
 40
1.0
 10
41.307582684
 20
267.4455584728
 30
0.0
 10
40.8686809037
 20
267.6989528012
 30
0.0
 10
39.995876888
 20
268.1143716809
 30
0.0
 10
38.6541442086
 20
268.4380849802
 30
0.0
 10
37.3953971486
 20
268.4063377139
 30
0.0
 10
36.6374885281
 20
268.1311735626
 30
0.0
 10
36.3076418222
 20
267.9407376032
 30
0.0
  0
SPLINE
  5
5BB
100
AcDbEntity
  8
1
100
AcDbSpline
 62
7
  6
CONTINUOUS
 70
0
 71
3
 72
11
 73
7
 74
0
 42
0.0000001
 43
0.0000001
 44
0.0000000001
 40
0.0
 40
0.0
 40
0.0
 40
0.0
 40
0.2372294888
 40
0.5000010919
 40
0.7627721007
 40
1.0
 40
1.0
 40
1.0
 40
1.0
 10
93.6337023448
 20
229.070718467
 30
0.0
 10
93.6337023448
 20
230.229862023
 30
0.0
 10
93.1989458096
 20
232.6745350701
 30
0.0
 10
91.6834690248
 20
236.1097377208
 30
0.0
 10
89.466225547
 20
239.1397641048
 30
0.0
 10
87.5664518109
 20
240.7385921223
 30
0.0
 10
86.5626050934
 20
241.3181501835
 30
0.0
  0
SPLINE
  5
5BC
100
AcDbEntity
  8
1
100
AcDbSpline
 62
7
  6
CONTINUOUS
 70
0
 71
3
 72
11
 73
7
 74
0
 42
0.0000001
 43
0.0000001
 44
0.0000000001
 40
0.0
 40
0.0
 40
0.0
 40
0.0
 40
0.237239768
 40
0.4999988393
 40
0.7627585384
 40
1.0
 40
1.0
 40
1.0
 40
1.0
 10
97.1692509706
 20
107.0036593763
 30
0.0
 10
96.6673026696
 20
107.293452807
 30
0.0
 10
95.7174338016
 20
108.0928875223
 30
0.0
 10
94.608807741
 20
109.6078586087
 30
0.0
 10
93.8511077001
 20
111.3254427789
 30
0.0
 10
93.6337023448
 20
112.5477744018
 30
0.0
 10
93.6337023448
 20
113.1273752346
 30
0.0
  0
SPLINE
  5
5BD
100
AcDbEntity
  8
1
100
AcDbSpline
 62
7
  6
CONTINUOUS
 70
0
 71
3
 72
9
 73
5
 74
0
 42
0.0000001
 43
0.0000001
 44
0.0000000001
 40
0.0
 40
0.0
 40
0.0
 40
0.0
 40
0.2951727042
 40
1.0
 40
1.0
 40
1.0
 40
1.0
 10
53.3991766478
 20
184.2686885302
 30
0.0
 10
53.4123234172
 20
184.2762787757
 30
0.0
 10
53.454572065
 20
184.3045817214
 30
0.0
 10
53.487063504
 20
184.3549118874
 30
0.0
 10
53.4870202494
 20
184.3911607161
 30
0.0
  0
SPLINE
  5
5BE
100
AcDbEntity
  8
1
100
AcDbSpline
 62
7
  6
CONTINUOUS
 70
0
 71
3
 72
9
 73
5
 74
0
 42
0.0000001
 43
0.0000001
 44
0.0000000001
 40
0.0
 40
0.0
 40
0.0
 40
0.0
 40
0.4865997032
 40
1.0
 40
1.0
 40
1.0
 40
1.0
 10
46.24160409
 20
68.7092325614
 30
0.0
 10
46.241604121
 20
68.6094156262
 30
0.0
 10
46.272983784
 20
68.4032187708
 30
0.0
 10
46.3613962407
 20
68.2151543452
 30
0.0
 10
46.4168707753
 20
68.1256348663
 30
0.0
  0
SPLINE
  5
5BF
100
AcDbEntity
  8
1
100
AcDbSpline
 62
7
  6
CONTINUOUS
 70
0
 71
3
 72
9
 73
5
 74
0
 42
0.0000001
 43
0.0000001
 44
0.0000000001
 40
0.0
 40
0.0
 40
0.0
 40
0.0
 40
0.2278831371
 40
1.0
 40
1.0
 40
1.0
 40
1.0
 10
46.4168707753
 20
68.1256348663
 30
0.0
 10
46.4551754224
 20
68.0638225035
 30
0.0
 10
46.645210038
 20
67.8060793407
 30
0.0
 10
46.9067464239
 20
67.607691328
 30
0.0
 10
47.1201247195
 20
67.4845000985
 30
0.0
  0
SPLINE
  5
5C0
100
AcDbEntity
  8
1
100
AcDbSpline
 62
7
  6
CONTINUOUS
 70
0
 71
3
 72
9
 73
5
 74
0
 42
0.0000001
 43
0.0000001
 44
0.0000000001
 40
0.0
 40
0.0
 40
0.0
 40
0.0
 40
0.2654788479
 40
1.0
 40
1.0
 40
1.0
 40
1.0
 10
54.8982316013
 20
114.8496226622
 30
0.0
 10
54.9504631314
 20
114.8194674564
 30
0.0
 10
55.1433434057
 20
114.6995789539
 30
0.0
 10
55.3209632177
 20
114.5531962133
 30
0.0
 10
55.4332751429
 20
114.4297819237
 30
0.0
  0
SPLINE
  5
5C1
100
AcDbEntity
  8
1
100
AcDbSpline
 62
7
  6
CONTINUOUS
 70
0
 71
3
 72
9
 73
5
 74
0
 42
0.0000001
 43
0.0000001
 44
0.0000000001
 40
0.0
 40
0.0
 40
0.0
 40
0.0
 40
0.5245355238
 40
1.0
 40
1.0
 40
1.0
 40
1.0
 10
55.4332751429
 20
114.4297819237
 30
0.0
 10
55.5380850888
 20
114.3146112061
 30
0.0
 10
55.7105210832
 20
114.0652939565
 30
0.0
 10
55.7767522622
 20
113.7660444122
 30
0.0
 10
55.7767522308
 20
113.6248902017
 30
0.0
  0
SPLINE
  5
5C2
100
AcDbEntity
  8
1
100
AcDbSpline
 62
7
  6
CONTINUOUS
 70
0
 71
3
 72
9
 73
5
 74
0
 42
0.0000001
 43
0.0000001
 44
0.0000000001
 40
0.0
 40
0.0
 40
0.0
 40
0.0
 40
0.2662832074
 40
1.0
 40
1.0
 40
1.0
 40
1.0
 10
53.2646906502
 20
184.2238600742
 30
0.0
 10
53.2771626669
 20
184.2257895064
 30
0.0
 10
53.3236522537
 20
184.2348588131
 30
0.0
 10
53.3690612726
 20
184.251301514
 30
0.0
 10
53.3991766478
 20
184.2686885302
 30
0.0
  0
SPLINE
  5
5C3
100
AcDbEntity
  8
1
100
AcDbSpline
 62
7
  6
CONTINUOUS
 70
0
 71
3
 72
11
 73
7
 74
0
 42
0.0000001
 43
0.0000001
 44
0.0000000001
 40
0.0
 40
0.0
 40
0.0
 40
0.0
 40
0.2177460211
 40
0.4508843679
 40
0.7104607696
 40
1.0
 40
1.0
 40
1.0
 40
1.0
 10
68.6877079809
 20
214.6739328406
 30
0.0
 10
68.5887697307
 20
214.6168111792
 30
0.0
 10
68.3615182174
 20
214.5340488394
 30
0.0
 10
67.9837239864
 20
214.5245586629
 30
0.0
 10
67.5812914563
 20
214.6219656356
 30
0.0
 10
67.3193584161
 20
214.7464059439
 30
0.0
 10
67.1877986243
 20
214.8223603068
 30
0.0
  0
SPLINE
  5
5C4
100
AcDbEntity
  8
1
100
AcDbSpline
 62
7
  6
CONTINUOUS
 70
0
 71
3
 72
11
 73
7
 74
0
 42
0.0000001
 43
0.0000001
 44
0.0000000001
 40
0.0
 40
0.0
 40
0.0
 40
0.0
 40
0.2372539654
 40
0.5000012591
 40
0.7627478695
 40
1.0
 40
1.0
 40
1.0
 40
1.0
 10
49.8778526476
 20
101.4183813252
 30
0.0
 10
49.8778526476
 20
101.7661589746
 30
0.0
 10
49.7474598507
 20
102.4995780482
 30
0.0
 10
49.292642585
 20
103.5300069436
 30
0.0
 10
48.6276708706
 20
104.4390993418
 30
0.0
 10
48.0577071255
 20
104.9187263107
 30
0.0
 10
47.7565234722
 20
105.0926108402
 30
0.0
  0
SPLINE
  5
5C5
100
AcDbEntity
  8
1
100
AcDbSpline
 62
7
  6
CONTINUOUS
 70
0
 71
3
 72
11
 73
7
 74
0
 42
0.0000001
 43
0.0000001
 44
0.0000000001
 40
0.0
 40
0.0
 40
0.0
 40
0.0
 40
0.2532962821
 40
0.5311975116
 40
0.7941010863
 40
1.0
 40
1.0
 40
1.0
 40
1.0
 10
51.3748628726
 20
252.4576567176
 30
0.0
 10
51.6810732084
 20
252.639139087
 30
0.0
 10
52.2718609291
 20
253.1055903867
 30
0.0
 10
53.0386622868
 20
253.9179808249
 30
0.0
 10
53.7047174577
 20
254.7289689235
 30
0.0
 10
54.1206693224
 20
255.2402357335
 30
0.0
 10
54.3140187447
 20
255.4554937208
 30
0.0
  0
SPLINE
  5
5C6
100
AcDbEntity
  8
1
100
AcDbSpline
 62
7
  6
CONTINUOUS
 70
0
 71
3
 72
10
 73
6
 74
0
 42
0.0000001
 43
0.0000001
 44
0.0000000001
 40
0.0
 40
0.0
 40
0.0
 40
0.0
 40
0.5157951889
 40
0.7688521009
 40
1.0
 40
1.0
 40
1.0
 40
1.0
 10
47.1897222673
 20
248.7962676697
 30
0.0
 10
47.3629270174
 20
249.304965103
 30
0.0
 10
47.8063893975
 20
250.0044008264
 30
0.0
 10
48.553425321
 20
250.7309574481
 30
0.0
 10
48.9642914892
 20
251.0287627531
 30
0.0
 10
49.1714439429
 20
251.1515703254
 30
0.0
  0
SPLINE
  5
5C7
100
AcDbEntity
  8
1
100
AcDbSpline
 62
7
  6
CONTINUOUS
 70
0
 71
3
 72
11
 73
7
 74
0
 42
0.0000001
 43
0.0000001
 44
0.0000000001
 40
0.0
 40
0.0
 40
0.0
 40
0.0
 40
0.2177460211
 40
0.4508843679
 40
0.7104607696
 40
1.0
 40
1.0
 40
1.0
 40
1.0
 10
77.0015859908
 20
221.7885751334
 30
0.0
 10
77.100524241
 20
221.8456967948
 30
0.0
 10
77.3277757543
 20
221.9284591346
 30
0.0
 10
77.7055699853
 20
221.9379493111
 30
0.0
 10
78.1080025154
 20
221.8405423384
 30
0.0
 10
78.3699355556
 20
221.7161020301
 30
0.0
 10
78.5014953474
 20
221.6401476672
 30
0.0
  0
SPLINE
  5
5C8
100
AcDbEntity
  8
1
100
AcDbSpline
 62
7
  6
CONTINUOUS
 70
0
 71
3
 72
11
 73
7
 74
0
 42
0.0000001
 43
0.0000001
 44
0.0000000001
 40
0.0
 40
0.0
 40
0.0
 40
0.0
 40
0.2897033281
 40
0.5490895198
 40
0.7822165953
 40
1.0
 40
1.0
 40
1.0
 40
1.0
 10
50.5000091109
 20
215.4589854767
 30
0.0
 10
50.5000091109
 20
215.8136624875
 30
0.0
 10
50.5537833639
 20
216.4881829916
 30
0.0
 10
50.8269560755
 20
217.4149388168
 30
0.0
 10
51.2868881975
 20
218.1669487595
 30
0.0
 10
51.7189040636
 20
218.5301439268
 30
0.0
 10
51.9498103204
 20
218.6634568185
 30
0.0
  0
SPLINE
  5
5C9
100
AcDbEntity
  8
1
100
AcDbSpline
 62
7
  6
CONTINUOUS
 70
0
 71
3
 72
11
 73
7
 74
0
 42
0.0000001
 43
0.0000001
 44
0.0000000001
 40
0.0
 40
0.0
 40
0.0
 40
0.0
 40
0.289553961
 40
0.5491165647
 40
0.7822512711
 40
1.0
 40
1.0
 40
1.0
 40
1.0
 10
46.9645134765
 20
226.0533626385
 30
0.0
 10
46.9645134765
 20
225.9014391206
 30
0.0
 10
46.9876968772
 20
225.6123666531
 30
0.0
 10
47.1045758304
 20
225.2151413977
 30
0.0
 10
47.3016859107
 20
224.892699241
 30
0.0
 10
47.4869928298
 20
224.7372749579
 30
0.0
 10
47.5859304973
 20
224.6801426994
 30
0.0
  0
SPLINE
  5
5CA
100
AcDbEntity
  8
1
100
AcDbSpline
 62
7
  6
CONTINUOUS
 70
0
 71
3
 72
9
 73
5
 74
0
 42
0.0000001
 43
0.0000001
 44
0.0000000001
 40
0.0
 40
0.0
 40
0.0
 40
0.0
 40
0.2678223148
 40
1.0
 40
1.0
 40
1.0
 40
1.0
 10
53.3710325929
 20
224.7604572918
 30
0.0
 10
53.3640439208
 20
224.8041575096
 30
0.0
 10
53.3375478764
 20
224.9672582359
 30
0.0
 10
53.3091505126
 20
225.1300761099
 30
0.0
 10
53.2858637846
 20
225.2488004787
 30
0.0
  0
SPLINE
  5
5CB
100
AcDbEntity
  8
1
100
AcDbSpline
 62
7
  6
CONTINUOUS
 70
0
 71
3
 72
11
 73
7
 74
0
 42
0.0000001
 43
0.0000001
 44
0.0000000001
 40
0.0
 40
0.0
 40
0.0
 40
0.0
 40
0.237239768
 40
0.4999988393
 40
0.7627585384
 40
1.0
 40
1.0
 40
1.0
 40
1.0
 10
55.4497771869
 20
146.5462546493
 30
0.0
 10
54.7470495656
 20
146.9519654522
 30
0.0
 10
53.4172331503
 20
148.0711740536
 30
0.0
 10
51.8651566655
 20
150.1921335746
 30
0.0
 10
50.8043766082
 20
152.5967514129
 30
0.0
 10
50.5000091109
 20
154.308015685
 30
0.0
 10
50.5000091109
 20
155.1194568509
 30
0.0
  0
SPLINE
  5
5CC
100
AcDbEntity
  8
1
100
AcDbSpline
 62
7
  6
CONTINUOUS
 70
0
 71
3
 72
10
 73
6
 74
0
 42
0.0000001
 43
0.0000001
 44
0.0000000001
 40
0.0
 40
0.0
 40
0.0
 40
0.0
 40
0.2287056253
 40
0.4797620427
 40
1.0
 40
1.0
 40
1.0
 40
1.0
 10
60.3994863836
 20
229.3558278855
 30
0.0
 10
60.3994863836
 20
229.1164729437
 30
0.0
 10
60.4621990152
 20
228.6135603449
 30
0.0
 10
60.780708537
 20
227.6136758189
 30
0.0
 10
61.2099513365
 20
226.9079751018
 30
0.0
 10
61.5654795431
 20
226.4956177543
 30
0.0
  0
SPLINE
  5
5CD
100
AcDbEntity
  8
1
100
AcDbSpline
 62
7
  6
CONTINUOUS
 70
0
 71
3
 72
11
 73
7
 74
0
 42
0.0000001
 43
0.0000001
 44
0.0000000001
 40
0.0
 40
0.0
 40
0.0
 40
0.0
 40
0.2177460211
 40
0.4508843679
 40
0.7104607696
 40
1.0
 40
1.0
 40
1.0
 40
1.0
 10
91.2445082131
 20
206.8358431201
 30
0.0
 10
91.1455699628
 20
206.7787214588
 30
0.0
 10
90.9183184496
 20
206.695959119
 30
0.0
 10
90.5405242186
 20
206.6864689425
 30
0.0
 10
90.1380916885
 20
206.7838759152
 30
0.0
 10
89.8761586483
 20
206.9083162235
 30
0.0
 10
89.7445988565
 20
206.9842705864
 30
0.0
  0
SPLINE
  5
5CE
100
AcDbEntity
  8
1
100
AcDbSpline
 62
7
  6
CONTINUOUS
 70
0
 71
3
 72
9
 73
5
 74
0
 42
0.0000001
 43
0.0000001
 44
0.0000000001
 40
0.0
 40
0.0
 40
0.0
 40
0.0
 40
0.4667175979
 40
1.0
 40
1.0
 40
1.0
 40
1.0
 10
52.7070882633
 20
226.1583618071
 30
0.0
 10
52.8558307137
 20
226.0725815686
 30
0.0
 10
53.1259905862
 20
225.7984197572
 30
0.0
 10
53.2481016044
 20
225.441326067
 30
0.0
 10
53.2858637846
 20
225.2488004787
 30
0.0
  0
SPLINE
  5
5CF
100
AcDbEntity
  8
1
100
AcDbSpline
 62
7
  6
CONTINUOUS
 70
0
 71
3
 72
11
 73
7
 74
0
 42
0.0000001
 43
0.0000001
 44
0.0000000001
 40
0.0
 40
0.0
 40
0.0
 40
0.0
 40
0.2321668139
 40
0.4888349428
 40
0.7514479754
 40
1.0
 40
1.0
 40
1.0
 40
1.0
 10
55.4497771869
 20
221.5991568319
 30
0.0
 10
55.1892789809
 20
221.7495521388
 30
0.0
 10
54.6893713387
 20
222.1516231036
 30
0.0
 10
54.0762971977
 20
222.9154113035
 30
0.0
 10
53.6102055601
 20
223.8008339876
 30
0.0
 10
53.4218855346
 20
224.4424734744
 30
0.0
 10
53.3710325929
 20
224.7604572918
 30
0.0
  0
SPLINE
  5
5D0
100
AcDbEntity
  8
1
100
AcDbSpline
 62
7
  6
CONTINUOUS
 70
0
 71
3
 72
9
 73
5
 74
0
 42
0.0000001
 43
0.0000001
 44
0.0000000001
 40
0.0
 40
0.0
 40
0.0
 40
0.0
 40
0.232867724
 40
1.0
 40
1.0
 40
1.0
 40
1.0
 10
193.6884507716
 20
363.1789203317
 30
0.0
 10
193.6884507716
 20
362.9905579442
 30
0.0
 10
193.7330174186
 20
362.1818019386
 30
0.0
 10
193.9330262263
 20
361.3858761911
 30
0.0
 10
194.145499684
 20
360.8028676448
 30
0.0
  0
SPLINE
  5
5D1
100
AcDbEntity
  8
1
100
AcDbSpline
 62
7
  6
CONTINUOUS
 70
0
 71
3
 72
9
 73
5
 74
0
 42
0.0000001
 43
0.0000001
 44
0.0000000001
 40
0.0
 40
0.0
 40
0.0
 40
0.0
 40
0.2489270395
 40
1.0
 40
1.0
 40
1.0
 40
1.0
 10
194.145499684
 20
360.8028676448
 30
0.0
 10
194.2403320171
 20
360.5426560339
 30
0.0
 10
194.6708621925
 20
359.5161797744
 30
0.0
 10
195.2828512202
 20
358.5648421043
 30
0.0
 10
195.8287723065
 20
357.9321833764
 30
0.0
  0
SPLINE
  5
5D2
100
AcDbEntity
  8
1
100
AcDbSpline
 62
7
  6
CONTINUOUS
 70
0
 71
3
 72
9
 73
5
 74
0
 42
0.0000001
 43
0.0000001
 44
0.0000000001
 40
0.0
 40
0.0
 40
0.0
 40
0.0
 40
0.2332052958
 40
1.0
 40
1.0
 40
1.0
 40
1.0
 10
251.6714482337
 20
329.7031784611
 30
0.0
 10
251.6714482337
 20
329.5212411384
 30
0.0
 10
251.712987993
 20
328.7411967541
 30
0.0
 10
251.9000136382
 20
327.9727147874
 30
0.0
 10
252.0992465572
 20
327.408643874
 30
0.0
  0
SPLINE
  5
5D3
100
AcDbEntity
  8
1
100
AcDbSpline
 62
7
  6
CONTINUOUS
 70
0
 71
3
 72
9
 73
5
 74
0
 42
0.0000001
 43
0.0000001
 44
0.0000000001
 40
0.0
 40
0.0
 40
0.0
 40
0.0
 40
0.4499598415
 40
1.0
 40
1.0
 40
1.0
 40
1.0
 10
136.4182865226
 20
314.3939920223
 30
0.0
 10
136.4182865423
 20
314.354995101
 30
0.0
 10
136.3838170289
 20
314.2682877866
 30
0.0
 10
136.3130792842
 20
314.2137068686
 30
0.0
 10
136.2717952391
 20
314.1898716563
 30
0.0
  0
SPLINE
  5
5D4
100
AcDbEntity
  8
1
100
AcDbSpline
 62
7
  6
CONTINUOUS
 70
0
 71
3
 72
9
 73
5
 74
0
 42
0.0000001
 43
0.0000001
 44
0.0000000001
 40
0.0
 40
0.0
 40
0.0
 40
0.0
 40
0.4491634741
 40
1.0
 40
1.0
 40
1.0
 40
1.0
 10
138.0827092613
 20
314.3939920327
 30
0.0
 10
138.082709209
 20
314.5625663804
 30
0.0
 10
137.9355091922
 20
314.9388439909
 30
0.0
 10
137.6278673053
 20
315.1743085054
 30
0.0
 10
137.4488302715
 20
315.2776732466
 30
0.0
  0
SPLINE
  5
5D5
100
AcDbEntity
  8
1
100
AcDbSpline
 62
7
  6
CONTINUOUS
 70
0
 71
3
 72
11
 73
7
 74
0
 42
0.0000001
 43
0.0000001
 44
0.0000000001
 40
0.0
 40
0.0
 40
0.0
 40
0.0
 40
0.2177847695
 40
0.4509149718
 40
0.7102837443
 40
1.0
 40
1.0
 40
1.0
 40
1.0
 10
209.5878149673
 20
83.0965414024
 30
0.0
 10
209.9176424046
 20
82.906051644
 30
0.0
 10
210.6755896116
 20
82.6310906768
 30
0.0
 10
211.9343897907
 20
82.5991977484
 30
0.0
 10
213.2760421546
 20
82.9231485083
 30
0.0
 10
214.1489005398
 20
83.33843225
 30
0.0
 10
214.5877031134
 20
83.5917735218
 30
0.0
  0
SPLINE
  5
5D6
100
AcDbEntity
  8
1
100
AcDbSpline
 62
7
  6
CONTINUOUS
 70
0
 71
3
 72
11
 73
7
 74
0
 42
0.0000001
 43
0.0000001
 44
0.0000000001
 40
0.0
 40
0.0
 40
0.0
 40
0.0
 40
0.2197221747
 40
0.4536826478
 40
0.7123414206
 40
1.0
 40
1.0
 40
1.0
 40
1.0
 10
208.173595535
 20
83.9130229418
 30
0.0
 10
207.8586346833
 20
84.0949267173
 30
0.0
 10
207.2678813709
 20
84.5831450059
 30
0.0
 10
206.6234927296
 20
85.5887127682
 30
0.0
 10
206.2210799881
 20
86.8277198815
 30
0.0
 10
206.1214021664
 20
87.732420564
 30
0.0
 10
206.1067527765
 20
88.2083693424
 30
0.0
  0
SPLINE
  5
5D7
100
AcDbEntity
  8
1
100
AcDbSpline
 62
7
  6
CONTINUOUS
 70
0
 71
3
 72
9
 73
5
 74
0
 42
0.0000001
 43
0.0000001
 44
0.0000000001
 40
0.0
 40
0.0
 40
0.0
 40
0.0
 40
0.2275971906
 40
1.0
 40
1.0
 40
1.0
 40
1.0
 10
194.069940284
 20
364.8982655963
 30
0.0
 10
194.0055923284
 20
364.7802353137
 30
0.0
 10
193.7651398349
 20
364.2383959191
 30
0.0
 10
193.6884507716
 20
363.6351439216
 30
0.0
 10
193.6884507716
 20
363.1789203317
 30
0.0
  0
SPLINE
  5
5D8
100
AcDbEntity
  8
1
100
AcDbSpline
 62
7
  6
CONTINUOUS
 70
0
 71
3
 72
15
 73
11
 74
0
 42
0.0000001
 43
0.0000001
 44
0.0000000001
 40
0.0
 40
0.0
 40
0.0
 40
0.0
 40
0.0869257504
 40
0.1863961276
 40
0.3037898083
 40
0.4375995959
 40
0.5820964428
 40
0.7293801614
 40
0.8712017292
 40
1.0
 40
1.0
 40
1.0
 40
1.0
 10
191.9599959207
 20
365.7646176409
 30
0.0
 10
192.0974034311
 20
365.8438200037
 30
0.0
 10
192.4423782242
 20
365.9327559808
 30
0.0
 10
192.9979211389
 20
365.8214134818
 30
0.0
 10
193.5653751262
 20
365.5114238812
 30
0.0
 10
194.1095634763
 20
365.0295759982
 30
0.0
 10
194.5898441837
 20
364.4145908244
 30
0.0
 10
194.9683352685
 20
363.7155384622
 30
0.0
 10
195.213585725
 20
362.9897782183
 30
0.0
 10
195.2794829808
 20
362.4954814425
 30
0.0
 10
195.2794829808
 20
362.2604836865
 30
0.0
  0
SPLINE
  5
5D9
100
AcDbEntity
  8
1
100
AcDbSpline
 62
7
  6
CONTINUOUS
 70
0
 71
3
 72
15
 73
11
 74
0
 42
0.0000001
 43
0.0000001
 44
0.0000000001
 40
0.0
 40
0.0
 40
0.0
 40
0.0
 40
0.0869257504
 40
0.1863961276
 40
0.3037898083
 40
0.4375995959
 40
0.5820964428
 40
0.7293801614
 40
0.8712017292
 40
1.0
 40
1.0
 40
1.0
 40
1.0
 10
249.9429933828
 20
332.2888757702
 30
0.0
 10
250.0804008931
 20
332.368078133
 30
0.0
 10
250.4253756863
 20
332.4570141101
 30
0.0
 10
250.980918601
 20
332.3456716112
 30
0.0
 10
251.5483725883
 20
332.0356820106
 30
0.0
 10
252.0925609384
 20
331.5538341276
 30
0.0
 10
252.5728416458
 20
330.9388489537
 30
0.0
 10
252.9513327305
 20
330.2397965916
 30
0.0
 10
253.1965831871
 20
329.5140363476
 30
0.0
 10
253.2624804429
 20
329.0197395718
 30
0.0
 10
253.2624804429
 20
328.7847418158
 30
0.0
  0
SPLINE
  5
5DA
100
AcDbEntity
  8
1
100
AcDbSpline
 62
7
  6
CONTINUOUS
 70
0
 71
3
 72
9
 73
5
 74
0
 42
0.0000001
 43
0.0000001
 44
0.0000000001
 40
0.0
 40
0.0
 40
0.0
 40
0.0
 40
0.2275971906
 40
1.0
 40
1.0
 40
1.0
 40
1.0
 10
252.052937746
 20
331.4225237256
 30
0.0
 10
251.9885897905
 20
331.3044934431
 30
0.0
 10
251.748137297
 20
330.7626540484
 30
0.0
 10
251.6714482337
 20
330.1594020509
 30
0.0
 10
251.6714482337
 20
329.7031784611
 30
0.0
  0
SPLINE
  5
5DB
100
AcDbEntity
  8
1
100
AcDbSpline
 62
7
  6
CONTINUOUS
 70
0
 71
3
 72
11
 73
7
 74
0
 42
0.0000001
 43
0.0000001
 44
0.0000000001
 40
0.0
 40
0.0
 40
0.0
 40
0.0
 40
0.2204370274
 40
0.4822083242
 40
0.7539838284
 40
1.0
 40
1.0
 40
1.0
 40
1.0
 10
142.4531316438
 20
333.9304914574
 30
0.0
 10
142.8617101458
 20
334.0472272297
 30
0.0
 10
143.68104309
 20
334.5477457236
 30
0.0
 10
144.644024399
 20
335.6543226783
 30
0.0
 10
145.329374337
 20
337.0077538319
 30
0.0
 10
145.5346429522
 20
338.0058583755
 30
0.0
 10
145.5346429522
 20
338.480094084
 30
0.0
  0
SPLINE
  5
5DC
100
AcDbEntity
  8
1
100
AcDbSpline
 62
7
  6
CONTINUOUS
 70
0
 71
3
 72
11
 73
7
 74
0
 42
0.0000001
 43
0.0000001
 44
0.0000000001
 40
0.0
 40
0.0
 40
0.0
 40
0.0
 40
0.2177505635
 40
0.4508989791
 40
0.7104722024
 40
1.0
 40
1.0
 40
1.0
 40
1.0
 10
142.7241111353
 20
333.2037957688
 30
0.0
 10
142.6086745861
 20
333.2704370796
 30
0.0
 10
142.392500628
 20
333.4518092146
 30
0.0
 10
142.1625224263
 20
333.8279945949
 30
0.0
 10
142.0261850565
 20
334.291434638
 30
0.0
 10
141.999135542
 20
334.6286748641
 30
0.0
 10
141.999135542
 20
334.8059034979
 30
0.0
  0
SPLINE
  5
5DD
100
AcDbEntity
  8
1
100
AcDbSpline
 62
7
  6
CONTINUOUS
 70
0
 71
3
 72
11
 73
7
 74
0
 42
0.0000001
 43
0.0000001
 44
0.0000000001
 40
0.0
 40
0.0
 40
0.0
 40
0.0
 40
0.2328308485
 40
0.4903616987
 40
0.7530554323
 40
1.0
 40
1.0
 40
1.0
 40
1.0
 10
207.9725459086
 20
94.2246587613
 30
0.0
 10
207.3498409876
 20
93.8651420536
 30
0.0
 10
205.9169076191
 20
93.3154837192
 30
0.0
 10
203.6016697277
 20
92.9757997417
 30
0.0
 10
201.2210672939
 20
93.095046274
 30
0.0
 10
199.6819807641
 20
93.4959949542
 30
0.0
 10
198.9761590359
 20
93.78480238
 30
0.0
  0
SPLINE
  5
5DE
100
AcDbEntity
  8
1
100
AcDbSpline
 62
7
  6
CONTINUOUS
 70
0
 71
3
 72
11
 73
7
 74
0
 42
0.0000001
 43
0.0000001
 44
0.0000000001
 40
0.0
 40
0.0
 40
0.0
 40
0.0
 40
0.2897048043
 40
0.5490913404
 40
0.7822177947
 40
1.0
 40
1.0
 40
1.0
 40
1.0
 10
130.1904761424
 20
326.9266976984
 30
0.0
 10
129.8833258556
 20
326.7493654561
 30
0.0
 10
129.3260778085
 20
326.3655501944
 30
0.0
 10
128.6600887538
 20
325.6656260433
 30
0.0
 10
128.238805912
 20
324.8913403539
 30
0.0
 10
128.1402790981
 20
324.3356284972
 30
0.0
 10
128.1402791475
 20
324.0690124168
 30
0.0
  0
SPLINE
  5
5DF
100
AcDbEntity
  8
1
100
AcDbSpline
 62
7
  6
CONTINUOUS
 70
0
 71
3
 72
9
 73
5
 74
0
 42
0.0000001
 43
0.0000001
 44
0.0000000001
 40
0.0
 40
0.0
 40
0.0
 40
0.0
 40
0.2430660006
 40
1.0
 40
1.0
 40
1.0
 40
1.0
 10
90.2635128207
 20
296.7695237093
 30
0.0
 10
90.3459895329
 20
296.7353269705
 30
0.0
 10
90.6827970346
 20
296.5886171936
 30
0.0
 10
91.0093891986
 20
296.4187796085
 30
0.0
 10
91.2501832557
 20
296.2797602399
 30
0.0
  0
SPLINE
  5
5E0
100
AcDbEntity
  8
1
100
AcDbSpline
 62
7
  6
CONTINUOUS
 70
0
 71
3
 72
11
 73
7
 74
0
 42
0.0000001
 43
0.0000001
 44
0.0000000001
 40
0.0
 40
0.0
 40
0.0
 40
0.0
 40
0.2393747834
 40
0.502162343
 40
0.7637778973
 40
1.0
 40
1.0
 40
1.0
 40
1.0
 10
132.9916071963
 20
335.1159781103
 30
0.0
 10
133.0256822956
 20
336.2624013628
 30
0.0
 10
133.5005312197
 20
338.6576360904
 30
0.0
 10
135.0282755358
 20
342.0117006108
 30
0.0
 10
137.2184819836
 20
344.957074728
 30
0.0
 10
139.07814834
 20
346.5100922393
 30
0.0
 10
140.058338083
 20
347.0760016732
 30
0.0
  0
SPLINE
  5
5E1
100
AcDbEntity
  8
1
100
AcDbSpline
 62
7
  6
CONTINUOUS
 70
0
 71
3
 72
9
 73
5
 74
0
 42
0.0000001
 43
0.0000001
 44
0.0000000001
 40
0.0
 40
0.0
 40
0.0
 40
0.0
 40
0.4999983279
 40
1.0
 40
1.0
 40
1.0
 40
1.0
 10
158.6160639407
 20
351.2582264002
 30
0.0
 10
158.8259427661
 20
351.3793992733
 30
0.0
 10
159.1575484159
 20
351.7620967704
 30
0.0
 10
159.3231677779
 20
352.2406245193
 30
0.0
 10
159.3231677779
 20
352.4829729712
 30
0.0
  0
SPLINE
  5
5E2
100
AcDbEntity
  8
1
100
AcDbSpline
 62
7
  6
CONTINUOUS
 70
0
 71
3
 72
9
 73
5
 74
0
 42
0.0000001
 43
0.0000001
 44
0.0000000001
 40
0.0
 40
0.0
 40
0.0
 40
0.0
 40
0.4999983279
 40
1.0
 40
1.0
 40
1.0
 40
1.0
 10
145.8881948708
 20
343.9098316306
 30
0.0
 10
146.0980736962
 20
344.0310045036
 30
0.0
 10
146.429679346
 20
344.4137020007
 30
0.0
 10
146.595298708
 20
344.8922297496
 30
0.0
 10
146.595298708
 20
345.1345782016
 30
0.0
  0
SPLINE
  5
5E3
100
AcDbEntity
  8
1
100
AcDbSpline
 62
7
  6
CONTINUOUS
 70
0
 71
3
 72
9
 73
5
 74
0
 42
0.0000001
 43
0.0000001
 44
0.0000000001
 40
0.0
 40
0.0
 40
0.0
 40
0.0
 40
0.4999983279
 40
1.0
 40
1.0
 40
1.0
 40
1.0
 10
171.3439330105
 20
358.6066211699
 30
0.0
 10
171.5538118359
 20
358.727794043
 30
0.0
 10
171.8854174857
 20
359.1104915401
 30
0.0
 10
172.0510368477
 20
359.589019289
 30
0.0
 10
172.0510368477
 20
359.8313677409
 30
0.0
  0
SPLINE
  5
5E4
100
AcDbEntity
  8
1
100
AcDbSpline
 62
7
  6
CONTINUOUS
 70
0
 71
3
 72
9
 73
5
 74
0
 42
0.0000001
 43
0.0000001
 44
0.0000000001
 40
0.0
 40
0.0
 40
0.0
 40
0.0
 40
0.2720772682
 40
1.0
 40
1.0
 40
1.0
 40
1.0
 10
145.5346429522
 20
338.480094084
 30
0.0
 10
145.5346429522
 20
338.5748800928
 30
0.0
 10
145.5195215914
 20
338.922478203
 30
0.0
 10
145.4396249746
 20
339.2717857214
 30
0.0
 10
145.3297532092
 20
339.500341195
 30
0.0
  0
SPLINE
  5
5E5
100
AcDbEntity
  8
1
100
AcDbSpline
 62
7
  6
CONTINUOUS
 70
0
 71
3
 72
9
 73
5
 74
0
 42
0.0000001
 43
0.0000001
 44
0.0000000001
 40
0.0
 40
0.0
 40
0.0
 40
0.0
 40
0.5000016721
 40
1.0
 40
1.0
 40
1.0
 40
1.0
 10
226.7814944362
 20
307.0049607404
 30
0.0
 10
226.7814944362
 20
307.2473091923
 30
0.0
 10
226.9471137982
 20
307.7258369412
 30
0.0
 10
227.278719448
 20
308.1085344383
 30
0.0
 10
227.4885982734
 20
308.2297073114
 30
0.0
  0
SPLINE
  5
5E6
100
AcDbEntity
  8
1
100
AcDbSpline
 62
7
  6
CONTINUOUS
 70
0
 71
3
 72
9
 73
5
 74
0
 42
0.0000001
 43
0.0000001
 44
0.0000000001
 40
0.0
 40
0.0
 40
0.0
 40
0.0
 40
0.5000016721
 40
1.0
 40
1.0
 40
1.0
 40
1.0
 10
214.0536253664
 20
299.6565659707
 30
0.0
 10
214.0536253664
 20
299.8989144226
 30
0.0
 10
214.2192447284
 20
300.3774421715
 30
0.0
 10
214.5508503781
 20
300.7601396686
 30
0.0
 10
214.7607292036
 20
300.8813125417
 30
0.0
  0
SPLINE
  5
5E7
100
AcDbEntity
  8
1
100
AcDbSpline
 62
7
  6
CONTINUOUS
 70
0
 71
3
 72
9
 73
5
 74
0
 42
0.0000001
 43
0.0000001
 44
0.0000000001
 40
0.0
 40
0.0
 40
0.0
 40
0.0
 40
0.5000016721
 40
1.0
 40
1.0
 40
1.0
 40
1.0
 10
239.5093635061
 20
314.35335551
 30
0.0
 10
239.5093635061
 20
314.595703962
 30
0.0
 10
239.6749828681
 20
315.0742317109
 30
0.0
 10
240.0065885178
 20
315.456929208
 30
0.0
 10
240.2164673433
 20
315.578102081
 30
0.0
  0
SPLINE
  5
5E8
100
AcDbEntity
  8
1
100
AcDbSpline
 62
7
  6
CONTINUOUS
 70
0
 71
3
 72
11
 73
7
 74
0
 42
0.0000001
 43
0.0000001
 44
0.0000000001
 40
0.0
 40
0.0
 40
0.0
 40
0.0
 40
0.2393747834
 40
0.502162343
 40
0.7637778973
 40
1.0
 40
1.0
 40
1.0
 40
1.0
 10
206.1067527765
 20
292.9038840929
 30
0.0
 10
206.1408278758
 20
294.0503073454
 30
0.0
 10
206.6156767999
 20
296.445542073
 30
0.0
 10
208.143421116
 20
299.7996065934
 30
0.0
 10
210.3336275638
 20
302.7449807106
 30
0.0
 10
212.1932939202
 20
304.2979982219
 30
0.0
 10
213.1734836632
 20
304.8639076558
 30
0.0
  0
SPLINE
  5
5E9
100
AcDbEntity
  8
1
100
AcDbSpline
 62
7
  6
CONTINUOUS
 70
0
 71
3
 72
9
 73
5
 74
0
 42
0.0000001
 43
0.0000001
 44
0.0000000001
 40
0.0
 40
0.0
 40
0.0
 40
0.0
 40
0.4999983279
 40
1.0
 40
1.0
 40
1.0
 40
1.0
 10
231.7312095209
 20
309.0461323828
 30
0.0
 10
231.9410883463
 20
309.1673052559
 30
0.0
 10
232.2726939961
 20
309.550002753
 30
0.0
 10
232.4383133581
 20
310.0285305019
 30
0.0
 10
232.4383133581
 20
310.2708789538
 30
0.0
  0
SPLINE
  5
5EA
100
AcDbEntity
  8
1
100
AcDbSpline
 62
7
  6
CONTINUOUS
 70
0
 71
3
 72
9
 73
5
 74
0
 42
0.0000001
 43
0.0000001
 44
0.0000000001
 40
0.0
 40
0.0
 40
0.0
 40
0.0
 40
0.4999983279
 40
1.0
 40
1.0
 40
1.0
 40
1.0
 10
219.003340451
 20
301.6977376132
 30
0.0
 10
219.2132192764
 20
301.8189104862
 30
0.0
 10
219.5448249262
 20
302.2016079833
 30
0.0
 10
219.7104442882
 20
302.6801357322
 30
0.0
 10
219.7104442882
 20
302.9224841842
 30
0.0
  0
SPLINE
  5
5EB
100
AcDbEntity
  8
1
100
AcDbSpline
 62
7
  6
CONTINUOUS
 70
0
 71
3
 72
9
 73
5
 74
0
 42
0.0000001
 43
0.0000001
 44
0.0000000001
 40
0.0
 40
0.0
 40
0.0
 40
0.0
 40
0.4999983279
 40
1.0
 40
1.0
 40
1.0
 40
1.0
 10
244.4590785907
 20
316.3945271525
 30
0.0
 10
244.6689574161
 20
316.5157000256
 30
0.0
 10
245.0005630659
 20
316.8983975227
 30
0.0
 10
245.1661824279
 20
317.3769252716
 30
0.0
 10
245.1661824279
 20
317.6192737235
 30
0.0
  0
SPLINE
  5
5EC
100
AcDbEntity
  8
1
100
AcDbSpline
 62
7
  6
CONTINUOUS
 70
0
 71
3
 72
9
 73
5
 74
0
 42
0.0000001
 43
0.0000001
 44
0.0000000001
 40
0.0
 40
0.0
 40
0.0
 40
0.0
 40
0.5000016721
 40
1.0
 40
1.0
 40
1.0
 40
1.0
 10
153.666348856
 20
349.2170547577
 30
0.0
 10
153.666348856
 20
349.4594032097
 30
0.0
 10
153.831968218
 20
349.9379309586
 30
0.0
 10
154.1635738678
 20
350.3206284557
 30
0.0
 10
154.3734526932
 20
350.4418013288
 30
0.0
  0
SPLINE
  5
5ED
100
AcDbEntity
  8
1
100
AcDbSpline
 62
7
  6
CONTINUOUS
 70
0
 71
3
 72
9
 73
5
 74
0
 42
0.0000001
 43
0.0000001
 44
0.0000000001
 40
0.0
 40
0.0
 40
0.0
 40
0.0
 40
0.5000016721
 40
1.0
 40
1.0
 40
1.0
 40
1.0
 10
140.9384797862
 20
341.8686599881
 30
0.0
 10
140.9384797862
 20
342.11100844
 30
0.0
 10
141.1040991482
 20
342.5895361889
 30
0.0
 10
141.4357047979
 20
342.972233686
 30
0.0
 10
141.6455836234
 20
343.0934065591
 30
0.0
  0
SPLINE
  5
5EE
100
AcDbEntity
  8
1
100
AcDbSpline
 62
7
  6
CONTINUOUS
 70
0
 71
3
 72
9
 73
5
 74
0
 42
0.0000001
 43
0.0000001
 44
0.0000000001
 40
0.0
 40
0.0
 40
0.0
 40
0.0
 40
0.5000016721
 40
1.0
 40
1.0
 40
1.0
 40
1.0
 10
166.3942179259
 20
356.5654495274
 30
0.0
 10
166.3942179259
 20
356.8077979794
 30
0.0
 10
166.5598372879
 20
357.2863257283
 30
0.0
 10
166.8914429376
 20
357.6690232254
 30
0.0
 10
167.1013217631
 20
357.7901960984
 30
0.0
  0
SPLINE
  5
5EF
100
AcDbEntity
  8
1
100
AcDbSpline
 62
7
  6
CONTINUOUS
 70
0
 71
3
 72
15
 73
11
 74
0
 42
0.0000001
 43
0.0000001
 44
0.0000000001
 40
0.0
 40
0.0
 40
0.0
 40
0.0
 40
0.1288225567
 40
0.2705893151
 40
0.4178846483
 40
0.5623776583
 40
0.6961908952
 40
0.8135842732
 40
0.9130572832
 40
1.0
 40
1.0
 40
1.0
 40
1.0
 10
141.999135542
 20
334.8059034979
 30
0.0
 10
141.999135542
 20
335.1050472384
 30
0.0
 10
142.0828857832
 20
335.7341010814
 30
0.0
 10
142.3951458358
 20
336.6577026328
 30
0.0
 10
142.8766223544
 20
337.5474016562
 30
0.0
 10
143.4879548834
 20
338.3301023555
 30
0.0
 10
144.1805251872
 20
338.9433784498
 30
0.0
 10
144.9027842221
 20
339.3379094617
 30
0.0
 10
145.6098008621
 20
339.4796175748
 30
0.0
 10
146.0490384191
 20
339.3666599628
 30
0.0
 10
146.2238868092
 20
339.265720304
 30
0.0
  0
SPLINE
  5
5F0
100
AcDbEntity
  8
1
100
AcDbSpline
 62
7
  6
CONTINUOUS
 70
0
 71
3
 72
9
 73
5
 74
0
 42
0.0000001
 43
0.0000001
 44
0.0000000001
 40
0.0
 40
0.0
 40
0.0
 40
0.0
 40
0.4999983279
 40
1.0
 40
1.0
 40
1.0
 40
1.0
 10
219.003340451
 20
91.0401139937
 30
0.0
 10
219.2132192764
 20
91.1612868668
 30
0.0
 10
219.5448249262
 20
91.5439843638
 30
0.0
 10
219.7104442882
 20
92.0225121128
 30
0.0
 10
219.7104442882
 20
92.2648605647
 30
0.0
  0
SPLINE
  5
5F1
100
AcDbEntity
  8
1
100
AcDbSpline
 62
7
  6
CONTINUOUS
 70
0
 71
3
 72
9
 73
5
 74
0
 42
0.0000001
 43
0.0000001
 44
0.0000000001
 40
0.0
 40
0.0
 40
0.0
 40
0.0
 40
0.5000016721
 40
1.0
 40
1.0
 40
1.0
 40
1.0
 10
214.0536253664
 20
88.9989423512
 30
0.0
 10
214.0536253664
 20
89.2412908032
 30
0.0
 10
214.2192447284
 20
89.7198185521
 30
0.0
 10
214.5508503781
 20
90.1025160492
 30
0.0
 10
214.7607292036
 20
90.2236889222
 30
0.0
  0
SPLINE
  5
5F2
100
AcDbEntity
  8
1
100
AcDbSpline
 62
7
  6
CONTINUOUS
 70
0
 71
3
 72
9
 73
5
 74
0
 42
0.0000001
 43
0.0000001
 44
0.0000000001
 40
0.0
 40
0.0
 40
0.0
 40
0.0
 40
0.4999975881
 40
1.0
 40
1.0
 40
1.0
 40
1.0
 10
111.5938713203
 20
299.9421506862
 30
0.0
 10
111.4889299515
 20
299.8815631203
 30
0.0
 10
111.2403188193
 20
299.8335844708
 30
0.0
 10
110.9917073573
 20
299.8815615929
 30
0.0
 10
110.8867645391
 20
299.9421489865
 30
0.0
  0
SPLINE
  5
5F3
100
AcDbEntity
  8
1
100
AcDbSpline
 62
7
  6
CONTINUOUS
 70
0
 71
3
 72
9
 73
5
 74
0
 42
0.0000001
 43
0.0000001
 44
0.0000000001
 40
0.0
 40
0.0
 40
0.0
 40
0.0
 40
0.2823175139
 40
1.0
 40
1.0
 40
1.0
 40
1.0
 10
94.2699880492
 20
48.419231918
 30
0.0
 10
94.430610244
 20
48.3264987484
 30
0.0
 10
95.0147022661
 20
48.0321420394
 30
0.0
 10
95.7015005398
 20
47.8882578845
 30
0.0
 10
96.1672567809
 20
47.9615267257
 30
0.0
  0
SPLINE
  5
5F4
100
AcDbEntity
  8
1
100
AcDbSpline
 62
7
  6
CONTINUOUS
 70
0
 71
3
 72
11
 73
7
 74
0
 42
0.0000001
 43
0.0000001
 44
0.0000000001
 40
0.0
 40
0.0
 40
0.0
 40
0.0
 40
0.1193560197
 40
0.3167941027
 40
0.6081962354
 40
1.0
 40
1.0
 40
1.0
 40
1.0
 10
128.2253335219
 20
321.0089285291
 30
0.0
 10
128.292261573
 20
321.0515578005
 30
0.0
 10
128.5091234902
 20
321.0893959657
 30
0.0
 10
128.910217097
 20
321.0692219884
 30
0.0
 10
129.4913536553
 20
320.9810016991
 30
0.0
 10
129.9358127843
 20
320.8897734249
 30
0.0
 10
130.1905173579
 20
320.8352158059
 30
0.0
  0
SPLINE
  5
5F5
100
AcDbEntity
  8
1
100
AcDbSpline
 62
7
  6
CONTINUOUS
 70
0
 71
3
 72
11
 73
7
 74
0
 42
0.0000001
 43
0.0000001
 44
0.0000000001
 40
0.0
 40
0.0
 40
0.0
 40
0.0
 40
0.2880460319
 40
0.5466367917
 40
0.7805153714
 40
1.0
 40
1.0
 40
1.0
 40
1.0
 10
52.0482613665
 20
273.896070349
 30
0.0
 10
51.6263343075
 20
274.1244539864
 30
0.0
 10
50.788715347
 20
274.4961479108
 30
0.0
 10
49.50689102
 20
274.7724138969
 30
0.0
 10
48.3068963524
 20
274.7196590272
 30
0.0
 10
47.5843497033
 20
274.4513090823
 30
0.0
 10
47.267751299
 20
274.2685219882
 30
0.0
  0
SPLINE
  5
5F6
100
AcDbEntity
  8
1
100
AcDbSpline
 62
7
  6
CONTINUOUS
 70
0
 71
3
 72
11
 73
7
 74
0
 42
0.0000001
 43
0.0000001
 44
0.0000000001
 40
0.0
 40
0.0
 40
0.0
 40
0.0
 40
0.2356514891
 40
0.4966295131
 40
0.7594265619
 40
1.0
 40
1.0
 40
1.0
 40
1.0
 10
122.9786646755
 20
224.7842432345
 30
0.0
 10
122.9786646755
 20
225.9004566111
 30
0.0
 10
122.5746231055
 20
228.2546391695
 30
0.0
 10
121.1525898339
 20
231.5861697661
 30
0.0
 10
119.0553358855
 20
234.5683295242
 30
0.0
 10
117.2538847866
 20
236.1811727549
 30
0.0
 10
116.2944609822
 20
236.7960128005
 30
0.0
  0
SPLINE
  5
5F7
100
AcDbEntity
  8
1
100
AcDbSpline
 62
7
  6
CONTINUOUS
 70
0
 71
3
 72
11
 73
7
 74
0
 42
0.0000001
 43
0.0000001
 44
0.0000000001
 40
0.0
 40
0.0
 40
0.0
 40
0.0
 40
0.2372405738
 40
0.5000004574
 40
0.7627600882
 40
1.0
 40
1.0
 40
1.0
 40
1.0
 10
198.0730509721
 20
282.0201909057
 30
0.0
 10
198.7757797511
 20
281.6144794343
 30
0.0
 10
200.4099608274
 20
281.0224531037
 30
0.0
 10
203.0228056216
 20
280.7388146663
 30
0.0
 10
205.6356468521
 20
281.0224648037
 30
0.0
 10
207.269822016
 20
281.6144992944
 30
0.0
 10
207.9725459086
 20
282.0202147011
 30
0.0
  0
SPLINE
  5
5F8
100
AcDbEntity
  8
1
100
AcDbSpline
 62
7
  6
CONTINUOUS
 70
0
 71
3
 72
11
 73
7
 74
0
 42
0.0000001
 43
0.0000001
 44
0.0000000001
 40
0.0
 40
0.0
 40
0.0
 40
0.0
 40
0.2372524156
 40
0.4999996414
 40
0.7627470637
 40
1.0
 40
1.0
 40
1.0
 40
1.0
 10
112.7709190977
 20
284.1573024917
 30
0.0
 10
112.55360708
 20
284.0318380888
 30
0.0
 10
112.0482813916
 20
283.8487262012
 30
0.0
 10
111.2403247925
 20
283.7611809956
 30
0.0
 10
110.4323672546
 20
283.8487226875
 30
0.0
 10
109.9270399621
 20
284.0318320223
 30
0.0
 10
109.7097265627
 20
284.1572951335
 30
0.0
  0
SPLINE
  5
5F9
100
AcDbEntity
  8
1
100
AcDbSpline
 62
7
  6
CONTINUOUS
 70
0
 71
3
 72
9
 73
5
 74
0
 42
0.0000001
 43
0.0000001
 44
0.0000000001
 40
0.0
 40
0.0
 40
0.0
 40
0.0
 40
0.2570218885
 40
1.0
 40
1.0
 40
1.0
 40
1.0
 10
116.6925630634
 20
310.9688373888
 30
0.0
 10
116.6108010806
 20
311.0160416236
 30
0.0
 10
116.2899621435
 20
311.1949029232
 30
0.0
 10
115.9579948647
 20
311.3540734817
 30
0.0
 10
115.7058926285
 20
311.4586008582
 30
0.0
  0
SPLINE
  5
5FA
100
AcDbEntity
  8
1
100
AcDbSpline
 62
7
  6
CONTINUOUS
 70
0
 71
3
 72
9
 73
5
 74
0
 42
0.0000001
 43
0.0000001
 44
0.0000000001
 40
0.0
 40
0.0
 40
0.0
 40
0.0
 40
0.2655467488
 40
1.0
 40
1.0
 40
1.0
 40
1.0
 10
247.856888073
 20
324.9584178786
 30
0.0
 10
247.787869545
 20
325.1537804644
 30
0.0
 10
247.5546804367
 20
325.8980107172
 30
0.0
 10
247.4288252104
 20
326.6806482476
 30
0.0
 10
247.4288252104
 20
327.2537135378
 30
0.0
  0
SPLINE
  5
5FB
100
AcDbEntity
  8
1
100
AcDbSpline
 62
7
  6
CONTINUOUS
 70
0
 71
3
 72
9
 73
5
 74
0
 42
0.0000001
 43
0.0000001
 44
0.0000000001
 40
0.0
 40
0.0
 40
0.0
 40
0.0
 40
0.234470682
 40
1.0
 40
1.0
 40
1.0
 40
1.0
 10
130.1905173579
 20
320.8352158058
 30
0.0
 10
130.3655412685
 20
320.7977257534
 30
0.0
 10
131.1044245283
 20
320.6025412525
 30
0.0
 10
131.8057364541
 20
320.2787772562
 30
0.0
 10
132.3118465334
 20
319.9865810761
 30
0.0
  0
SPLINE
  5
5FC
100
AcDbEntity
  8
1
100
AcDbSpline
 62
7
  6
CONTINUOUS
 70
0
 71
3
 72
10
 73
6
 74
0
 42
0.0000001
 43
0.0000001
 44
0.0000000001
 40
0.0
 40
0.0
 40
0.0
 40
0.0
 40
0.513485872
 40
0.7622511037
 40
1.0
 40
1.0
 40
1.0
 40
1.0
 10
207.9725459086
 20
102.3896829326
 30
0.0
 10
207.2474174796
 20
100.970248708
 30
0.0
 10
205.9257122475
 20
98.9700620761
 30
0.0
 10
203.7397749639
 20
96.756773771
 30
0.0
 10
202.5139830705
 20
95.8560888791
 30
0.0
 10
201.8748496346
 20
95.4870929785
 30
0.0
  0
SPLINE
  5
5FD
100
AcDbEntity
  8
1
100
AcDbSpline
 62
7
  6
CONTINUOUS
 70
0
 71
3
 72
9
 73
5
 74
0
 42
0.0000001
 43
0.0000001
 44
0.0000000001
 40
0.0
 40
0.0
 40
0.0
 40
0.0
 40
0.2380694925
 40
1.0
 40
1.0
 40
1.0
 40
1.0
 10
195.9517217966
 20
283.2449131692
 30
0.0
 10
196.1345966907
 20
283.1393326885
 30
0.0
 10
196.8877854711
 20
282.6700433777
 30
0.0
 10
197.5807447019
 20
282.1071050185
 30
0.0
 10
198.0730509721
 20
281.6441033719
 30
0.0
  0
SPLINE
  5
5FE
100
AcDbEntity
  8
1
100
AcDbSpline
 62
7
  6
CONTINUOUS
 70
0
 71
3
 72
12
 73
8
 74
0
 42
0.0000001
 43
0.0000001
 44
0.0000000001
 40
0.0
 40
0.0
 40
0.0
 40
0.0
 40
0.141481566
 40
0.2874777316
 40
0.5650606525
 40
0.805214374
 40
1.0
 40
1.0
 40
1.0
 40
1.0
 10
198.0730509721
 20
281.6441033719
 30
0.0
 10
198.5059280431
 20
281.2369933901
 30
0.0
 10
199.4173677797
 20
280.4438130064
 30
0.0
 10
201.2653589139
 20
278.9544568762
 30
0.0
 10
203.4868959774
 20
277.269643644
 30
0.0
 10
205.8835173491
 20
275.4776769171
 30
0.0
 10
207.3345710483
 20
274.3673566883
 30
0.0
 10
207.9725459086
 20
273.8551905298
 30
0.0
  0
SPLINE
  5
5FF
100
AcDbEntity
  8
1
100
AcDbSpline
 62
7
  6
CONTINUOUS
 70
0
 71
3
 72
11
 73
7
 74
0
 42
0.0000001
 43
0.0000001
 44
0.0000000001
 40
0.0
 40
0.0
 40
0.0
 40
0.0
 40
0.2362220079
 40
0.4978375315
 40
0.760625121
 40
1.0
 40
1.0
 40
1.0
 40
1.0
 10
214.5877031134
 20
304.0474261468
 30
0.0
 10
213.6075137636
 20
303.4815169398
 30
0.0
 10
211.7478477901
 20
301.9284999638
 30
0.0
 10
209.5576413478
 20
298.9831264087
 30
0.0
 10
208.0298965451
 20
295.6290616141
 30
0.0
 10
207.5550473398
 20
293.2338262944
 30
0.0
 10
207.5209722268
 20
292.0874025839
 30
0.0
  0
SPLINE
  5
600
100
AcDbEntity
  8
1
100
AcDbSpline
 62
7
  6
CONTINUOUS
 70
0
 71
3
 72
9
 73
5
 74
0
 42
0.0000001
 43
0.0000001
 44
0.0000000001
 40
0.0
 40
0.0
 40
0.0
 40
0.0
 40
0.5000016721
 40
1.0
 40
1.0
 40
1.0
 40
1.0
 10
233.8525328084
 20
309.4543974448
 30
0.0
 10
233.8525328084
 20
309.2120489928
 30
0.0
 10
233.6869134463
 20
308.7335212439
 30
0.0
 10
233.3553077966
 20
308.3508237469
 30
0.0
 10
233.1454289711
 20
308.2296508738
 30
0.0
  0
SPLINE
  5
601
100
AcDbEntity
  8
1
100
AcDbSpline
 62
7
  6
CONTINUOUS
 70
0
 71
3
 72
9
 73
5
 74
0
 42
0.0000001
 43
0.0000001
 44
0.0000000001
 40
0.0
 40
0.0
 40
0.0
 40
0.0
 40
0.5000016721
 40
1.0
 40
1.0
 40
1.0
 40
1.0
 10
221.1246637385
 20
302.1060026751
 30
0.0
 10
221.1246637385
 20
301.8636542232
 30
0.0
 10
220.9590443765
 20
301.3851264742
 30
0.0
 10
220.6274387267
 20
301.0024289772
 30
0.0
 10
220.4175599013
 20
300.8812561041
 30
0.0
  0
SPLINE
  5
602
100
AcDbEntity
  8
1
100
AcDbSpline
 62
7
  6
CONTINUOUS
 70
0
 71
3
 72
9
 73
5
 74
0
 42
0.0000001
 43
0.0000001
 44
0.0000000001
 40
0.0
 40
0.0
 40
0.0
 40
0.0
 40
0.5000016721
 40
1.0
 40
1.0
 40
1.0
 40
1.0
 10
246.5804018782
 20
316.8027922145
 30
0.0
 10
246.5804018782
 20
316.5604437625
 30
0.0
 10
246.4147825162
 20
316.0819160136
 30
0.0
 10
246.0831768664
 20
315.6992185166
 30
0.0
 10
245.873298041
 20
315.5780456435
 30
0.0
  0
SPLINE
  5
603
100
AcDbEntity
  8
1
100
AcDbSpline
 62
7
  6
CONTINUOUS
 70
0
 71
3
 72
11
 73
7
 74
0
 42
0.0000001
 43
0.0000001
 44
0.0000000001
 40
0.0
 40
0.0
 40
0.0
 40
0.0
 40
0.2893966051
 40
0.5491278405
 40
0.7823136736
 40
1.0
 40
1.0
 40
1.0
 40
1.0
 10
249.3733769546
 20
331.0300659657
 30
0.0
 10
249.3733769546
 20
331.1692520539
 30
0.0
 10
249.3947681563
 20
331.434206857
 30
0.0
 10
249.5016768832
 20
331.7984462996
 30
0.0
 10
249.6825442498
 20
332.0939683576
 30
0.0
 10
249.8522861565
 20
332.2365916802
 30
0.0
 10
249.9429933828
 20
332.2888757702
 30
0.0
  0
SPLINE
  5
604
100
AcDbEntity
  8
1
100
AcDbSpline
 62
7
  6
CONTINUOUS
 70
0
 71
3
 72
11
 73
7
 74
0
 42
0.0000001
 43
0.0000001
 44
0.0000000001
 40
0.0
 40
0.0
 40
0.0
 40
0.0
 40
0.2896986602
 40
0.5490859192
 40
0.7821981867
 40
1.0
 40
1.0
 40
1.0
 40
1.0
 10
247.4288252104
 20
327.2537135378
 30
0.0
 10
247.4288252104
 20
327.5323845395
 30
0.0
 10
247.4710483831
 20
328.0623704754
 30
0.0
 10
247.6857604358
 20
328.790492448
 30
0.0
 10
248.0470360353
 20
329.3814067496
 30
0.0
 10
248.3864787413
 20
329.6668161455
 30
0.0
 10
248.5679476397
 20
329.7715247345
 30
0.0
  0
SPLINE
  5
605
100
AcDbEntity
  8
1
100
AcDbSpline
 62
7
  6
CONTINUOUS
 70
0
 71
3
 72
11
 73
7
 74
0
 42
0.0000001
 43
0.0000001
 44
0.0000000001
 40
0.0
 40
0.0
 40
0.0
 40
0.0
 40
0.2177505635
 40
0.4508989791
 40
0.7104722024
 40
1.0
 40
1.0
 40
1.0
 40
1.0
 10
146.2238868092
 20
339.265720304
 30
0.0
 10
146.3393233584
 20
339.1990789932
 30
0.0
 10
146.5554973165
 20
339.0177068582
 30
0.0
 10
146.7854755181
 20
338.6415214779
 30
0.0
 10
146.921812888
 20
338.1780814348
 30
0.0
 10
146.9488624025
 20
337.8408412087
 30
0.0
 10
146.9488624025
 20
337.663612575
 30
0.0
  0
SPLINE
  5
606
100
AcDbEntity
  8
1
100
AcDbSpline
 62
7
  6
CONTINUOUS
 70
0
 71
3
 72
11
 73
7
 74
0
 42
0.0000001
 43
0.0000001
 44
0.0000000001
 40
0.0
 40
0.0
 40
0.0
 40
0.0
 40
0.2893966051
 40
0.5491278405
 40
0.7823136736
 40
1.0
 40
1.0
 40
1.0
 40
1.0
 10
191.3903794925
 20
364.5058078363
 30
0.0
 10
191.3903794925
 20
364.6449939245
 30
0.0
 10
191.4117706943
 20
364.9099487276
 30
0.0
 10
191.5186794211
 20
365.2741881703
 30
0.0
 10
191.6995467878
 20
365.5697102283
 30
0.0
 10
191.8692886944
 20
365.7123335508
 30
0.0
 10
191.9599959207
 20
365.7646176409
 30
0.0
  0
SPLINE
  5
607
100
AcDbEntity
  8
1
100
AcDbSpline
 62
7
  6
CONTINUOUS
 70
0
 71
3
 72
11
 73
7
 74
0
 42
0.0000001
 43
0.0000001
 44
0.0000000001
 40
0.0
 40
0.0
 40
0.0
 40
0.0
 40
0.2896986602
 40
0.5490859192
 40
0.7821981867
 40
1.0
 40
1.0
 40
1.0
 40
1.0
 10
189.4458277484
 20
360.7294554085
 30
0.0
 10
189.4458277484
 20
361.0081264102
 30
0.0
 10
189.4880509211
 20
361.5381123461
 30
0.0
 10
189.7027629738
 20
362.2662343187
 30
0.0
 10
190.0640385733
 20
362.8571486203
 30
0.0
 10
190.4034812792
 20
363.1425580162
 30
0.0
 10
190.5849501777
 20
363.2472666051
 30
0.0
  0
SPLINE
  5
608
100
AcDbEntity
  8
1
100
AcDbSpline
 62
7
  6
CONTINUOUS
 70
0
 71
3
 72
11
 73
7
 74
0
 42
0.0000001
 43
0.0000001
 44
0.0000000001
 40
0.0
 40
0.0
 40
0.0
 40
0.0
 40
0.2194836055
 40
0.4533617457
 40
0.7119528808
 40
1.0
 40
1.0
 40
1.0
 40
1.0
 10
120.9075082858
 20
48.7409398808
 30
0.0
 10
121.2241144805
 20
48.9237314726
 30
0.0
 10
121.8178021592
 20
49.4153129687
 30
0.0
 10
122.4634987412
 20
50.4281937977
 30
0.0
 10
122.8651582566
 20
51.676461336
 30
0.0
 10
122.9620645546
 20
52.5877378286
 30
0.0
 10
122.9752371205
 20
53.0673451933
 30
0.0
  0
SPLINE
  5
609
100
AcDbEntity
  8
1
100
AcDbSpline
 62
7
  6
CONTINUOUS
 70
0
 71
3
 72
11
 73
7
 74
0
 42
0.0000001
 43
0.0000001
 44
0.0000000001
 40
0.0
 40
0.0
 40
0.0
 40
0.0
 40
0.2362220079
 40
0.4978375315
 40
0.760625121
 40
1.0
 40
1.0
 40
1.0
 40
1.0
 10
141.4725575332
 20
346.2595201642
 30
0.0
 10
140.4923681834
 20
345.6936109572
 30
0.0
 10
138.63270221
 20
344.1405939812
 30
0.0
 10
136.4424957676
 20
341.1952204261
 30
0.0
 10
134.9147509649
 20
337.8411556315
 30
0.0
 10
134.4399017596
 20
335.4459203118
 30
0.0
 10
134.4058266466
 20
334.2994966013
 30
0.0
  0
SPLINE
  5
60A
100
AcDbEntity
  8
1
100
AcDbSpline
 62
7
  6
CONTINUOUS
 70
0
 71
3
 72
9
 73
5
 74
0
 42
0.0000001
 43
0.0000001
 44
0.0000000001
 40
0.0
 40
0.0
 40
0.0
 40
0.0
 40
0.5000016721
 40
1.0
 40
1.0
 40
1.0
 40
1.0
 10
160.7373872282
 20
351.6664914622
 30
0.0
 10
160.7373872282
 20
351.4241430102
 30
0.0
 10
160.5717678661
 20
350.9456152613
 30
0.0
 10
160.2401622164
 20
350.5629177643
 30
0.0
 10
160.0302833909
 20
350.4417448912
 30
0.0
  0
SPLINE
  5
60B
100
AcDbEntity
  8
1
100
AcDbSpline
 62
7
  6
CONTINUOUS
 70
0
 71
3
 72
9
 73
5
 74
0
 42
0.0000001
 43
0.0000001
 44
0.0000000001
 40
0.0
 40
0.0
 40
0.0
 40
0.0
 40
0.5000016721
 40
1.0
 40
1.0
 40
1.0
 40
1.0
 10
148.0095181583
 20
344.3180966925
 30
0.0
 10
148.0095181583
 20
344.0757482406
 30
0.0
 10
147.8438987963
 20
343.5972204916
 30
0.0
 10
147.5122931465
 20
343.2145229946
 30
0.0
 10
147.3024143211
 20
343.0933501215
 30
0.0
  0
SPLINE
  5
60C
100
AcDbEntity
  8
1
100
AcDbSpline
 62
7
  6
CONTINUOUS
 70
0
 71
3
 72
9
 73
5
 74
0
 42
0.0000001
 43
0.0000001
 44
0.0000000001
 40
0.0
 40
0.0
 40
0.0
 40
0.0
 40
0.5000016721
 40
1.0
 40
1.0
 40
1.0
 40
1.0
 10
173.465256298
 20
359.0148862319
 30
0.0
 10
173.465256298
 20
358.7725377799
 30
0.0
 10
173.299636936
 20
358.294010031
 30
0.0
 10
172.9680312862
 20
357.911312534
 30
0.0
 10
172.7581524608
 20
357.7901396609
 30
0.0
  0
SPLINE
  5
60D
100
AcDbEntity
  8
1
100
AcDbSpline
 62
7
  6
CONTINUOUS
 70
0
 71
3
 72
15
 73
11
 74
0
 42
0.0000001
 43
0.0000001
 44
0.0000000001
 40
0.0
 40
0.0
 40
0.0
 40
0.0
 40
0.1288225567
 40
0.2705893151
 40
0.4178846483
 40
0.5623776583
 40
0.6961908952
 40
0.8135842732
 40
0.9130572832
 40
1.0
 40
1.0
 40
1.0
 40
1.0
 10
146.9488624025
 20
337.663612575
 30
0.0
 10
146.9488624025
 20
337.3644688344
 30
0.0
 10
146.8651121613
 20
336.7354149914
 30
0.0
 10
146.5528521087
 20
335.81181344
 30
0.0
 10
146.0713755901
 20
334.9221144166
 30
0.0
 10
145.4600430611
 20
334.1394137173
 30
0.0
 10
144.7674727572
 20
333.526137623
 30
0.0
 10
144.0452137224
 20
333.1316066111
 30
0.0
 10
143.3381970824
 20
332.989898498
 30
0.0
 10
142.8989595254
 20
333.10285611
 30
0.0
 10
142.7241111353
 20
333.2037957688
 30
0.0
  0
SPLINE
  5
60E
100
AcDbEntity
  8
1
100
AcDbSpline
 62
7
  6
CONTINUOUS
 70
0
 71
3
 72
14
 73
10
 74
0
 42
0.0000001
 43
0.0000001
 44
0.0000000001
 40
0.0
 40
0.0
 40
0.0
 40
0.0
 40
0.0878424743
 40
0.1876395377
 40
0.3029194582
 40
0.4327484108
 40
0.573260761
 40
0.7189263224
 40
1.0
 40
1.0
 40
1.0
 40
1.0
 10
195.8531690386
 20
353.6080742275
 30
0.0
 10
195.5923116321
 20
353.5027519371
 30
0.0
 10
194.9785859806
 20
353.4085259745
 30
0.0
 10
194.0167618342
 20
353.6203336805
 30
0.0
 10
193.0288771382
 20
354.1358480735
 30
0.0
 10
192.0667544147
 20
354.9206155245
 30
0.0
 10
191.1843160505
 20
355.9268858382
 30
0.0
 10
190.201859525
 20
357.4583480493
 30
0.0
 10
189.7075739507
 20
358.7647993725
 30
0.0
 10
189.5475866397
 20
359.6506114262
 30
0.0
  0
SPLINE
  5
60F
100
AcDbEntity
  8
1
100
AcDbSpline
 62
7
  6
CONTINUOUS
 70
0
 71
3
 72
9
 73
5
 74
0
 42
0.0000001
 43
0.0000001
 44
0.0000000001
 40
0.0
 40
0.0
 40
0.0
 40
0.0
 40
0.2596681139
 40
1.0
 40
1.0
 40
1.0
 40
1.0
 10
189.5475866397
 20
359.6506114262
 30
0.0
 10
189.5309039368
 20
359.7429796221
 30
0.0
 10
189.4738327358
 20
360.0999071854
 30
0.0
 10
189.4458277484
 20
360.4618464664
 30
0.0
 10
189.4458277484
 20
360.7294554085
 30
0.0
  0
SPLINE
  5
610
100
AcDbEntity
  8
1
100
AcDbSpline
 62
7
  6
CONTINUOUS
 70
0
 71
3
 72
9
 73
5
 74
0
 42
0.0000001
 43
0.0000001
 44
0.0000000001
 40
0.0
 40
0.0
 40
0.0
 40
0.0
 40
0.5361845613
 40
1.0
 40
1.0
 40
1.0
 40
1.0
 10
207.5209722268
 20
87.3918878333
 30
0.0
 10
207.5405501215
 20
86.7558152639
 30
0.0
 10
207.6996308743
 20
85.566067964
 30
0.0
 10
208.2143085915
 20
84.4644085539
 30
0.0
 10
208.5466433792
 20
84.025564497
 30
0.0
  0
SPLINE
  5
611
100
AcDbEntity
  8
1
100
AcDbSpline
 62
7
  6
CONTINUOUS
 70
0
 71
3
 72
9
 73
5
 74
0
 42
0.0000001
 43
0.0000001
 44
0.0000000001
 40
0.0
 40
0.0
 40
0.0
 40
0.0
 40
0.256491315
 40
1.0
 40
1.0
 40
1.0
 40
1.0
 10
208.5466433792
 20
84.025564497
 30
0.0
 10
208.6189363133
 20
83.9301025543
 30
0.0
 10
208.9175300023
 20
83.5710124863
 30
0.0
 10
209.2872275027
 20
83.270143799
 30
0.0
 10
209.5878149673
 20
83.0965414024
 30
0.0
  0
SPLINE
  5
612
100
AcDbEntity
  8
1
100
AcDbSpline
 62
7
  6
CONTINUOUS
 70
0
 71
3
 72
9
 73
5
 74
0
 42
0.0000001
 43
0.0000001
 44
0.0000000001
 40
0.0
 40
0.0
 40
0.0
 40
0.0
 40
0.5000016721
 40
1.0
 40
1.0
 40
1.0
 40
1.0
 10
221.1246637385
 20
91.4483790557
 30
0.0
 10
221.1246637385
 20
91.2060306037
 30
0.0
 10
220.9590443765
 20
90.7275028548
 30
0.0
 10
220.6274387267
 20
90.3448053577
 30
0.0
 10
220.4175599013
 20
90.2236324847
 30
0.0
  0
SPLINE
  5
613
100
AcDbEntity
  8
1
100
AcDbSpline
 62
7
  6
CONTINUOUS
 70
0
 71
3
 72
9
 73
5
 74
0
 42
0.0000001
 43
0.0000001
 44
0.0000000001
 40
0.0
 40
0.0
 40
0.0
 40
0.0
 40
0.4491641734
 40
1.0
 40
1.0
 40
1.0
 40
1.0
 10
138.0827092613
 20
299.2886973175
 30
0.0
 10
138.0827092238
 20
299.1201248588
 30
0.0
 10
137.9355129038
 20
298.7438518638
 30
0.0
 10
137.6278767926
 20
298.5083880437
 30
0.0
 10
137.4488430165
 20
298.4050234618
 30
0.0
  0
SPLINE
  5
614
100
AcDbEntity
  8
1
100
AcDbSpline
 62
7
  6
CONTINUOUS
 70
0
 71
3
 72
9
 73
5
 74
0
 42
0.0000001
 43
0.0000001
 44
0.0000000001
 40
0.0
 40
0.0
 40
0.0
 40
0.0
 40
0.5500415763
 40
1.0
 40
1.0
 40
1.0
 40
1.0
 10
136.2717922951
 20
314.5981141105
 30
0.0
 10
136.3130771877
 20
314.5742788059
 30
0.0
 10
136.3838170426
 20
314.5196982119
 30
0.0
 10
136.4182865028
 20
314.4329893582
 30
0.0
 10
136.4182865226
 20
314.3939920223
 30
0.0
  0
SPLINE
  5
615
100
AcDbEntity
  8
1
100
AcDbSpline
 62
7
  6
CONTINUOUS
 70
0
 71
3
 72
9
 73
5
 74
0
 42
0.0000001
 43
0.0000001
 44
0.0000000001
 40
0.0
 40
0.0
 40
0.0
 40
0.0
 40
0.5508359905
 40
1.0
 40
1.0
 40
1.0
 40
1.0
 10
137.4488430165
 20
313.5103181787
 30
0.0
 10
137.6278768461
 20
313.6136827915
 30
0.0
 10
137.9355129067
 20
313.8491466363
 30
0.0
 10
138.0827093137
 20
314.2254196353
 30
0.0
 10
138.0827092613
 20
314.3939920327
 30
0.0
  0
SPLINE
  5
616
100
AcDbEntity
  8
1
100
AcDbSpline
 62
7
  6
CONTINUOUS
 70
0
 71
3
 72
11
 73
7
 74
0
 42
0.0000001
 43
0.0000001
 44
0.0000000001
 40
0.0
 40
0.0
 40
0.0
 40
0.0
 40
0.2372531816
 40
0.5000006935
 40
0.7627478297
 40
1.0
 40
1.0
 40
1.0
 40
1.0
 10
109.7097265627
 20
299.2625898504
 30
0.0
 10
109.9270401868
 20
299.1371266094
 30
0.0
 10
110.4323678627
 20
298.954017231
 30
0.0
 10
111.2403256802
 20
298.8664757125
 30
0.0
 10
112.0482819996
 20
298.9540210915
 30
0.0
 10
112.5536073047
 20
299.1371329354
 30
0.0
 10
112.7709190977
 20
299.2625972086
 30
0.0
  0
SPLINE
  5
617
100
AcDbEntity
  8
1
100
AcDbSpline
 62
7
  6
CONTINUOUS
 70
0
 71
3
 72
11
 73
7
 74
0
 42
0.0000001
 43
0.0000001
 44
0.0000000001
 40
0.0
 40
0.0
 40
0.0
 40
0.0
 40
0.2177817009
 40
0.4509079353
 40
0.7102947134
 40
1.0
 40
1.0
 40
1.0
 40
1.0
 10
128.1402791475
 20
324.0690124168
 30
0.0
 10
128.1402791969
 20
323.8023935205
 30
0.0
 10
128.2388080836
 20
323.2466753462
 30
0.0
 10
128.6601000306
 20
322.4723821196
 30
0.0
 10
129.3261026972
 20
321.7724528141
 30
0.0
 10
129.8833613255
 20
321.3886359458
 30
0.0
 10
130.1905173579
 20
321.2113033396
 30
0.0
  0
ELLIPSE
  5
618
100
AcDbEntity
  8
1
100
AcDbEllipse
 62
7
  6
CONTINUOUS
 10
47.6716055379
 20
249.9498078548
 30
0.0
 11
1.4623359237
 21
2.6633238637
 31
0.0
 40
0.5769966889
 41
-4.2582969585
 42
-3.9517911715
  0
ELLIPSE
  5
619
100
AcDbEntity
  8
1
100
AcDbEllipse
 62
7
  6
CONTINUOUS
 10
58.9853258126
 20
249.0745154385
 30
0.0
 11
406.6906517906
 21
240.9084016147
 31
0.0
 40
0.0179559481
 41
1.5822662357
 42
1.5876857087
  0
ELLIPSE
  5
61A
100
AcDbEntity
  8
1
100
AcDbEllipse
 62
7
  6
CONTINUOUS
 10
104.9474579472
 20
222.5388663947
 30
0.0
 11
14.1421356236
 21
0.0000509906
 31
0.0
 40
0.577354396
 41
-0.0000020817
 42
1.0471954695
  0
ELLIPSE
  5
61B
100
AcDbEntity
  8
1
100
AcDbEllipse
 62
7
  6
CONTINUOUS
 10
112.018525759
 20
98.4305159877
 30
0.0
 11
7.0710678118
 21
0.0000254953
 31
0.0
 40
0.577354396
 41
-0.0000020817
 42
1.5707942451
  0
ELLIPSE
  5
61C
100
AcDbEntity
  8
1
100
AcDbEllipse
 62
7
  6
CONTINUOUS
 10
49.0858249882
 20
248.7650422753
 30
0.0
 11
1.4623359237
 21
2.6633238637
 31
0.0
 40
0.5769966889
 41
-4.4167609529
 42
-3.9517911715
  0
ELLIPSE
  5
61D
100
AcDbEntity
  8
1
100
AcDbEllipse
 62
7
  6
CONTINUOUS
 10
58.9853258126
 20
249.0745154385
 30
0.0
 11
325.3525214325
 21
192.7267212918
 31
0.0
 40
0.0179559481
 41
1.5835525397
 42
1.5903270032
  0
ENDSEC
  0
SECTION
  2
OBJECTS
  0
DICTIONARY
  5
C
100
AcDbDictionary
280
0
281
1
  3
ACAD_GROUP
350
D
  3
ACAD_MLINESTYLE
350
17
  3
ACAD_LAYOUT
350
1A
  3
ACAD_PLOTSETTINGS
350
19
  3
ACAD_PLOTSTYLENAME
350
E
  0
DICTIONARY
  5
D
102
{ACAD_REACTORS
330
C
102
}
100
AcDbDictionary
280
0
281
1
  0
ACDBDICTIONARYWDFLT
  5
E
102
{ACAD_REACTORS
330
C
102
}
100
AcDbDictionary
281
1
  3
Normal
350
F
100
AcDbDictionaryWithDefault
340
F
  0
DICTIONARY
  5
17
102
{ACAD_REACTORS
330
C
102
}
100
AcDbDictionary
280
0
281
1
  3
Standard
350
18
  0
DICTIONARY
  5
19
102
{ACAD_REACTORS
330
C
102
}
100
AcDbDictionary
281
1
  0
DICTIONARY
  5
1A
102
{ACAD_REACTORS
330
C
102
}
100
AcDbDictionary
281
1
  3
Model
350
61E
  3
Layout1
350
61F
  0
ACDBPLACEHOLDER
  5
F
102
{ACAD_REACTORS
330
E
102
}
  0
MLINESTYLE
  5
18
102
{ACAD_REACTORS
330
17
102
}
100
AcDbMlineStyle
  2
STANDARD
 70
0
  3

 62
256
 51
90.0
 52
90.0
 71
2
 49
0.5
 62
256
  6
BYLAYER
 49
-0.5
 62
256
  6
BYLAYER
  0
LAYOUT
  5
61E
102
{ACAD_REACTORS
330
1A
102
}
100
AcDbPlotSettings
  1

  2
none_device
  4

  6

 40
0.0
 41
0.0
 42
0.0
 43
0.0
 44
210.0
 45
297.0
 46
0.0
 47
0.0
 48
0.0
 49
0.0
140
0.0
141
0.0
142
1.0
143
1.0
 70
1024
 72
1
 73
0
 74
0
  7

 75
0
147
1.0
148
0.0
149
0.0
100
AcDbLayout
  1
Model
 70
0
 71
0
 10
0.0
 20
0.0
 11
210.0
 21
297.0
 12
0.0
 22
0.0
 32
0.0
 14
0.0
 24
0.0
 34
0.0
 15
0.0
 25
0.0
 35
0.0
146
0.0
 13
0.0
 23
0.0
 33
0.0
 16
1.0
 26
0.0
 36
0.0
 17
0.0
 27
1.0
 37
0.0
 76
0
330
212
345
0
346
0
  0
LAYOUT
  5
61F
102
{ACAD_REACTORS
330
1A
102
}
100
AcDbPlotSettings
  1

  2
none_device
  4

  6

 40
0.0
 41
0.0
 42
0.0
 43
0.0
 44
210.0
 45
297.0
 46
0.0
 47
0.0
 48
0.0
 49
0.0
140
0.0
141
0.0
142
1.0
143
1.0
 70
0
 72
1
 73
0
 74
0
  7

 75
0
147
1.0
148
0.0
149
0.0
100
AcDbLayout
  1
Layout1
 70
0
 71
1
 10
0.0
 20
0.0
 11
210.0
 21
297.0
 12
0.0
 22
0.0
 32
0.0
 14
0.0
 24
0.0
 34
0.0
 15
0.0
 25
0.0
 35
0.0
146
0.0
 13
0.0
 23
0.0
 33
0.0
 16
1.0
 26
0.0
 36
0.0
 17
0.0
 27
1.0
 37
0.0
 76
0
330
213
345
0
346
0
  0
ENDSEC
  0
EOF
