999
DXF file: C:\Users\sesa63760\Dev\_Creo\CAD\MCADUE0002059_3D-CAD\drw0001_2.dxf
999
Pro/ENGINEER 2019471 by Parametric Technology Corporation
  0
SECTION
  2
HEADER
  9
$ACADVER
  1
AC1024
  9
$DWGCODEPAGE
  3
ANSI_1252
  9
$EXTMAX
 10
685.9125019256
 20
970.0762527233
 30
0.0
  9
$EXTMIN
 10
0.0
 20
0.0
 30
0.0
  9
$LIMMIN
 10
0.0
 20
0.0
  9
$LIMMAX
 10
685.9125019256
 20
970.0762527233
  9
$VIEWCTR
 10
342.9562509628
 20
485.0381263617
  9
$VIEWSIZE
 40
970.0762527233
  9
$CLAYER
  8
0
  9
$LTSCALE
 40
63.2346001775
  9
$CELTYPE
  6
BYLAYER
  9
$DIMSCALE
 40
1.0
  9
$DIMASZ
 40
8.1656250229
  9
$DIMEXO
 40
1.0
  9
$DIMDLI
 40
43.6893601226
  9
$DIMEXE
 40
1.0
  9
$DIMCEN
 40
10.347480029
  9
$DIMLFAC
 40
1.0
  9
$DIMBLK
  1
_FILLED
  9
$DIMALT
 70
0
  9
$DIMALTF
 40
0.0393700787
  9
$DIMTXT
 40
11.4318750321
  9
$DIMTOL
 70
1
  9
$DIMLIM
 70
0
  9
$DIMTFAC
 40
1.0
  9
$DIMTP
 40
0.01
  9
$DIMTM
 40
0.01
  9
$DIMGAP
 40
0.625
  9
$DIMDSEP
 70
46
  9
$AUNITS
 70
0
  9
$PDMODE
 70
3
  9
$PDSIZE
 40
0.3125
  9
$HANDSEED
  5
2C7
  9
$TILEMODE
 70
1
  9
$MEASUREMENT
 70
1
  9
$INSUNITS
 70
4
  0
ENDSEC
  0
SECTION
  2
CLASSES
  0
CLASS
  1
ACDBDICTIONARYWDFLT
  2
AcDbDictionaryWithDefault
  3
AutoCAD 2000
 90
0
 91
1
280
0
281
0
  0
CLASS
  1
ACDBPLACEHOLDER
  2
AcDbPlaceHolder
  3
AutoCAD 2000
 90
0
 91
1
280
0
281
0
  0
CLASS
  1
LAYOUT
  2
AcDbLayout
  3
AutoCAD 2000
 90
0
 91
0
280
0
281
0
  0
ENDSEC
  0
SECTION
  2
TABLES
  0
TABLE
  2
VPORT
  5
8
100
AcDbSymbolTable
 70
2
  0
VPORT
  5
1F4
100
AcDbSymbolTableRecord
100
AcDbViewportTableRecord
  2
*ACTIVE
 70
0
 10
0.0
 20
0.0
 11
1.0
 21
1.0
 12
342.9562509628
 22
485.0381263617
 13
0.0
 23
0.0
 14
1.0
 24
1.0
 15
0.0
 25
0.0
 16
0.0
 26
0.0
 36
1.0
 17
0.0
 27
0.0
 37
0.0
 40
970.0762527233
 41
0.7070707071
 42
50.0
 43
0.0
 44
0.0
 50
0.0
 51
0.0
 71
0
 72
100
 73
1
 74
1
 75
0
 76
0
 77
0
 78
0
  0
ENDTAB
  0
TABLE
  2
LTYPE
  5
5
100
AcDbSymbolTable
 70
6
  0
LTYPE
  5
14
100
AcDbSymbolTableRecord
100
AcDbLinetypeTableRecord
  2
BYBLOCK
 70
0
  3

 72
65
 73
0
 40
0.0
  0
LTYPE
  5
15
100
AcDbSymbolTableRecord
100
AcDbLinetypeTableRecord
  2
BYLAYER
 70
0
  3

 72
65
 73
0
 40
0.0
  0
LTYPE
  5
16
100
AcDbSymbolTableRecord
100
AcDbLinetypeTableRecord
  2
CONTINUOUS
 70
64
  3
Solid line
 72
65
 73
0
 40
0.0
  0
LTYPE
  5
1F5
100
AcDbSymbolTableRecord
100
AcDbLinetypeTableRecord
  2
CENTER
 70
64
  3
____ _ ____ _ ____ _ ____ _ ____ _ ____ _ ____
 72
65
 73
4
 40
0.6
 49
0.375
 74
0
 49
-0.075
 74
0
 49
0.075
 74
0
 49
-0.075
 74
0
  0
LTYPE
  5
1F6
100
AcDbSymbolTableRecord
100
AcDbLinetypeTableRecord
  2
HIDDEN
 70
64
  3
- - - - - - - - - - - - - - - - - - - -
 72
65
 73
2
 40
0.2
 49
0.1
 74
0
 49
-0.1
 74
0
  0
LTYPE
  5
1F7
100
AcDbSymbolTableRecord
100
AcDbLinetypeTableRecord
  2
PHANTOM
 70
64
  3
_____ _ _ _____ _ _ _____ _ _ _____
 72
65
 73
6
 40
0.8
 49
0.45
 74
0
 49
-0.05
 74
0
 49
0.1
 74
0
 49
-0.05
 74
0
 49
0.1
 74
0
 49
-0.05
 74
0
  0
LTYPE
  5
1F8
100
AcDbSymbolTableRecord
100
AcDbLinetypeTableRecord
  2
DOT
 70
64
  3
. . . . . . . . . . . . . . . . . . . .
 72
65
 73
2
 40
0.2
 49
0.1
 74
0
 49
-0.1
 74
0
  0
LTYPE
  5
1F9
100
AcDbSymbolTableRecord
100
AcDbLinetypeTableRecord
  2
DASHED
 70
64
  3
- - - - - - - - - - - - - - - - - - - -
 72
65
 73
2
 40
0.2
 49
0.1
 74
0
 49
-0.1
 74
0
  0
ENDTAB
  0
TABLE
  2
LAYER
  5
2
100
AcDbSymbolTable
 70
36
  0
LAYER
  5
10
100
AcDbSymbolTableRecord
100
AcDbLayerTableRecord
  2
0
 70
0
 62
7
  6
CONTINUOUS
370
-3
390
F
  0
LAYER
  5
1FA
100
AcDbSymbolTableRecord
100
AcDbLayerTableRecord
  2
DEFAULT_1
 70
0
 62
7
  6
CENTER
370
-3
390
F
  0
LAYER
  5
1FB
100
AcDbSymbolTableRecord
100
AcDbLayerTableRecord
  2
DEFAULT_2
 70
0
 62
8
  6
HIDDEN
370
-3
390
F
  0
LAYER
  5
1FC
100
AcDbSymbolTableRecord
100
AcDbLayerTableRecord
  2
DEFAULT_3
 70
0
 62
7
  6
PHANTOM
370
-3
390
F
  0
LAYER
  5
1FD
100
AcDbSymbolTableRecord
100
AcDbLayerTableRecord
  2
00_COMPONENTS
 70
0
 62
7
  6
CONTINUOUS
370
-3
390
F
  0
LAYER
  5
1FE
100
AcDbSymbolTableRecord
100
AcDbLayerTableRecord
  2
01_1_DEFAULT_DATUMS
 70
0
 62
7
  6
CONTINUOUS
370
-3
390
F
  0
LAYER
  5
1FF
100
AcDbSymbolTableRecord
100
AcDbLayerTableRecord
  2
01_PLANES
 70
0
 62
7
  6
CONTINUOUS
370
-3
390
F
  0
LAYER
  5
200
100
AcDbSymbolTableRecord
100
AcDbLayerTableRecord
  2
02_COORD_SYS
 70
0
 62
7
  6
CONTINUOUS
370
-3
390
F
  0
LAYER
  5
201
100
AcDbSymbolTableRecord
100
AcDbLayerTableRecord
  2
03_AXES
 70
0
 62
7
  6
CONTINUOUS
370
-3
390
F
  0
LAYER
  5
202
100
AcDbSymbolTableRecord
100
AcDbLayerTableRecord
  2
04_POINTS
 70
0
 62
7
  6
CONTINUOUS
370
-3
390
F
  0
LAYER
  5
203
100
AcDbSymbolTableRecord
100
AcDbLayerTableRecord
  2
05_CURVES
 70
0
 62
7
  6
CONTINUOUS
370
-3
390
F
  0
LAYER
  5
204
100
AcDbSymbolTableRecord
100
AcDbLayerTableRecord
  2
06_SURFS
 70
0
 62
7
  6
CONTINUOUS
370
-3
390
F
  0
LAYER
  5
205
100
AcDbSymbolTableRecord
100
AcDbLayerTableRecord
  2
07_COSMETICS
 70
0
 62
7
  6
CONTINUOUS
370
-3
390
F
  0
LAYER
  5
206
100
AcDbSymbolTableRecord
100
AcDbLayerTableRecord
  2
10_NOTES
 70
0
 62
7
  6
CONTINUOUS
370
-3
390
F
  0
LAYER
  5
207
100
AcDbSymbolTableRecord
100
AcDbLayerTableRecord
  2
11_NOTES_PUB
 70
0
 62
7
  6
CONTINUOUS
370
-3
390
F
  0
LAYER
  5
208
100
AcDbSymbolTableRecord
100
AcDbLayerTableRecord
  2
13_REF_GTOL
 70
0
 62
7
  6
CONTINUOUS
370
-3
390
F
  0
LAYER
  5
209
100
AcDbSymbolTableRecord
100
AcDbLayerTableRecord
  2
16_MISC
 70
0
 62
7
  6
CONTINUOUS
370
-3
390
F
  0
LAYER
  5
20A
100
AcDbSymbolTableRecord
100
AcDbLayerTableRecord
  2
17_NO_PRINT
 70
0
 62
7
  6
CONTINUOUS
370
-3
390
F
  0
LAYER
  5
20B
100
AcDbSymbolTableRecord
100
AcDbLayerTableRecord
  2
18_DATUM_CAMS_JOINTS
 70
0
 62
7
  6
CONTINUOUS
370
-3
390
F
  0
LAYER
  5
20C
100
AcDbSymbolTableRecord
100
AcDbLayerTableRecord
  2
19_DATUM_FUNCTIONAL
 70
0
 62
7
  6
CONTINUOUS
370
-3
390
F
  0
LAYER
  5
20D
100
AcDbSymbolTableRecord
100
AcDbLayerTableRecord
  2
20_DATUM_KINEMATIC_SCHEME
 70
0
 62
7
  6
CONTINUOUS
370
-3
390
F
  0
ENDTAB
  0
TABLE
  2
STYLE
  5
3
100
AcDbSymbolTable
 70
1
  0
STYLE
  5
11
100
AcDbSymbolTableRecord
100
AcDbTextStyleTableRecord
  2
STANDARD
 70
0
 40
0.0
 41
0.8
 50
0.0
 71
0
 42
0.2
  3
txt
  4

  0
STYLE
  5
20E
100
AcDbSymbolTableRecord
100
AcDbTextStyleTableRecord
  2
TEXTSTYLE_1
 70
0
 40
0.0
 41
0.8
 50
0.0
 71
0
 42
0.2
  3
gdt
  4

  0
ENDTAB
  0
TABLE
  2
VIEW
  5
6
100
AcDbSymbolTable
 70
0
  0
ENDTAB
  0
TABLE
  2
UCS
  5
7
100
AcDbSymbolTable
 70
0
  0
ENDTAB
  0
TABLE
  2
APPID
  5
9
100
AcDbSymbolTable
 70
1
  0
APPID
  5
20F
100
AcDbSymbolTableRecord
100
AcDbRegAppTableRecord
  2
ACAD
 70
0
  0
ENDTAB
  0
TABLE
  2
BLOCK_RECORD
  5
1
100
AcDbSymbolTable
 70
0
  0
BLOCK_RECORD
  5
210
100
AcDbSymbolTableRecord
100
AcDbBlockTableRecord
  2
*Model_Space
  0
BLOCK_RECORD
  5
211
100
AcDbSymbolTableRecord
100
AcDbBlockTableRecord
  2
*Paper_Space
  0
BLOCK_RECORD
  5
212
100
AcDbSymbolTableRecord
100
AcDbBlockTableRecord
  2
_FILLED
  0
ENDTAB
  0
TABLE
  2
DIMSTYLE
  5
A
100
AcDbSymbolTable
 70
1
100
AcDbDimStyleTable
 71
0
  0
DIMSTYLE
105
213
100
AcDbSymbolTableRecord
100
AcDbDimStyleTableRecord
  2
STANDARD
 70
0
  3

  4

 40
1.0
 41
8.1656250229
 42
1.0
 43
0.38
 44
1.0
 45
0.0
 46
0.0
 47
0.01
 48
0.01
140
11.4318750321
141
0.09
142
0.0
143
25.4
144
1.0
145
0.0
146
1.0
147
0.625
 71
1
 72
0
 73
0
 74
0
 75
0
 76
0
 77
1
 78
8
 79
2
170
0
171
1
172
0
173
0
174
0
175
0
176
0
177
0
178
0
270
2
179
2
271
2
272
2
273
2
274
2
275
0
280
0
281
0
282
0
283
1
284
8
285
0
286
0
287
3
288
0
340
11
278
46
341
212
342
212
343
212
344
212
  0
ENDTAB
  0
ENDSEC
  0
SECTION
  2
BLOCKS
  0
BLOCK
  5
20
100
AcDbEntity
  8
0
100
AcDbBlockBegin
  2
*Model_Space
 70
0
 10
0.0
 20
0.0
 30
0.0
  3
*Model_Space
  1

  0
ENDBLK
  5
21
100
AcDbEntity
  8
0
100
AcDbBlockEnd
  0
BLOCK
  5
1C
100
AcDbEntity
  8
0
100
AcDbBlockBegin
  2
*Paper_Space
 70
0
 10
0.0
 20
0.0
 30
0.0
  3
*Paper_Space
  1

  0
ENDBLK
  5
1D
100
AcDbEntity
  8
0
100
AcDbBlockEnd
  0
BLOCK
  5
214
100
AcDbEntity
  8
0
100
AcDbBlockBegin
  2
_FILLED
 70
64
 10
0.0
 20
0.0
  3
_FILLED
  1

  0
SOLID
  5
215
100
AcDbEntity
  8
0
  6
BYBLOCK
 62
0
100
AcDbTrace
 10
0.0
 20
0.0
 11
-1.0
 21
0.25
 12
-1.0
 22
-0.25
 13
-1.0
 23
-0.25
  0
ENDBLK
  5
216
100
AcDbEntity
  8
0
  6
BYBLOCK
 62
0
100
AcDbBlockEnd
  0
ENDSEC
  0
SECTION
  2
ENTITIES
  0
LINE
  5
217
100
AcDbEntity
  8
0
100
AcDbLine
 62
7
  6
CONTINUOUS
 10
75.2057063005
 20
474.00708061
 11
75.2057063005
 21
472.50708061
  0
LINE
  5
218
100
AcDbEntity
  8
0
100
AcDbLine
 62
7
  6
CONTINUOUS
 10
76.7057063005
 20
477.00708061
 11
76.7057063005
 21
474.00708061
  0
LINE
  5
219
100
AcDbEntity
  8
0
100
AcDbLine
 62
7
  6
CONTINUOUS
 10
90.2057063005
 20
481.00708061
 11
90.2057063005
 21
477.00708061
  0
LINE
  5
21A
100
AcDbEntity
  8
0
100
AcDbLine
 62
7
  6
CONTINUOUS
 10
94.2557063005
 20
484.80708061
 11
94.2557063005
 21
481.00708061
  0
LINE
  5
21B
100
AcDbEntity
  8
0
100
AcDbLine
 62
7
  6
CONTINUOUS
 10
94.3557063005
 20
481.00708061
 11
94.3557063005
 21
484.80708061
  0
LINE
  5
21C
100
AcDbEntity
  8
0
100
AcDbLine
 62
7
  6
CONTINUOUS
 10
95.7057063005
 20
485.90708061
 11
95.7057063005
 21
493.50708061
  0
LINE
  5
21D
100
AcDbEntity
  8
0
100
AcDbLine
 62
7
  6
CONTINUOUS
 10
97.6057063004
 20
484.80708061
 11
97.6057063005
 21
481.00708061
  0
LINE
  5
21E
100
AcDbEntity
  8
0
100
AcDbLine
 62
7
  6
CONTINUOUS
 10
97.8057063005
 20
481.00708061
 11
97.8057063005
 21
484.80708061
  0
LINE
  5
21F
100
AcDbEntity
  8
0
100
AcDbLine
 62
7
  6
CONTINUOUS
 10
99.7057063005
 20
493.50708061
 11
99.7057063005
 21
485.90708061
  0
LINE
  5
220
100
AcDbEntity
  8
0
100
AcDbLine
 62
7
  6
CONTINUOUS
 10
100.2057063005
 20
472.50708061
 11
100.2057063005
 21
481.00708061
  0
LINE
  5
221
100
AcDbEntity
  8
0
100
AcDbLine
 62
7
  6
CONTINUOUS
 10
101.0557063004
 20
484.80708061
 11
101.0557063005
 21
481.00708061
  0
LINE
  5
222
100
AcDbEntity
  8
0
100
AcDbLine
 62
7
  6
CONTINUOUS
 10
101.1557063005
 20
481.00708061
 11
101.1557063005
 21
484.80708061
  0
LINE
  5
223
100
AcDbEntity
  8
0
100
AcDbLine
 62
7
  6
CONTINUOUS
 10
131.2557063005
 20
484.80708061
 11
131.2557063005
 21
481.00708061
  0
LINE
  5
224
100
AcDbEntity
  8
0
100
AcDbLine
 62
7
  6
CONTINUOUS
 10
131.3557063005
 20
481.00708061
 11
131.3557063005
 21
484.80708061
  0
LINE
  5
225
100
AcDbEntity
  8
0
100
AcDbLine
 62
7
  6
CONTINUOUS
 10
132.7057063005
 20
485.90708061
 11
132.7057063005
 21
493.50708061
  0
LINE
  5
226
100
AcDbEntity
  8
0
100
AcDbLine
 62
7
  6
CONTINUOUS
 10
134.6057063004
 20
484.80708061
 11
134.6057063005
 21
481.00708061
  0
LINE
  5
227
100
AcDbEntity
  8
0
100
AcDbLine
 62
7
  6
CONTINUOUS
 10
134.8057063005
 20
481.00708061
 11
134.8057063005
 21
484.80708061
  0
LINE
  5
228
100
AcDbEntity
  8
0
100
AcDbLine
 62
7
  6
CONTINUOUS
 10
136.7057063005
 20
493.50708061
 11
136.7057063005
 21
485.90708061
  0
LINE
  5
229
100
AcDbEntity
  8
0
100
AcDbLine
 62
7
  6
CONTINUOUS
 10
138.0557063004
 20
484.80708061
 11
138.0557063005
 21
481.00708061
  0
LINE
  5
22A
100
AcDbEntity
  8
0
100
AcDbLine
 62
7
  6
CONTINUOUS
 10
138.1557063005
 20
481.00708061
 11
138.1557063005
 21
484.80708061
  0
LINE
  5
22B
100
AcDbEntity
  8
0
100
AcDbLine
 62
7
  6
CONTINUOUS
 10
96.2057063005
 20
494.00708061
 11
95.7057063005
 21
493.50708061
  0
LINE
  5
22C
100
AcDbEntity
  8
0
100
AcDbLine
 62
7
  6
CONTINUOUS
 10
99.7057063005
 20
493.50708061
 11
99.2057063005
 21
494.00708061
  0
LINE
  5
22D
100
AcDbEntity
  8
0
100
AcDbLine
 62
7
  6
CONTINUOUS
 10
133.2057063005
 20
494.00708061
 11
132.7057063005
 21
493.50708061
  0
LINE
  5
22E
100
AcDbEntity
  8
0
100
AcDbLine
 62
7
  6
CONTINUOUS
 10
136.7057063005
 20
493.50708061
 11
136.2057063005
 21
494.00708061
  0
LINE
  5
22F
100
AcDbEntity
  8
0
100
AcDbLine
 62
7
  6
CONTINUOUS
 10
237.7557063005
 20
484.80708061
 11
237.7557063005
 21
481.00708061
  0
LINE
  5
230
100
AcDbEntity
  8
0
100
AcDbLine
 62
7
  6
CONTINUOUS
 10
237.8557063005
 20
481.00708061
 11
237.8557063005
 21
484.80708061
  0
LINE
  5
231
100
AcDbEntity
  8
0
100
AcDbLine
 62
7
  6
CONTINUOUS
 10
239.2057063005
 20
485.90708061
 11
239.2057063005
 21
493.50708061
  0
LINE
  5
232
100
AcDbEntity
  8
0
100
AcDbLine
 62
7
  6
CONTINUOUS
 10
241.1057063004
 20
484.80708061
 11
241.1057063005
 21
481.00708061
  0
LINE
  5
233
100
AcDbEntity
  8
0
100
AcDbLine
 62
7
  6
CONTINUOUS
 10
241.3057063005
 20
481.00708061
 11
241.3057063005
 21
484.80708061
  0
LINE
  5
234
100
AcDbEntity
  8
0
100
AcDbLine
 62
7
  6
CONTINUOUS
 10
243.2057063005
 20
493.50708061
 11
243.2057063005
 21
485.90708061
  0
LINE
  5
235
100
AcDbEntity
  8
0
100
AcDbLine
 62
7
  6
CONTINUOUS
 10
244.5557063004
 20
484.80708061
 11
244.5557063005
 21
481.00708061
  0
LINE
  5
236
100
AcDbEntity
  8
0
100
AcDbLine
 62
7
  6
CONTINUOUS
 10
244.6557063005
 20
481.00708061
 11
244.6557063005
 21
484.80708061
  0
LINE
  5
237
100
AcDbEntity
  8
0
100
AcDbLine
 62
7
  6
CONTINUOUS
 10
239.7057063005
 20
494.00708061
 11
239.2057063005
 21
493.50708061
  0
LINE
  5
238
100
AcDbEntity
  8
0
100
AcDbLine
 62
7
  6
CONTINUOUS
 10
243.2057063005
 20
493.50708061
 11
242.7057063005
 21
494.00708061
  0
LINE
  5
239
100
AcDbEntity
  8
0
100
AcDbLine
 62
7
  6
CONTINUOUS
 10
344.2557063005
 20
484.80708061
 11
344.2557063005
 21
481.00708061
  0
LINE
  5
23A
100
AcDbEntity
  8
0
100
AcDbLine
 62
7
  6
CONTINUOUS
 10
344.3557063005
 20
481.00708061
 11
344.3557063005
 21
484.80708061
  0
LINE
  5
23B
100
AcDbEntity
  8
0
100
AcDbLine
 62
7
  6
CONTINUOUS
 10
345.7057063005
 20
485.90708061
 11
345.7057063005
 21
493.50708061
  0
LINE
  5
23C
100
AcDbEntity
  8
0
100
AcDbLine
 62
7
  6
CONTINUOUS
 10
347.6057063004
 20
484.80708061
 11
347.6057063005
 21
481.00708061
  0
LINE
  5
23D
100
AcDbEntity
  8
0
100
AcDbLine
 62
7
  6
CONTINUOUS
 10
347.8057063005
 20
481.00708061
 11
347.8057063005
 21
484.80708061
  0
LINE
  5
23E
100
AcDbEntity
  8
0
100
AcDbLine
 62
7
  6
CONTINUOUS
 10
349.7057063005
 20
493.50708061
 11
349.7057063005
 21
485.90708061
  0
LINE
  5
23F
100
AcDbEntity
  8
0
100
AcDbLine
 62
7
  6
CONTINUOUS
 10
346.2057063005
 20
494.00708061
 11
345.7057063005
 21
493.50708061
  0
LINE
  5
240
100
AcDbEntity
  8
0
100
AcDbLine
 62
7
  6
CONTINUOUS
 10
75.2057063005
 20
472.50708061
 11
620.2057063005
 21
472.50708061
  0
LINE
  5
241
100
AcDbEntity
  8
0
100
AcDbLine
 62
7
  6
CONTINUOUS
 10
75.2057063005
 20
474.00708061
 11
620.2057063005
 21
474.00708061
  0
LINE
  5
242
100
AcDbEntity
  8
0
100
AcDbLine
 62
7
  6
CONTINUOUS
 10
76.7057063005
 20
477.00708061
 11
618.7057063005
 21
477.00708061
  0
LINE
  5
243
100
AcDbEntity
  8
0
100
AcDbLine
 62
7
  6
CONTINUOUS
 10
605.2057063005
 20
479.00708061
 11
90.2057063005
 21
479.00708061
  0
LINE
  5
244
100
AcDbEntity
  8
0
100
AcDbLine
 62
7
  6
CONTINUOUS
 10
90.2057063005
 20
481.00708061
 11
605.2057063005
 21
481.00708061
  0
LINE
  5
245
100
AcDbEntity
  8
0
100
AcDbLine
 62
7
  6
CONTINUOUS
 10
94.2557063005
 20
484.80708061
 11
101.1557063005
 21
484.80708061
  0
LINE
  5
246
100
AcDbEntity
  8
0
100
AcDbLine
 62
7
  6
CONTINUOUS
 10
131.2557063005
 20
484.80708061
 11
138.1557063005
 21
484.80708061
  0
LINE
  5
247
100
AcDbEntity
  8
0
100
AcDbLine
 62
7
  6
CONTINUOUS
 10
237.7557063005
 20
484.80708061
 11
244.6557063005
 21
484.80708061
  0
LINE
  5
248
100
AcDbEntity
  8
0
100
AcDbLine
 62
7
  6
CONTINUOUS
 10
344.2557063005
 20
484.80708061
 11
351.1557063005
 21
484.80708061
  0
LINE
  5
249
100
AcDbEntity
  8
0
100
AcDbLine
 62
7
  6
CONTINUOUS
 10
450.7557063005
 20
484.80708061
 11
457.6557063005
 21
484.80708061
  0
LINE
  5
24A
100
AcDbEntity
  8
0
100
AcDbLine
 62
7
  6
CONTINUOUS
 10
557.2557063005
 20
484.80708061
 11
564.1557063005
 21
484.80708061
  0
LINE
  5
24B
100
AcDbEntity
  8
0
100
AcDbLine
 62
7
  6
CONTINUOUS
 10
594.2557063005
 20
484.80708061
 11
601.1557063005
 21
484.80708061
  0
LINE
  5
24C
100
AcDbEntity
  8
0
100
AcDbLine
 62
7
  6
CONTINUOUS
 10
94.3557063071
 20
484.90708061
 11
101.0557062939
 21
484.90708061
  0
LINE
  5
24D
100
AcDbEntity
  8
0
100
AcDbLine
 62
7
  6
CONTINUOUS
 10
131.3557063071
 20
484.90708061
 11
138.0557062939
 21
484.90708061
  0
LINE
  5
24E
100
AcDbEntity
  8
0
100
AcDbLine
 62
7
  6
CONTINUOUS
 10
237.8557063071
 20
484.90708061
 11
244.5557062939
 21
484.90708061
  0
LINE
  5
24F
100
AcDbEntity
  8
0
100
AcDbLine
 62
7
  6
CONTINUOUS
 10
344.3557063071
 20
484.90708061
 11
351.0557062939
 21
484.90708061
  0
LINE
  5
250
100
AcDbEntity
  8
0
100
AcDbLine
 62
7
  6
CONTINUOUS
 10
450.8557063071
 20
484.90708061
 11
457.5557062939
 21
484.90708061
  0
LINE
  5
251
100
AcDbEntity
  8
0
100
AcDbLine
 62
7
  6
CONTINUOUS
 10
557.3557063071
 20
484.90708061
 11
564.0557062939
 21
484.90708061
  0
LINE
  5
252
100
AcDbEntity
  8
0
100
AcDbLine
 62
7
  6
CONTINUOUS
 10
594.3557063071
 20
484.90708061
 11
601.0557062939
 21
484.90708061
  0
LINE
  5
253
100
AcDbEntity
  8
0
100
AcDbLine
 62
7
  6
CONTINUOUS
 10
351.0557063004
 20
484.80708061
 11
351.0557063005
 21
481.00708061
  0
LINE
  5
254
100
AcDbEntity
  8
0
100
AcDbLine
 62
7
  6
CONTINUOUS
 10
351.1557063005
 20
481.00708061
 11
351.1557063005
 21
484.80708061
  0
LINE
  5
255
100
AcDbEntity
  8
0
100
AcDbLine
 62
7
  6
CONTINUOUS
 10
599.9894231579
 20
485.90708061
 11
595.4219919188
 21
485.90708061
  0
LINE
  5
256
100
AcDbEntity
  8
0
100
AcDbLine
 62
7
  6
CONTINUOUS
 10
562.9894231579
 20
485.90708061
 11
558.4219919188
 21
485.90708061
  0
LINE
  5
257
100
AcDbEntity
  8
0
100
AcDbLine
 62
7
  6
CONTINUOUS
 10
456.4894231579
 20
485.90708061
 11
451.9219919188
 21
485.90708061
  0
LINE
  5
258
100
AcDbEntity
  8
0
100
AcDbLine
 62
7
  6
CONTINUOUS
 10
349.9894231579
 20
485.90708061
 11
345.4219919188
 21
485.90708061
  0
LINE
  5
259
100
AcDbEntity
  8
0
100
AcDbLine
 62
7
  6
CONTINUOUS
 10
243.4894231579
 20
485.90708061
 11
238.9219919188
 21
485.90708061
  0
LINE
  5
25A
100
AcDbEntity
  8
0
100
AcDbLine
 62
7
  6
CONTINUOUS
 10
136.9894231579
 20
485.90708061
 11
132.4219919188
 21
485.90708061
  0
LINE
  5
25B
100
AcDbEntity
  8
0
100
AcDbLine
 62
7
  6
CONTINUOUS
 10
99.9894231579
 20
485.90708061
 11
95.4219919188
 21
485.90708061
  0
LINE
  5
25C
100
AcDbEntity
  8
0
100
AcDbLine
 62
7
  6
CONTINUOUS
 10
95.7057063005
 20
493.50708061
 11
99.7057063005
 21
493.50708061
  0
LINE
  5
25D
100
AcDbEntity
  8
0
100
AcDbLine
 62
7
  6
CONTINUOUS
 10
132.7057063005
 20
493.50708061
 11
136.7057063005
 21
493.50708061
  0
LINE
  5
25E
100
AcDbEntity
  8
0
100
AcDbLine
 62
7
  6
CONTINUOUS
 10
239.2057063005
 20
493.50708061
 11
243.2057063005
 21
493.50708061
  0
LINE
  5
25F
100
AcDbEntity
  8
0
100
AcDbLine
 62
7
  6
CONTINUOUS
 10
345.7057063005
 20
493.50708061
 11
349.7057063005
 21
493.50708061
  0
LINE
  5
260
100
AcDbEntity
  8
0
100
AcDbLine
 62
7
  6
CONTINUOUS
 10
452.2057063005
 20
493.50708061
 11
456.2057063005
 21
493.50708061
  0
LINE
  5
261
100
AcDbEntity
  8
0
100
AcDbLine
 62
7
  6
CONTINUOUS
 10
558.7057063005
 20
493.50708061
 11
562.7057063005
 21
493.50708061
  0
LINE
  5
262
100
AcDbEntity
  8
0
100
AcDbLine
 62
7
  6
CONTINUOUS
 10
595.7057063005
 20
493.50708061
 11
599.7057063005
 21
493.50708061
  0
LINE
  5
263
100
AcDbEntity
  8
0
100
AcDbLine
 62
7
  6
CONTINUOUS
 10
96.2057063005
 20
494.00708061
 11
99.2057063005
 21
494.00708061
  0
LINE
  5
264
100
AcDbEntity
  8
0
100
AcDbLine
 62
7
  6
CONTINUOUS
 10
133.2057063005
 20
494.00708061
 11
136.2057063005
 21
494.00708061
  0
LINE
  5
265
100
AcDbEntity
  8
0
100
AcDbLine
 62
7
  6
CONTINUOUS
 10
239.7057063005
 20
494.00708061
 11
242.7057063005
 21
494.00708061
  0
LINE
  5
266
100
AcDbEntity
  8
0
100
AcDbLine
 62
7
  6
CONTINUOUS
 10
346.2057063005
 20
494.00708061
 11
349.2057063005
 21
494.00708061
  0
LINE
  5
267
100
AcDbEntity
  8
0
100
AcDbLine
 62
7
  6
CONTINUOUS
 10
452.7057063005
 20
494.00708061
 11
455.7057063005
 21
494.00708061
  0
LINE
  5
268
100
AcDbEntity
  8
0
100
AcDbLine
 62
7
  6
CONTINUOUS
 10
559.2057063005
 20
494.00708061
 11
562.2057063005
 21
494.00708061
  0
LINE
  5
269
100
AcDbEntity
  8
0
100
AcDbLine
 62
7
  6
CONTINUOUS
 10
596.2057063005
 20
494.00708061
 11
599.2057063005
 21
494.00708061
  0
LINE
  5
26A
100
AcDbEntity
  8
0
100
AcDbLine
 62
7
  6
CONTINUOUS
 10
349.7057063005
 20
493.50708061
 11
349.2057063005
 21
494.00708061
  0
LINE
  5
26B
100
AcDbEntity
  8
0
100
AcDbLine
 62
7
  6
CONTINUOUS
 10
452.7057063005
 20
494.00708061
 11
452.2057063005
 21
493.50708061
  0
LINE
  5
26C
100
AcDbEntity
  8
0
100
AcDbLine
 62
7
  6
CONTINUOUS
 10
456.2057063005
 20
493.50708061
 11
455.7057063005
 21
494.00708061
  0
LINE
  5
26D
100
AcDbEntity
  8
0
100
AcDbLine
 62
7
  6
CONTINUOUS
 10
450.7557063005
 20
484.80708061
 11
450.7557063005
 21
481.00708061
  0
LINE
  5
26E
100
AcDbEntity
  8
0
100
AcDbLine
 62
7
  6
CONTINUOUS
 10
450.8557063005
 20
481.00708061
 11
450.8557063005
 21
484.80708061
  0
LINE
  5
26F
100
AcDbEntity
  8
0
100
AcDbLine
 62
7
  6
CONTINUOUS
 10
452.2057063005
 20
485.90708061
 11
452.2057063005
 21
493.50708061
  0
LINE
  5
270
100
AcDbEntity
  8
0
100
AcDbLine
 62
7
  6
CONTINUOUS
 10
454.1057063004
 20
484.80708061
 11
454.1057063005
 21
481.00708061
  0
LINE
  5
271
100
AcDbEntity
  8
0
100
AcDbLine
 62
7
  6
CONTINUOUS
 10
454.3057063005
 20
481.00708061
 11
454.3057063005
 21
484.80708061
  0
LINE
  5
272
100
AcDbEntity
  8
0
100
AcDbLine
 62
7
  6
CONTINUOUS
 10
456.2057063005
 20
493.50708061
 11
456.2057063005
 21
485.90708061
  0
LINE
  5
273
100
AcDbEntity
  8
0
100
AcDbLine
 62
7
  6
CONTINUOUS
 10
457.5557063004
 20
484.80708061
 11
457.5557063005
 21
481.00708061
  0
LINE
  5
274
100
AcDbEntity
  8
0
100
AcDbLine
 62
7
  6
CONTINUOUS
 10
457.6557063005
 20
481.00708061
 11
457.6557063005
 21
484.80708061
  0
LINE
  5
275
100
AcDbEntity
  8
0
100
AcDbLine
 62
7
  6
CONTINUOUS
 10
559.2057063005
 20
494.00708061
 11
558.7057063005
 21
493.50708061
  0
LINE
  5
276
100
AcDbEntity
  8
0
100
AcDbLine
 62
7
  6
CONTINUOUS
 10
562.7057063005
 20
493.50708061
 11
562.2057063005
 21
494.00708061
  0
LINE
  5
277
100
AcDbEntity
  8
0
100
AcDbLine
 62
7
  6
CONTINUOUS
 10
596.2057063005
 20
494.00708061
 11
595.7057063005
 21
493.50708061
  0
LINE
  5
278
100
AcDbEntity
  8
0
100
AcDbLine
 62
7
  6
CONTINUOUS
 10
599.7057063005
 20
493.50708061
 11
599.2057063005
 21
494.00708061
  0
LINE
  5
279
100
AcDbEntity
  8
0
100
AcDbLine
 62
7
  6
CONTINUOUS
 10
557.2557063005
 20
484.80708061
 11
557.2557063005
 21
481.00708061
  0
LINE
  5
27A
100
AcDbEntity
  8
0
100
AcDbLine
 62
7
  6
CONTINUOUS
 10
557.3557063005
 20
481.00708061
 11
557.3557063005
 21
484.80708061
  0
LINE
  5
27B
100
AcDbEntity
  8
0
100
AcDbLine
 62
7
  6
CONTINUOUS
 10
558.7057063005
 20
485.90708061
 11
558.7057063005
 21
493.50708061
  0
LINE
  5
27C
100
AcDbEntity
  8
0
100
AcDbLine
 62
7
  6
CONTINUOUS
 10
560.6057063004
 20
484.80708061
 11
560.6057063005
 21
481.00708061
  0
LINE
  5
27D
100
AcDbEntity
  8
0
100
AcDbLine
 62
7
  6
CONTINUOUS
 10
560.8057063005
 20
481.00708061
 11
560.8057063005
 21
484.80708061
  0
LINE
  5
27E
100
AcDbEntity
  8
0
100
AcDbLine
 62
7
  6
CONTINUOUS
 10
562.7057063005
 20
493.50708061
 11
562.7057063005
 21
485.90708061
  0
LINE
  5
27F
100
AcDbEntity
  8
0
100
AcDbLine
 62
7
  6
CONTINUOUS
 10
564.0557063004
 20
484.80708061
 11
564.0557063005
 21
481.00708061
  0
LINE
  5
280
100
AcDbEntity
  8
0
100
AcDbLine
 62
7
  6
CONTINUOUS
 10
564.1557063005
 20
481.00708061
 11
564.1557063005
 21
484.80708061
  0
LINE
  5
281
100
AcDbEntity
  8
0
100
AcDbLine
 62
7
  6
CONTINUOUS
 10
594.2557063005
 20
484.80708061
 11
594.2557063005
 21
481.00708061
  0
LINE
  5
282
100
AcDbEntity
  8
0
100
AcDbLine
 62
7
  6
CONTINUOUS
 10
594.3557063005
 20
481.00708061
 11
594.3557063005
 21
484.80708061
  0
LINE
  5
283
100
AcDbEntity
  8
0
100
AcDbLine
 62
7
  6
CONTINUOUS
 10
595.2057063005
 20
481.00708061
 11
595.2057063005
 21
472.50708061
  0
LINE
  5
284
100
AcDbEntity
  8
0
100
AcDbLine
 62
7
  6
CONTINUOUS
 10
595.7057063005
 20
485.90708061
 11
595.7057063005
 21
493.50708061
  0
LINE
  5
285
100
AcDbEntity
  8
0
100
AcDbLine
 62
7
  6
CONTINUOUS
 10
597.6057063004
 20
484.80708061
 11
597.6057063005
 21
481.00708061
  0
LINE
  5
286
100
AcDbEntity
  8
0
100
AcDbLine
 62
7
  6
CONTINUOUS
 10
597.8057063005
 20
481.00708061
 11
597.8057063005
 21
484.80708061
  0
LINE
  5
287
100
AcDbEntity
  8
0
100
AcDbLine
 62
7
  6
CONTINUOUS
 10
599.7057063005
 20
493.50708061
 11
599.7057063005
 21
485.90708061
  0
LINE
  5
288
100
AcDbEntity
  8
0
100
AcDbLine
 62
7
  6
CONTINUOUS
 10
601.0557063004
 20
484.80708061
 11
601.0557063005
 21
481.00708061
  0
LINE
  5
289
100
AcDbEntity
  8
0
100
AcDbLine
 62
7
  6
CONTINUOUS
 10
601.1557063005
 20
481.00708061
 11
601.1557063005
 21
484.80708061
  0
LINE
  5
28A
100
AcDbEntity
  8
0
100
AcDbLine
 62
7
  6
CONTINUOUS
 10
605.2057063005
 20
477.00708061
 11
605.2057063005
 21
481.00708061
  0
LINE
  5
28B
100
AcDbEntity
  8
0
100
AcDbLine
 62
7
  6
CONTINUOUS
 10
618.7057063005
 20
474.00708061
 11
618.7057063005
 21
477.00708061
  0
LINE
  5
28C
100
AcDbEntity
  8
0
100
AcDbLine
 62
7
  6
CONTINUOUS
 10
620.2057063005
 20
472.50708061
 11
620.2057063005
 21
474.00708061
  0
ARC
  5
28D
100
AcDbEntity
  8
0
100
AcDbCircle
 62
7
  6
CONTINUOUS
 10
99.9894231579
 20
484.90708061
 40
1.0
100
AcDbArc
 50
0.0
 51
90.0
  0
ARC
  5
28E
100
AcDbEntity
  8
0
100
AcDbCircle
 62
7
  6
CONTINUOUS
 10
95.4219894431
 20
484.90708061
 40
1.0
100
AcDbArc
 50
90.0
 51
180.0
  0
ARC
  5
28F
100
AcDbEntity
  8
0
100
AcDbCircle
 62
7
  6
CONTINUOUS
 10
599.9894231579
 20
484.90708061
 40
1.0
100
AcDbArc
 50
0.0
 51
90.0
  0
ARC
  5
290
100
AcDbEntity
  8
0
100
AcDbCircle
 62
7
  6
CONTINUOUS
 10
595.4219894431
 20
484.90708061
 40
1.0
100
AcDbArc
 50
90.0
 51
180.0
  0
ARC
  5
291
100
AcDbEntity
  8
0
100
AcDbCircle
 62
7
  6
CONTINUOUS
 10
349.9894231579
 20
484.90708061
 40
1.0
100
AcDbArc
 50
0.0
 51
90.0
  0
ARC
  5
292
100
AcDbEntity
  8
0
100
AcDbCircle
 62
7
  6
CONTINUOUS
 10
345.4219894431
 20
484.90708061
 40
1.0
100
AcDbArc
 50
90.0
 51
180.0
  0
ARC
  5
293
100
AcDbEntity
  8
0
100
AcDbCircle
 62
7
  6
CONTINUOUS
 10
136.9894231579
 20
484.90708061
 40
1.0
100
AcDbArc
 50
0.0
 51
90.0
  0
ARC
  5
294
100
AcDbEntity
  8
0
100
AcDbCircle
 62
7
  6
CONTINUOUS
 10
132.4219894431
 20
484.90708061
 40
1.0
100
AcDbArc
 50
90.0
 51
180.0
  0
ARC
  5
295
100
AcDbEntity
  8
0
100
AcDbCircle
 62
7
  6
CONTINUOUS
 10
562.9894231579
 20
484.90708061
 40
1.0
100
AcDbArc
 50
0.0
 51
90.0
  0
ARC
  5
296
100
AcDbEntity
  8
0
100
AcDbCircle
 62
7
  6
CONTINUOUS
 10
558.4219894431
 20
484.90708061
 40
1.0
100
AcDbArc
 50
90.0
 51
180.0
  0
ARC
  5
297
100
AcDbEntity
  8
0
100
AcDbCircle
 62
7
  6
CONTINUOUS
 10
243.4894231579
 20
484.90708061
 40
1.0
100
AcDbArc
 50
0.0
 51
90.0
  0
ARC
  5
298
100
AcDbEntity
  8
0
100
AcDbCircle
 62
7
  6
CONTINUOUS
 10
238.9219894431
 20
484.90708061
 40
1.0
100
AcDbArc
 50
90.0
 51
180.0
  0
ARC
  5
299
100
AcDbEntity
  8
0
100
AcDbCircle
 62
7
  6
CONTINUOUS
 10
456.4894231579
 20
484.90708061
 40
1.0
100
AcDbArc
 50
0.0
 51
90.0
  0
ARC
  5
29A
100
AcDbEntity
  8
0
100
AcDbCircle
 62
7
  6
CONTINUOUS
 10
451.9219894431
 20
484.90708061
 40
1.0
100
AcDbArc
 50
90.0
 51
180.0
  0
ARC
  5
29B
100
AcDbEntity
  8
0
100
AcDbCircle
 62
7
  6
CONTINUOUS
 10
94.3557063005
 20
484.80708061
 40
0.1
100
AcDbArc
 50
89.9999962284
 51
179.9999999915
  0
ARC
  5
29C
100
AcDbEntity
  8
0
100
AcDbCircle
 62
7
  6
CONTINUOUS
 10
101.0557063005
 20
484.80708061
 40
0.1
100
AcDbArc
 50
0.0
 51
90.0000037991
  0
ARC
  5
29D
100
AcDbEntity
  8
0
100
AcDbCircle
 62
7
  6
CONTINUOUS
 10
594.3557063005
 20
484.80708061
 40
0.1
100
AcDbArc
 50
89.9999962282
 51
179.9999999914
  0
ARC
  5
29E
100
AcDbEntity
  8
0
100
AcDbCircle
 62
7
  6
CONTINUOUS
 10
601.0557063005
 20
484.80708061
 40
0.1
100
AcDbArc
 50
0.0
 51
90.0000037991
  0
ARC
  5
29F
100
AcDbEntity
  8
0
100
AcDbCircle
 62
7
  6
CONTINUOUS
 10
344.3557063005
 20
484.80708061
 40
0.1
100
AcDbArc
 50
89.999996213
 51
180.0000000016
  0
ARC
  5
2A0
100
AcDbEntity
  8
0
100
AcDbCircle
 62
7
  6
CONTINUOUS
 10
351.0557063005
 20
484.80708061
 40
0.1
100
AcDbArc
 50
0.0
 51
90.0000037879
  0
ARC
  5
2A1
100
AcDbEntity
  8
0
100
AcDbCircle
 62
7
  6
CONTINUOUS
 10
131.3557063005
 20
484.80708061
 40
0.0999999999
100
AcDbArc
 50
89.9999962147
 51
179.9999999867
  0
ARC
  5
2A2
100
AcDbEntity
  8
0
100
AcDbCircle
 62
7
  6
CONTINUOUS
 10
138.0557063005
 20
484.80708061
 40
0.1
100
AcDbArc
 50
0.0
 51
90.0000037993
  0
ARC
  5
2A3
100
AcDbEntity
  8
0
100
AcDbCircle
 62
7
  6
CONTINUOUS
 10
557.3557063005
 20
484.80708061
 40
0.0999999999
100
AcDbArc
 50
89.9999962147
 51
179.9999999867
  0
ARC
  5
2A4
100
AcDbEntity
  8
0
100
AcDbCircle
 62
7
  6
CONTINUOUS
 10
564.0557063005
 20
484.80708061
 40
0.1
100
AcDbArc
 50
0.0
 51
90.0000037993
  0
ARC
  5
2A5
100
AcDbEntity
  8
0
100
AcDbCircle
 62
7
  6
CONTINUOUS
 10
237.8557063005
 20
484.80708061
 40
0.0999999999
100
AcDbArc
 50
89.9999962146
 51
179.9999999869
  0
ARC
  5
2A6
100
AcDbEntity
  8
0
100
AcDbCircle
 62
7
  6
CONTINUOUS
 10
244.5557063005
 20
484.80708061
 40
0.1
100
AcDbArc
 50
0.0
 51
90.0000037993
  0
ARC
  5
2A7
100
AcDbEntity
  8
0
100
AcDbCircle
 62
7
  6
CONTINUOUS
 10
450.8557063005
 20
484.80708061
 40
0.0999999999
100
AcDbArc
 50
89.9999962145
 51
179.9999999869
  0
ARC
  5
2A8
100
AcDbEntity
  8
0
100
AcDbCircle
 62
7
  6
CONTINUOUS
 10
457.5557063005
 20
484.80708061
 40
0.1
100
AcDbArc
 50
0.0
 51
90.0000037993
  0
SPLINE
  5
2A9
100
AcDbEntity
  8
0
100
AcDbSpline
 62
7
  6
CONTINUOUS
 70
0
 71
3
 72
11
 73
7
 74
0
 42
0.0000001
 43
0.0000001
 44
0.0000000001
 40
0.0
 40
0.0
 40
0.0
 40
0.0
 40
0.3196148809
 40
0.6037619553
 40
0.8287915621
 40
1.0
 40
1.0
 40
1.0
 40
1.0
 10
97.8057063005
 20
484.80708061
 30
0.0
 10
97.8057063005
 20
484.8199002331
 30
0.0
 10
97.8034631367
 20
484.8442209464
 30
0.0
 10
97.7933750336
 20
484.8761419182
 30
0.0
 10
97.7782664869
 20
484.8996025477
 30
0.0
 10
97.7625733981
 20
484.907080611
 30
0.0
 10
97.7557062972
 20
484.90708061
 30
0.0
  0
SPLINE
  5
2AA
100
AcDbEntity
  8
0
100
AcDbSpline
 62
7
  6
CONTINUOUS
 70
0
 71
3
 72
11
 73
7
 74
0
 42
0.0000001
 43
0.0000001
 44
0.0000000001
 40
0.0
 40
0.0
 40
0.0
 40
0.0
 40
0.1711418259
 40
0.3960778551
 40
0.680278004
 40
1.0
 40
1.0
 40
1.0
 40
1.0
 10
97.6557063054
 20
484.90708061
 30
0.0
 10
97.648841856
 20
484.9070806114
 30
0.0
 10
97.6331543969
 20
484.8996087793
 30
0.0
 10
97.6180430289
 20
484.8761547764
 30
0.0
 10
97.6079509568
 20
484.8442318282
 30
0.0
 10
97.6057063005
 20
484.8199045673
 30
0.0
 10
97.6057063005
 20
484.80708061
 30
0.0
  0
SPLINE
  5
2AB
100
AcDbEntity
  8
0
100
AcDbSpline
 62
7
  6
CONTINUOUS
 70
0
 71
3
 72
11
 73
7
 74
0
 42
0.0000001
 43
0.0000001
 44
0.0000000001
 40
0.0
 40
0.0
 40
0.0
 40
0.0
 40
0.1711573624
 40
0.3961576275
 40
0.6803624055
 40
1.0
 40
1.0
 40
1.0
 40
1.0
 10
101.0057062972
 20
484.90708061
 30
0.0
 10
101.0125713508
 20
484.907080611
 30
0.0
 10
101.0282614744
 20
484.8996060035
 30
0.0
 10
101.0433729973
 20
484.8761480265
 30
0.0
 10
101.0534622108
 20
484.844224993
 30
0.0
 10
101.0557063005
 20
484.8199011466
 30
0.0
 10
101.0557063005
 20
484.80708061
 30
0.0
  0
SPLINE
  5
2AC
100
AcDbEntity
  8
0
100
AcDbSpline
 62
7
  6
CONTINUOUS
 70
0
 71
3
 72
11
 73
7
 74
0
 42
0.0000001
 43
0.0000001
 44
0.0000000001
 40
0.0
 40
0.0
 40
0.0
 40
0.0
 40
0.3196148833
 40
0.6037619584
 40
0.8287915637
 40
1.0
 40
1.0
 40
1.0
 40
1.0
 10
94.3557063005
 20
484.80708061
 30
0.0
 10
94.3557063005
 20
484.8199002334
 30
0.0
 10
94.3579494643
 20
484.8442209471
 30
0.0
 10
94.3680375678
 20
484.8761419193
 30
0.0
 10
94.3831461151
 20
484.8996025488
 30
0.0
 10
94.3988392045
 20
484.9070806114
 30
0.0
 10
94.4057063054
 20
484.90708061
 30
0.0
  0
SPLINE
  5
2AD
100
AcDbEntity
  8
0
100
AcDbSpline
 62
7
  6
CONTINUOUS
 70
0
 71
3
 72
11
 73
7
 74
0
 42
0.0000001
 43
0.0000001
 44
0.0000000001
 40
0.0
 40
0.0
 40
0.0
 40
0.0
 40
0.3196148809
 40
0.6037619553
 40
0.8287915621
 40
1.0
 40
1.0
 40
1.0
 40
1.0
 10
597.8057063005
 20
484.80708061
 30
0.0
 10
597.8057063005
 20
484.8199002331
 30
0.0
 10
597.8034631367
 20
484.8442209464
 30
0.0
 10
597.7933750336
 20
484.8761419182
 30
0.0
 10
597.7782664869
 20
484.8996025477
 30
0.0
 10
597.7625733981
 20
484.907080611
 30
0.0
 10
597.7557062972
 20
484.90708061
 30
0.0
  0
SPLINE
  5
2AE
100
AcDbEntity
  8
0
100
AcDbSpline
 62
7
  6
CONTINUOUS
 70
0
 71
3
 72
11
 73
7
 74
0
 42
0.0000001
 43
0.0000001
 44
0.0000000001
 40
0.0
 40
0.0
 40
0.0
 40
0.0
 40
0.1711418259
 40
0.3960778551
 40
0.680278004
 40
1.0
 40
1.0
 40
1.0
 40
1.0
 10
597.6557063054
 20
484.90708061
 30
0.0
 10
597.648841856
 20
484.9070806114
 30
0.0
 10
597.6331543969
 20
484.8996087793
 30
0.0
 10
597.6180430289
 20
484.8761547764
 30
0.0
 10
597.6079509568
 20
484.8442318282
 30
0.0
 10
597.6057063005
 20
484.8199045673
 30
0.0
 10
597.6057063005
 20
484.80708061
 30
0.0
  0
SPLINE
  5
2AF
100
AcDbEntity
  8
0
100
AcDbSpline
 62
7
  6
CONTINUOUS
 70
0
 71
3
 72
11
 73
7
 74
0
 42
0.0000001
 43
0.0000001
 44
0.0000000001
 40
0.0
 40
0.0
 40
0.0
 40
0.0
 40
0.1711573624
 40
0.3961576275
 40
0.6803624055
 40
1.0
 40
1.0
 40
1.0
 40
1.0
 10
601.0057062972
 20
484.90708061
 30
0.0
 10
601.0125713508
 20
484.907080611
 30
0.0
 10
601.0282614744
 20
484.8996060035
 30
0.0
 10
601.0433729973
 20
484.8761480265
 30
0.0
 10
601.0534622108
 20
484.844224993
 30
0.0
 10
601.0557063005
 20
484.8199011466
 30
0.0
 10
601.0557063005
 20
484.80708061
 30
0.0
  0
SPLINE
  5
2B0
100
AcDbEntity
  8
0
100
AcDbSpline
 62
7
  6
CONTINUOUS
 70
0
 71
3
 72
11
 73
7
 74
0
 42
0.0000001
 43
0.0000001
 44
0.0000000001
 40
0.0
 40
0.0
 40
0.0
 40
0.0
 40
0.3196148833
 40
0.6037619584
 40
0.8287915637
 40
1.0
 40
1.0
 40
1.0
 40
1.0
 10
594.3557063005
 20
484.80708061
 30
0.0
 10
594.3557063005
 20
484.8199002334
 30
0.0
 10
594.3579494643
 20
484.8442209471
 30
0.0
 10
594.3680375678
 20
484.8761419193
 30
0.0
 10
594.3831461151
 20
484.8996025488
 30
0.0
 10
594.3988392045
 20
484.9070806114
 30
0.0
 10
594.4057063054
 20
484.90708061
 30
0.0
  0
SPLINE
  5
2B1
100
AcDbEntity
  8
0
100
AcDbSpline
 62
7
  6
CONTINUOUS
 70
0
 71
3
 72
11
 73
7
 74
0
 42
0.0000001
 43
0.0000001
 44
0.0000000001
 40
0.0
 40
0.0
 40
0.0
 40
0.0
 40
0.3196148809
 40
0.6037619553
 40
0.8287915621
 40
1.0
 40
1.0
 40
1.0
 40
1.0
 10
347.8057063005
 20
484.80708061
 30
0.0
 10
347.8057063005
 20
484.8199002331
 30
0.0
 10
347.8034631367
 20
484.8442209464
 30
0.0
 10
347.7933750336
 20
484.8761419182
 30
0.0
 10
347.7782664869
 20
484.8996025477
 30
0.0
 10
347.7625733981
 20
484.9070806109
 30
0.0
 10
347.7557062972
 20
484.90708061
 30
0.0
  0
SPLINE
  5
2B2
100
AcDbEntity
  8
0
100
AcDbSpline
 62
7
  6
CONTINUOUS
 70
0
 71
3
 72
11
 73
7
 74
0
 42
0.0000001
 43
0.0000001
 44
0.0000000001
 40
0.0
 40
0.0
 40
0.0
 40
0.0
 40
0.1711418259
 40
0.3960778551
 40
0.680278004
 40
1.0
 40
1.0
 40
1.0
 40
1.0
 10
347.6557063054
 20
484.90708061
 30
0.0
 10
347.648841856
 20
484.9070806114
 30
0.0
 10
347.6331543969
 20
484.8996087793
 30
0.0
 10
347.6180430289
 20
484.8761547764
 30
0.0
 10
347.6079509568
 20
484.8442318282
 30
0.0
 10
347.6057063005
 20
484.8199045673
 30
0.0
 10
347.6057063005
 20
484.80708061
 30
0.0
  0
SPLINE
  5
2B3
100
AcDbEntity
  8
0
100
AcDbSpline
 62
7
  6
CONTINUOUS
 70
0
 71
3
 72
11
 73
7
 74
0
 42
0.0000001
 43
0.0000001
 44
0.0000000001
 40
0.0
 40
0.0
 40
0.0
 40
0.0
 40
0.1711573624
 40
0.3961576275
 40
0.6803624055
 40
1.0
 40
1.0
 40
1.0
 40
1.0
 10
351.0057062972
 20
484.90708061
 30
0.0
 10
351.0125713508
 20
484.9070806109
 30
0.0
 10
351.0282614744
 20
484.8996060035
 30
0.0
 10
351.0433729973
 20
484.8761480265
 30
0.0
 10
351.0534622108
 20
484.844224993
 30
0.0
 10
351.0557063005
 20
484.8199011466
 30
0.0
 10
351.0557063005
 20
484.80708061
 30
0.0
  0
SPLINE
  5
2B4
100
AcDbEntity
  8
0
100
AcDbSpline
 62
7
  6
CONTINUOUS
 70
0
 71
3
 72
11
 73
7
 74
0
 42
0.0000001
 43
0.0000001
 44
0.0000000001
 40
0.0
 40
0.0
 40
0.0
 40
0.0
 40
0.3196148833
 40
0.6037619584
 40
0.8287915637
 40
1.0
 40
1.0
 40
1.0
 40
1.0
 10
344.3557063005
 20
484.80708061
 30
0.0
 10
344.3557063005
 20
484.8199002334
 30
0.0
 10
344.3579494643
 20
484.8442209471
 30
0.0
 10
344.3680375678
 20
484.8761419193
 30
0.0
 10
344.3831461151
 20
484.8996025489
 30
0.0
 10
344.3988392045
 20
484.9070806114
 30
0.0
 10
344.4057063054
 20
484.90708061
 30
0.0
  0
SPLINE
  5
2B5
100
AcDbEntity
  8
0
100
AcDbSpline
 62
7
  6
CONTINUOUS
 70
0
 71
3
 72
11
 73
7
 74
0
 42
0.0000001
 43
0.0000001
 44
0.0000000001
 40
0.0
 40
0.0
 40
0.0
 40
0.0
 40
0.3196148809
 40
0.6037619552
 40
0.8287915621
 40
1.0
 40
1.0
 40
1.0
 40
1.0
 10
134.8057063005
 20
484.80708061
 30
0.0
 10
134.8057063005
 20
484.8199002331
 30
0.0
 10
134.8034631368
 20
484.8442209464
 30
0.0
 10
134.7933750336
 20
484.8761419182
 30
0.0
 10
134.7782664869
 20
484.8996025477
 30
0.0
 10
134.7625733981
 20
484.907080611
 30
0.0
 10
134.7557062972
 20
484.9070806101
 30
0.0
  0
SPLINE
  5
2B6
100
AcDbEntity
  8
0
100
AcDbSpline
 62
7
  6
CONTINUOUS
 70
0
 71
3
 72
11
 73
7
 74
0
 42
0.0000001
 43
0.0000001
 44
0.0000000001
 40
0.0
 40
0.0
 40
0.0
 40
0.0
 40
0.1711418259
 40
0.3960778551
 40
0.680278004
 40
1.0
 40
1.0
 40
1.0
 40
1.0
 10
134.6557063054
 20
484.90708061
 30
0.0
 10
134.648841856
 20
484.9070806114
 30
0.0
 10
134.6331543969
 20
484.8996087793
 30
0.0
 10
134.6180430289
 20
484.8761547764
 30
0.0
 10
134.6079509568
 20
484.8442318282
 30
0.0
 10
134.6057063005
 20
484.8199045673
 30
0.0
 10
134.6057063005
 20
484.80708061
 30
0.0
  0
SPLINE
  5
2B7
100
AcDbEntity
  8
0
100
AcDbSpline
 62
7
  6
CONTINUOUS
 70
0
 71
3
 72
11
 73
7
 74
0
 42
0.0000001
 43
0.0000001
 44
0.0000000001
 40
0.0
 40
0.0
 40
0.0
 40
0.0
 40
0.1711573624
 40
0.3961576275
 40
0.6803624055
 40
1.0
 40
1.0
 40
1.0
 40
1.0
 10
138.0057062972
 20
484.9070806101
 30
0.0
 10
138.0125713508
 20
484.907080611
 30
0.0
 10
138.0282614744
 20
484.8996060035
 30
0.0
 10
138.0433729973
 20
484.8761480265
 30
0.0
 10
138.0534622108
 20
484.844224993
 30
0.0
 10
138.0557063005
 20
484.8199011466
 30
0.0
 10
138.0557063005
 20
484.80708061
 30
0.0
  0
SPLINE
  5
2B8
100
AcDbEntity
  8
0
100
AcDbSpline
 62
7
  6
CONTINUOUS
 70
0
 71
3
 72
11
 73
7
 74
0
 42
0.0000001
 43
0.0000001
 44
0.0000000001
 40
0.0
 40
0.0
 40
0.0
 40
0.0
 40
0.3196148833
 40
0.6037619584
 40
0.8287915637
 40
1.0
 40
1.0
 40
1.0
 40
1.0
 10
131.3557063005
 20
484.80708061
 30
0.0
 10
131.3557063005
 20
484.8199002334
 30
0.0
 10
131.3579494643
 20
484.8442209471
 30
0.0
 10
131.3680375678
 20
484.8761419193
 30
0.0
 10
131.3831461151
 20
484.8996025489
 30
0.0
 10
131.3988392045
 20
484.9070806114
 30
0.0
 10
131.4057063054
 20
484.90708061
 30
0.0
  0
SPLINE
  5
2B9
100
AcDbEntity
  8
0
100
AcDbSpline
 62
7
  6
CONTINUOUS
 70
0
 71
3
 72
11
 73
7
 74
0
 42
0.0000001
 43
0.0000001
 44
0.0000000001
 40
0.0
 40
0.0
 40
0.0
 40
0.0
 40
0.3196148809
 40
0.6037619552
 40
0.8287915621
 40
1.0
 40
1.0
 40
1.0
 40
1.0
 10
560.8057063005
 20
484.80708061
 30
0.0
 10
560.8057063005
 20
484.8199002331
 30
0.0
 10
560.8034631368
 20
484.8442209464
 30
0.0
 10
560.7933750336
 20
484.8761419182
 30
0.0
 10
560.7782664869
 20
484.8996025477
 30
0.0
 10
560.7625733981
 20
484.907080611
 30
0.0
 10
560.7557062972
 20
484.9070806101
 30
0.0
  0
SPLINE
  5
2BA
100
AcDbEntity
  8
0
100
AcDbSpline
 62
7
  6
CONTINUOUS
 70
0
 71
3
 72
11
 73
7
 74
0
 42
0.0000001
 43
0.0000001
 44
0.0000000001
 40
0.0
 40
0.0
 40
0.0
 40
0.0
 40
0.1711418259
 40
0.3960778551
 40
0.680278004
 40
1.0
 40
1.0
 40
1.0
 40
1.0
 10
560.6557063054
 20
484.90708061
 30
0.0
 10
560.648841856
 20
484.9070806114
 30
0.0
 10
560.6331543969
 20
484.8996087793
 30
0.0
 10
560.6180430289
 20
484.8761547764
 30
0.0
 10
560.6079509568
 20
484.8442318282
 30
0.0
 10
560.6057063005
 20
484.8199045673
 30
0.0
 10
560.6057063005
 20
484.80708061
 30
0.0
  0
SPLINE
  5
2BB
100
AcDbEntity
  8
0
100
AcDbSpline
 62
7
  6
CONTINUOUS
 70
0
 71
3
 72
11
 73
7
 74
0
 42
0.0000001
 43
0.0000001
 44
0.0000000001
 40
0.0
 40
0.0
 40
0.0
 40
0.0
 40
0.1711573624
 40
0.3961576275
 40
0.6803624055
 40
1.0
 40
1.0
 40
1.0
 40
1.0
 10
564.0057062972
 20
484.9070806101
 30
0.0
 10
564.0125713508
 20
484.907080611
 30
0.0
 10
564.0282614744
 20
484.8996060035
 30
0.0
 10
564.0433729973
 20
484.8761480265
 30
0.0
 10
564.0534622108
 20
484.844224993
 30
0.0
 10
564.0557063005
 20
484.8199011466
 30
0.0
 10
564.0557063005
 20
484.80708061
 30
0.0
  0
SPLINE
  5
2BC
100
AcDbEntity
  8
0
100
AcDbSpline
 62
7
  6
CONTINUOUS
 70
0
 71
3
 72
11
 73
7
 74
0
 42
0.0000001
 43
0.0000001
 44
0.0000000001
 40
0.0
 40
0.0
 40
0.0
 40
0.0
 40
0.3196148833
 40
0.6037619584
 40
0.8287915637
 40
1.0
 40
1.0
 40
1.0
 40
1.0
 10
557.3557063005
 20
484.80708061
 30
0.0
 10
557.3557063005
 20
484.8199002334
 30
0.0
 10
557.3579494643
 20
484.8442209471
 30
0.0
 10
557.3680375678
 20
484.8761419193
 30
0.0
 10
557.3831461151
 20
484.8996025489
 30
0.0
 10
557.3988392045
 20
484.9070806114
 30
0.0
 10
557.4057063054
 20
484.90708061
 30
0.0
  0
SPLINE
  5
2BD
100
AcDbEntity
  8
0
100
AcDbSpline
 62
7
  6
CONTINUOUS
 70
0
 71
3
 72
11
 73
7
 74
0
 42
0.0000001
 43
0.0000001
 44
0.0000000001
 40
0.0
 40
0.0
 40
0.0
 40
0.0
 40
0.3196148809
 40
0.6037619552
 40
0.8287915621
 40
1.0
 40
1.0
 40
1.0
 40
1.0
 10
241.3057063005
 20
484.80708061
 30
0.0
 10
241.3057063005
 20
484.8199002331
 30
0.0
 10
241.3034631368
 20
484.8442209464
 30
0.0
 10
241.2933750336
 20
484.8761419182
 30
0.0
 10
241.2782664869
 20
484.8996025477
 30
0.0
 10
241.2625733981
 20
484.907080611
 30
0.0
 10
241.2557062972
 20
484.9070806101
 30
0.0
  0
SPLINE
  5
2BE
100
AcDbEntity
  8
0
100
AcDbSpline
 62
7
  6
CONTINUOUS
 70
0
 71
3
 72
11
 73
7
 74
0
 42
0.0000001
 43
0.0000001
 44
0.0000000001
 40
0.0
 40
0.0
 40
0.0
 40
0.0
 40
0.1711418259
 40
0.3960778551
 40
0.680278004
 40
1.0
 40
1.0
 40
1.0
 40
1.0
 10
241.1557063054
 20
484.90708061
 30
0.0
 10
241.148841856
 20
484.9070806114
 30
0.0
 10
241.1331543969
 20
484.8996087793
 30
0.0
 10
241.1180430289
 20
484.8761547764
 30
0.0
 10
241.1079509568
 20
484.8442318282
 30
0.0
 10
241.1057063005
 20
484.8199045673
 30
0.0
 10
241.1057063005
 20
484.80708061
 30
0.0
  0
SPLINE
  5
2BF
100
AcDbEntity
  8
0
100
AcDbSpline
 62
7
  6
CONTINUOUS
 70
0
 71
3
 72
11
 73
7
 74
0
 42
0.0000001
 43
0.0000001
 44
0.0000000001
 40
0.0
 40
0.0
 40
0.0
 40
0.0
 40
0.1711573624
 40
0.3961576275
 40
0.6803624055
 40
1.0
 40
1.0
 40
1.0
 40
1.0
 10
244.5057062972
 20
484.9070806101
 30
0.0
 10
244.5125713508
 20
484.907080611
 30
0.0
 10
244.5282614744
 20
484.8996060035
 30
0.0
 10
244.5433729973
 20
484.8761480265
 30
0.0
 10
244.5534622108
 20
484.844224993
 30
0.0
 10
244.5557063005
 20
484.8199011466
 30
0.0
 10
244.5557063005
 20
484.80708061
 30
0.0
  0
SPLINE
  5
2C0
100
AcDbEntity
  8
0
100
AcDbSpline
 62
7
  6
CONTINUOUS
 70
0
 71
3
 72
11
 73
7
 74
0
 42
0.0000001
 43
0.0000001
 44
0.0000000001
 40
0.0
 40
0.0
 40
0.0
 40
0.0
 40
0.3196148833
 40
0.6037619584
 40
0.8287915637
 40
1.0
 40
1.0
 40
1.0
 40
1.0
 10
237.8557063005
 20
484.80708061
 30
0.0
 10
237.8557063005
 20
484.8199002334
 30
0.0
 10
237.8579494643
 20
484.8442209471
 30
0.0
 10
237.8680375678
 20
484.8761419193
 30
0.0
 10
237.8831461151
 20
484.8996025489
 30
0.0
 10
237.8988392045
 20
484.9070806114
 30
0.0
 10
237.9057063054
 20
484.90708061
 30
0.0
  0
SPLINE
  5
2C1
100
AcDbEntity
  8
0
100
AcDbSpline
 62
7
  6
CONTINUOUS
 70
0
 71
3
 72
11
 73
7
 74
0
 42
0.0000001
 43
0.0000001
 44
0.0000000001
 40
0.0
 40
0.0
 40
0.0
 40
0.0
 40
0.3196148809
 40
0.6037619552
 40
0.8287915621
 40
1.0
 40
1.0
 40
1.0
 40
1.0
 10
454.3057063005
 20
484.80708061
 30
0.0
 10
454.3057063005
 20
484.8199002331
 30
0.0
 10
454.3034631368
 20
484.8442209464
 30
0.0
 10
454.2933750336
 20
484.8761419182
 30
0.0
 10
454.2782664869
 20
484.8996025477
 30
0.0
 10
454.2625733981
 20
484.907080611
 30
0.0
 10
454.2557062972
 20
484.9070806101
 30
0.0
  0
SPLINE
  5
2C2
100
AcDbEntity
  8
0
100
AcDbSpline
 62
7
  6
CONTINUOUS
 70
0
 71
3
 72
11
 73
7
 74
0
 42
0.0000001
 43
0.0000001
 44
0.0000000001
 40
0.0
 40
0.0
 40
0.0
 40
0.0
 40
0.1711418259
 40
0.3960778551
 40
0.680278004
 40
1.0
 40
1.0
 40
1.0
 40
1.0
 10
454.1557063054
 20
484.90708061
 30
0.0
 10
454.148841856
 20
484.9070806114
 30
0.0
 10
454.1331543969
 20
484.8996087793
 30
0.0
 10
454.1180430289
 20
484.8761547764
 30
0.0
 10
454.1079509568
 20
484.8442318282
 30
0.0
 10
454.1057063005
 20
484.8199045673
 30
0.0
 10
454.1057063005
 20
484.80708061
 30
0.0
  0
SPLINE
  5
2C3
100
AcDbEntity
  8
0
100
AcDbSpline
 62
7
  6
CONTINUOUS
 70
0
 71
3
 72
11
 73
7
 74
0
 42
0.0000001
 43
0.0000001
 44
0.0000000001
 40
0.0
 40
0.0
 40
0.0
 40
0.0
 40
0.1711573624
 40
0.3961576275
 40
0.6803624055
 40
1.0
 40
1.0
 40
1.0
 40
1.0
 10
457.5057062972
 20
484.9070806101
 30
0.0
 10
457.5125713508
 20
484.907080611
 30
0.0
 10
457.5282614744
 20
484.8996060035
 30
0.0
 10
457.5433729973
 20
484.8761480265
 30
0.0
 10
457.5534622108
 20
484.844224993
 30
0.0
 10
457.5557063005
 20
484.8199011466
 30
0.0
 10
457.5557063005
 20
484.80708061
 30
0.0
  0
SPLINE
  5
2C4
100
AcDbEntity
  8
0
100
AcDbSpline
 62
7
  6
CONTINUOUS
 70
0
 71
3
 72
11
 73
7
 74
0
 42
0.0000001
 43
0.0000001
 44
0.0000000001
 40
0.0
 40
0.0
 40
0.0
 40
0.0
 40
0.3196148833
 40
0.6037619584
 40
0.8287915637
 40
1.0
 40
1.0
 40
1.0
 40
1.0
 10
450.8557063005
 20
484.80708061
 30
0.0
 10
450.8557063005
 20
484.8199002334
 30
0.0
 10
450.8579494643
 20
484.8442209471
 30
0.0
 10
450.8680375678
 20
484.8761419193
 30
0.0
 10
450.8831461151
 20
484.8996025489
 30
0.0
 10
450.8988392045
 20
484.9070806114
 30
0.0
 10
450.9057063054
 20
484.90708061
 30
0.0
  0
ENDSEC
  0
SECTION
  2
OBJECTS
  0
DICTIONARY
  5
C
100
AcDbDictionary
280
0
281
1
  3
ACAD_GROUP
350
D
  3
ACAD_MLINESTYLE
350
17
  3
ACAD_LAYOUT
350
1A
  3
ACAD_PLOTSETTINGS
350
19
  3
ACAD_PLOTSTYLENAME
350
E
  0
DICTIONARY
  5
D
102
{ACAD_REACTORS
330
C
102
}
100
AcDbDictionary
280
0
281
1
  0
ACDBDICTIONARYWDFLT
  5
E
102
{ACAD_REACTORS
330
C
102
}
100
AcDbDictionary
281
1
  3
Normal
350
F
100
AcDbDictionaryWithDefault
340
F
  0
DICTIONARY
  5
17
102
{ACAD_REACTORS
330
C
102
}
100
AcDbDictionary
280
0
281
1
  3
Standard
350
18
  0
DICTIONARY
  5
19
102
{ACAD_REACTORS
330
C
102
}
100
AcDbDictionary
281
1
  0
DICTIONARY
  5
1A
102
{ACAD_REACTORS
330
C
102
}
100
AcDbDictionary
281
1
  3
Model
350
2C5
  3
Layout1
350
2C6
  0
ACDBPLACEHOLDER
  5
F
102
{ACAD_REACTORS
330
E
102
}
  0
MLINESTYLE
  5
18
102
{ACAD_REACTORS
330
17
102
}
100
AcDbMlineStyle
  2
STANDARD
 70
0
  3

 62
256
 51
90.0
 52
90.0
 71
2
 49
0.5
 62
256
  6
BYLAYER
 49
-0.5
 62
256
  6
BYLAYER
  0
LAYOUT
  5
2C5
102
{ACAD_REACTORS
330
1A
102
}
100
AcDbPlotSettings
  1

  2
none_device
  4

  6

 40
0.0
 41
0.0
 42
0.0
 43
0.0
 44
210.0
 45
297.0
 46
0.0
 47
0.0
 48
0.0
 49
0.0
140
0.0
141
0.0
142
1.0
143
1.0
 70
1024
 72
1
 73
0
 74
0
  7

 75
0
147
1.0
148
0.0
149
0.0
100
AcDbLayout
  1
Model
 70
0
 71
0
 10
0.0
 20
0.0
 11
210.0
 21
297.0
 12
0.0
 22
0.0
 32
0.0
 14
0.0
 24
0.0
 34
0.0
 15
0.0
 25
0.0
 35
0.0
146
0.0
 13
0.0
 23
0.0
 33
0.0
 16
1.0
 26
0.0
 36
0.0
 17
0.0
 27
1.0
 37
0.0
 76
0
330
210
345
0
346
0
  0
LAYOUT
  5
2C6
102
{ACAD_REACTORS
330
1A
102
}
100
AcDbPlotSettings
  1

  2
none_device
  4

  6

 40
0.0
 41
0.0
 42
0.0
 43
0.0
 44
210.0
 45
297.0
 46
0.0
 47
0.0
 48
0.0
 49
0.0
140
0.0
141
0.0
142
1.0
143
1.0
 70
0
 72
1
 73
0
 74
0
  7

 75
0
147
1.0
148
0.0
149
0.0
100
AcDbLayout
  1
Layout1
 70
0
 71
1
 10
0.0
 20
0.0
 11
210.0
 21
297.0
 12
0.0
 22
0.0
 32
0.0
 14
0.0
 24
0.0
 34
0.0
 15
0.0
 25
0.0
 35
0.0
146
0.0
 13
0.0
 23
0.0
 33
0.0
 16
1.0
 26
0.0
 36
0.0
 17
0.0
 27
1.0
 37
0.0
 76
0
330
211
345
0
346
0
  0
ENDSEC
  0
EOF
