999
DXF file: C:\Users\sesa63760\Dev\_Creo\CAD\MCADID0002083_3D-CAD\drw0001_5.dxf
999
Pro/ENGINEER 2019471 by Parametric Technology Corporation
  0
SECTION
  2
HEADER
  9
$ACADVER
  1
AC1024
  9
$DWGCODEPAGE
  3
ANSI_1252
  9
$EXTMAX
 10
382.9008173546
 20
541.5311559729
 30
0.0
  9
$EXTMIN
 10
0.0
 20
0.0
 30
0.0
  9
$LIMMIN
 10
0.0
 20
0.0
  9
$LIMMAX
 10
382.9008173546
 20
541.5311559729
  9
$VIEWCTR
 10
191.4504086773
 20
270.7655779865
  9
$VIEWSIZE
 40
541.5311559729
  9
$CLAYER
  8
0
  9
$LTSCALE
 40
35.2998086856
  9
$CELTYPE
  6
BYLAYER
  9
$DIMSCALE
 40
1.0
  9
$DIMASZ
 40
4.5583430637
  9
$DIMEXO
 40
1.0
  9
$DIMDLI
 40
24.3889587283
  9
$DIMEXE
 40
1.0
  9
$DIMCEN
 40
5.7763323304
  9
$DIMLFAC
 40
1.0
  9
$DIMBLK
  1
_FILLED
  9
$DIMALT
 70
0
  9
$DIMALTF
 40
0.0393700787
  9
$DIMTXT
 40
6.3816802892
  9
$DIMTOL
 70
1
  9
$DIMLIM
 70
0
  9
$DIMTFAC
 40
1.0
  9
$DIMTP
 40
0.01
  9
$DIMTM
 40
0.01
  9
$DIMGAP
 40
0.625
  9
$DIMDSEP
 70
46
  9
$AUNITS
 70
0
  9
$PDMODE
 70
3
  9
$PDSIZE
 40
0.3125
  9
$HANDSEED
  5
3E2
  9
$TILEMODE
 70
1
  9
$MEASUREMENT
 70
1
  9
$INSUNITS
 70
4
  0
ENDSEC
  0
SECTION
  2
CLASSES
  0
CLASS
  1
ACDBDICTIONARYWDFLT
  2
AcDbDictionaryWithDefault
  3
AutoCAD 2000
 90
0
 91
1
280
0
281
0
  0
CLASS
  1
ACDBPLACEHOLDER
  2
AcDbPlaceHolder
  3
AutoCAD 2000
 90
0
 91
1
280
0
281
0
  0
CLASS
  1
LAYOUT
  2
AcDbLayout
  3
AutoCAD 2000
 90
0
 91
0
280
0
281
0
  0
ENDSEC
  0
SECTION
  2
TABLES
  0
TABLE
  2
VPORT
  5
8
100
AcDbSymbolTable
 70
2
  0
VPORT
  5
1F4
100
AcDbSymbolTableRecord
100
AcDbViewportTableRecord
  2
*ACTIVE
 70
0
 10
0.0
 20
0.0
 11
1.0
 21
1.0
 12
191.4504086773
 22
270.7655779865
 13
0.0
 23
0.0
 14
1.0
 24
1.0
 15
0.0
 25
0.0
 16
0.0
 26
0.0
 36
1.0
 17
0.0
 27
0.0
 37
0.0
 40
541.5311559729
 41
0.7070707071
 42
50.0
 43
0.0
 44
0.0
 50
0.0
 51
0.0
 71
0
 72
100
 73
1
 74
1
 75
0
 76
0
 77
0
 78
0
  0
ENDTAB
  0
TABLE
  2
LTYPE
  5
5
100
AcDbSymbolTable
 70
6
  0
LTYPE
  5
14
100
AcDbSymbolTableRecord
100
AcDbLinetypeTableRecord
  2
BYBLOCK
 70
0
  3

 72
65
 73
0
 40
0.0
  0
LTYPE
  5
15
100
AcDbSymbolTableRecord
100
AcDbLinetypeTableRecord
  2
BYLAYER
 70
0
  3

 72
65
 73
0
 40
0.0
  0
LTYPE
  5
16
100
AcDbSymbolTableRecord
100
AcDbLinetypeTableRecord
  2
CONTINUOUS
 70
64
  3
Solid line
 72
65
 73
0
 40
0.0
  0
LTYPE
  5
1F5
100
AcDbSymbolTableRecord
100
AcDbLinetypeTableRecord
  2
CENTER
 70
64
  3
____ _ ____ _ ____ _ ____ _ ____ _ ____ _ ____
 72
65
 73
4
 40
0.6
 49
0.375
 74
0
 49
-0.075
 74
0
 49
0.075
 74
0
 49
-0.075
 74
0
  0
LTYPE
  5
1F6
100
AcDbSymbolTableRecord
100
AcDbLinetypeTableRecord
  2
HIDDEN
 70
64
  3
- - - - - - - - - - - - - - - - - - - -
 72
65
 73
2
 40
0.2
 49
0.1
 74
0
 49
-0.1
 74
0
  0
LTYPE
  5
1F7
100
AcDbSymbolTableRecord
100
AcDbLinetypeTableRecord
  2
PHANTOM
 70
64
  3
_____ _ _ _____ _ _ _____ _ _ _____
 72
65
 73
6
 40
0.8
 49
0.45
 74
0
 49
-0.05
 74
0
 49
0.1
 74
0
 49
-0.05
 74
0
 49
0.1
 74
0
 49
-0.05
 74
0
  0
LTYPE
  5
1F8
100
AcDbSymbolTableRecord
100
AcDbLinetypeTableRecord
  2
DOT
 70
64
  3
. . . . . . . . . . . . . . . . . . . .
 72
65
 73
2
 40
0.2
 49
0.1
 74
0
 49
-0.1
 74
0
  0
LTYPE
  5
1F9
100
AcDbSymbolTableRecord
100
AcDbLinetypeTableRecord
  2
DASHED
 70
64
  3
- - - - - - - - - - - - - - - - - - - -
 72
65
 73
2
 40
0.2
 49
0.1
 74
0
 49
-0.1
 74
0
  0
ENDTAB
  0
TABLE
  2
LAYER
  5
2
100
AcDbSymbolTable
 70
36
  0
LAYER
  5
10
100
AcDbSymbolTableRecord
100
AcDbLayerTableRecord
  2
0
 70
0
 62
7
  6
CONTINUOUS
370
-3
390
F
  0
LAYER
  5
1FA
100
AcDbSymbolTableRecord
100
AcDbLayerTableRecord
  2
DEFAULT_1
 70
0
 62
7
  6
CENTER
370
-3
390
F
  0
LAYER
  5
1FB
100
AcDbSymbolTableRecord
100
AcDbLayerTableRecord
  2
DEFAULT_2
 70
0
 62
8
  6
HIDDEN
370
-3
390
F
  0
LAYER
  5
1FC
100
AcDbSymbolTableRecord
100
AcDbLayerTableRecord
  2
DEFAULT_3
 70
0
 62
7
  6
PHANTOM
370
-3
390
F
  0
LAYER
  5
1FD
100
AcDbSymbolTableRecord
100
AcDbLayerTableRecord
  2
00_COMPONENTS
 70
0
 62
7
  6
CONTINUOUS
370
-3
390
F
  0
LAYER
  5
1FE
100
AcDbSymbolTableRecord
100
AcDbLayerTableRecord
  2
01_1_DEFAULT_DATUMS
 70
0
 62
7
  6
CONTINUOUS
370
-3
390
F
  0
LAYER
  5
1FF
100
AcDbSymbolTableRecord
100
AcDbLayerTableRecord
  2
01_PLANES
 70
0
 62
7
  6
CONTINUOUS
370
-3
390
F
  0
LAYER
  5
200
100
AcDbSymbolTableRecord
100
AcDbLayerTableRecord
  2
02_COORD_SYS
 70
0
 62
7
  6
CONTINUOUS
370
-3
390
F
  0
LAYER
  5
201
100
AcDbSymbolTableRecord
100
AcDbLayerTableRecord
  2
03_AXES
 70
0
 62
7
  6
CONTINUOUS
370
-3
390
F
  0
LAYER
  5
202
100
AcDbSymbolTableRecord
100
AcDbLayerTableRecord
  2
04_POINTS
 70
0
 62
7
  6
CONTINUOUS
370
-3
390
F
  0
LAYER
  5
203
100
AcDbSymbolTableRecord
100
AcDbLayerTableRecord
  2
05_CURVES
 70
0
 62
7
  6
CONTINUOUS
370
-3
390
F
  0
LAYER
  5
204
100
AcDbSymbolTableRecord
100
AcDbLayerTableRecord
  2
06_SURFS
 70
0
 62
7
  6
CONTINUOUS
370
-3
390
F
  0
LAYER
  5
205
100
AcDbSymbolTableRecord
100
AcDbLayerTableRecord
  2
07_COSMETICS
 70
0
 62
7
  6
CONTINUOUS
370
-3
390
F
  0
LAYER
  5
206
100
AcDbSymbolTableRecord
100
AcDbLayerTableRecord
  2
10_NOTES
 70
0
 62
7
  6
CONTINUOUS
370
-3
390
F
  0
LAYER
  5
207
100
AcDbSymbolTableRecord
100
AcDbLayerTableRecord
  2
11_NOTES_PUB
 70
0
 62
7
  6
CONTINUOUS
370
-3
390
F
  0
LAYER
  5
208
100
AcDbSymbolTableRecord
100
AcDbLayerTableRecord
  2
13_REF_GTOL
 70
0
 62
7
  6
CONTINUOUS
370
-3
390
F
  0
LAYER
  5
209
100
AcDbSymbolTableRecord
100
AcDbLayerTableRecord
  2
16_MISC
 70
0
 62
7
  6
CONTINUOUS
370
-3
390
F
  0
LAYER
  5
20A
100
AcDbSymbolTableRecord
100
AcDbLayerTableRecord
  2
17_NO_PRINT
 70
0
 62
7
  6
CONTINUOUS
370
-3
390
F
  0
LAYER
  5
20B
100
AcDbSymbolTableRecord
100
AcDbLayerTableRecord
  2
18_DATUM_CAMS_JOINTS
 70
0
 62
7
  6
CONTINUOUS
370
-3
390
F
  0
LAYER
  5
20C
100
AcDbSymbolTableRecord
100
AcDbLayerTableRecord
  2
19_DATUM_FUNCTIONAL
 70
0
 62
7
  6
CONTINUOUS
370
-3
390
F
  0
LAYER
  5
20D
100
AcDbSymbolTableRecord
100
AcDbLayerTableRecord
  2
20_DATUM_KINEMATIC_SCHEME
 70
0
 62
7
  6
CONTINUOUS
370
-3
390
F
  0
ENDTAB
  0
TABLE
  2
STYLE
  5
3
100
AcDbSymbolTable
 70
1
  0
STYLE
  5
11
100
AcDbSymbolTableRecord
100
AcDbTextStyleTableRecord
  2
STANDARD
 70
0
 40
0.0
 41
0.8
 50
0.0
 71
0
 42
0.2
  3
txt
  4

  0
STYLE
  5
20E
100
AcDbSymbolTableRecord
100
AcDbTextStyleTableRecord
  2
TEXTSTYLE_1
 70
0
 40
0.0
 41
0.8
 50
0.0
 71
0
 42
0.2
  3
gdt
  4

  0
ENDTAB
  0
TABLE
  2
VIEW
  5
6
100
AcDbSymbolTable
 70
0
  0
ENDTAB
  0
TABLE
  2
UCS
  5
7
100
AcDbSymbolTable
 70
0
  0
ENDTAB
  0
TABLE
  2
APPID
  5
9
100
AcDbSymbolTable
 70
1
  0
APPID
  5
20F
100
AcDbSymbolTableRecord
100
AcDbRegAppTableRecord
  2
ACAD
 70
0
  0
ENDTAB
  0
TABLE
  2
BLOCK_RECORD
  5
1
100
AcDbSymbolTable
 70
0
  0
BLOCK_RECORD
  5
210
100
AcDbSymbolTableRecord
100
AcDbBlockTableRecord
  2
*Model_Space
  0
BLOCK_RECORD
  5
211
100
AcDbSymbolTableRecord
100
AcDbBlockTableRecord
  2
*Paper_Space
  0
BLOCK_RECORD
  5
212
100
AcDbSymbolTableRecord
100
AcDbBlockTableRecord
  2
_FILLED
  0
ENDTAB
  0
TABLE
  2
DIMSTYLE
  5
A
100
AcDbSymbolTable
 70
1
100
AcDbDimStyleTable
 71
0
  0
DIMSTYLE
105
213
100
AcDbSymbolTableRecord
100
AcDbDimStyleTableRecord
  2
STANDARD
 70
0
  3

  4

 40
1.0
 41
4.5583430637
 42
1.0
 43
0.38
 44
1.0
 45
0.0
 46
0.0
 47
0.01
 48
0.01
140
6.3816802892
141
0.09
142
0.0
143
25.4
144
1.0
145
0.0
146
1.0
147
0.625
 71
1
 72
0
 73
0
 74
0
 75
0
 76
0
 77
1
 78
8
 79
2
170
0
171
1
172
0
173
0
174
0
175
0
176
0
177
0
178
0
270
2
179
2
271
2
272
2
273
2
274
2
275
0
280
0
281
0
282
0
283
1
284
8
285
0
286
0
287
3
288
0
340
11
278
46
341
212
342
212
343
212
344
212
  0
ENDTAB
  0
ENDSEC
  0
SECTION
  2
BLOCKS
  0
BLOCK
  5
20
100
AcDbEntity
  8
0
100
AcDbBlockBegin
  2
*Model_Space
 70
0
 10
0.0
 20
0.0
 30
0.0
  3
*Model_Space
  1

  0
ENDBLK
  5
21
100
AcDbEntity
  8
0
100
AcDbBlockEnd
  0
BLOCK
  5
1C
100
AcDbEntity
  8
0
100
AcDbBlockBegin
  2
*Paper_Space
 70
0
 10
0.0
 20
0.0
 30
0.0
  3
*Paper_Space
  1

  0
ENDBLK
  5
1D
100
AcDbEntity
  8
0
100
AcDbBlockEnd
  0
BLOCK
  5
214
100
AcDbEntity
  8
0
100
AcDbBlockBegin
  2
_FILLED
 70
64
 10
0.0
 20
0.0
  3
_FILLED
  1

  0
SOLID
  5
215
100
AcDbEntity
  8
0
  6
BYBLOCK
 62
0
100
AcDbTrace
 10
0.0
 20
0.0
 11
-1.0
 21
0.25
 12
-1.0
 22
-0.25
 13
-1.0
 23
-0.25
  0
ENDBLK
  5
216
100
AcDbEntity
  8
0
  6
BYBLOCK
 62
0
100
AcDbBlockEnd
  0
ENDSEC
  0
SECTION
  2
ENTITIES
  0
LINE
  5
217
100
AcDbEntity
  8
0
100
AcDbLine
 62
7
  6
CONTINUOUS
 10
44.6338223272
 20
267.2534068187
 11
44.6338223272
 21
255.9534068187
  0
LINE
  5
218
100
AcDbEntity
  8
0
100
AcDbLine
 62
7
  6
CONTINUOUS
 10
47.6234055345
 20
267.4298774069
 11
47.6234055345
 21
255.7769362304
  0
LINE
  5
219
100
AcDbEntity
  8
0
100
AcDbLine
 62
7
  6
CONTINUOUS
 10
47.8220166288
 20
255.9534068187
 11
47.8220166288
 21
267.2534068187
  0
LINE
  5
21A
100
AcDbEntity
  8
0
100
AcDbLine
 62
7
  6
CONTINUOUS
 10
52.9338223272
 20
267.2534068187
 11
52.9338223272
 21
255.9534068187
  0
LINE
  5
21B
100
AcDbEntity
  8
0
100
AcDbLine
 62
7
  6
CONTINUOUS
 10
53.1338223272
 20
268.2534068187
 11
53.1338223272
 21
254.9534068187
  0
LINE
  5
21C
100
AcDbEntity
  8
0
100
AcDbLine
 62
7
  6
CONTINUOUS
 10
56.1234055345
 20
268.4298774069
 11
56.1234055345
 21
254.7769362304
  0
LINE
  5
21D
100
AcDbEntity
  8
0
100
AcDbLine
 62
7
  6
CONTINUOUS
 10
56.3220166288
 20
254.9534068187
 11
56.3220166288
 21
268.2534068187
  0
LINE
  5
21E
100
AcDbEntity
  8
0
100
AcDbLine
 62
7
  6
CONTINUOUS
 10
61.4338223272
 20
268.2534068187
 11
61.4338223272
 21
254.9534068187
  0
LINE
  5
21F
100
AcDbEntity
  8
0
100
AcDbLine
 62
7
  6
CONTINUOUS
 10
61.6338223272
 20
269.2534068187
 11
61.6338223272
 21
253.9534068187
  0
LINE
  5
220
100
AcDbEntity
  8
0
100
AcDbLine
 62
7
  6
CONTINUOUS
 10
64.6234055345
 20
269.4298774069
 11
64.6234055345
 21
253.7769362304
  0
LINE
  5
221
100
AcDbEntity
  8
0
100
AcDbLine
 62
7
  6
CONTINUOUS
 10
64.8220166288
 20
253.9534068187
 11
64.8220166288
 21
269.2534068187
  0
LINE
  5
222
100
AcDbEntity
  8
0
100
AcDbLine
 62
7
  6
CONTINUOUS
 10
69.9338223272
 20
269.2534068187
 11
69.9338223272
 21
253.9534068187
  0
LINE
  5
223
100
AcDbEntity
  8
0
100
AcDbLine
 62
7
  6
CONTINUOUS
 10
70.1338223272
 20
270.2534068187
 11
70.1338223272
 21
252.9534068187
  0
LINE
  5
224
100
AcDbEntity
  8
0
100
AcDbLine
 62
7
  6
CONTINUOUS
 10
73.1234055345
 20
270.4298774069
 11
73.1234055345
 21
252.7769362304
  0
LINE
  5
225
100
AcDbEntity
  8
0
100
AcDbLine
 62
7
  6
CONTINUOUS
 10
73.3220166288
 20
252.9534068187
 11
73.3220166288
 21
270.2534068187
  0
LINE
  5
226
100
AcDbEntity
  8
0
100
AcDbLine
 62
7
  6
CONTINUOUS
 10
78.4338223272
 20
270.2534068187
 11
78.4338223272
 21
252.9534068187
  0
LINE
  5
227
100
AcDbEntity
  8
0
100
AcDbLine
 62
7
  6
CONTINUOUS
 10
78.6338223272
 20
252.6034567994
 11
78.6338223272
 21
270.6033568379
  0
LINE
  5
228
100
AcDbEntity
  8
0
100
AcDbLine
 62
7
  6
CONTINUOUS
 10
79.9485432531
 20
251.1147601211
 11
79.9485432531
 21
272.0920535162
  0
LINE
  5
229
100
AcDbEntity
  8
0
100
AcDbLine
 62
7
  6
CONTINUOUS
 10
90.4715178653
 20
273.4018752506
 11
90.4715178653
 21
249.8049383867
  0
LINE
  5
22A
100
AcDbEntity
  8
0
100
AcDbLine
 62
7
  6
CONTINUOUS
 10
90.4962217419
 20
249.8034068187
 11
90.4962217419
 21
273.4034068187
  0
LINE
  5
22B
100
AcDbEntity
  8
0
100
AcDbLine
 62
7
  6
CONTINUOUS
 10
109.0838223272
 20
273.4034068187
 11
109.0838223272
 21
249.8034068187
  0
LINE
  5
22C
100
AcDbEntity
  8
0
100
AcDbLine
 62
7
  6
CONTINUOUS
 10
109.2838223272
 20
246.8035708883
 11
109.2838223272
 21
276.403242749
  0
LINE
  5
22D
100
AcDbEntity
  8
0
100
AcDbLine
 62
7
  6
CONTINUOUS
 10
109.4838223272
 20
246.6034068187
 11
109.4838223272
 21
276.6034068187
  0
LINE
  5
22E
100
AcDbEntity
  8
0
100
AcDbLine
 62
7
  6
CONTINUOUS
 10
112.5838223272
 20
276.6034068187
 11
112.5838223272
 21
246.6034068187
  0
LINE
  5
22F
100
AcDbEntity
  8
0
100
AcDbLine
 62
7
  6
CONTINUOUS
 10
112.7838223272
 20
246.8036562004
 11
112.7838223272
 21
276.4031574369
  0
LINE
  5
230
100
AcDbEntity
  8
0
100
AcDbLine
 62
7
  6
CONTINUOUS
 10
112.9838223272
 20
267.5128428286
 11
112.9838223272
 21
272.1034068187
  0
LINE
  5
231
100
AcDbEntity
  8
0
100
AcDbLine
 62
7
  6
CONTINUOUS
 10
113.1557050689
 20
273.4034068187
 11
113.1266751164
 21
272.1002130754
  0
LINE
  5
232
100
AcDbEntity
  8
0
100
AcDbLine
 62
7
  6
CONTINUOUS
 10
113.5460158194
 20
262.581449122
 11
113.5460158194
 21
262.8634068187
  0
LINE
  5
233
100
AcDbEntity
  8
0
100
AcDbLine
 62
7
  6
CONTINUOUS
 10
113.5475984909
 20
260.6289832984
 11
113.5475984909
 21
260.2034068139
  0
LINE
  5
234
100
AcDbEntity
  8
0
100
AcDbLine
 62
7
  6
CONTINUOUS
 10
122.9410918552
 20
260.2034120015
 11
122.9397322245
 21
289.3376627929
  0
LINE
  5
235
100
AcDbEntity
  8
0
100
AcDbLine
 62
7
  6
CONTINUOUS
 10
122.8790347427
 20
253.4401831154
 11
122.7831401731
 21
249.2583246198
  0
LINE
  5
236
100
AcDbEntity
  8
0
100
AcDbLine
 62
7
  6
CONTINUOUS
 10
113.5460069999
 20
262.8634068187
 11
113.5630347166
 21
263.1354522331
  0
LINE
  5
237
100
AcDbEntity
  8
0
100
AcDbLine
 62
7
  6
CONTINUOUS
 10
113.5460069999
 20
262.8634068187
 11
113.5685271402
 21
263.1350966509
  0
LINE
  5
238
100
AcDbEntity
  8
0
100
AcDbLine
 62
7
  6
CONTINUOUS
 10
113.1556392439
 20
273.4034068187
 11
115.1831930216
 21
286.5695827735
  0
LINE
  5
239
100
AcDbEntity
  8
0
100
AcDbLine
 62
7
  6
CONTINUOUS
 10
113.0003196882
 20
247.9561879409
 11
112.2022463664
 21
248.6908290177
  0
LINE
  5
23A
100
AcDbEntity
  8
0
100
AcDbLine
 62
7
  6
CONTINUOUS
 10
128.8400710041
 20
228.1181254448
 11
114.985029946
 21
241.9731665029
  0
LINE
  5
23B
100
AcDbEntity
  8
0
100
AcDbLine
 62
7
  6
CONTINUOUS
 10
113.3476277152
 20
263.1534068173
 11
113.4894895354
 21
262.8634068187
  0
LINE
  5
23C
100
AcDbEntity
  8
0
100
AcDbLine
 62
7
  6
CONTINUOUS
 10
125.2022463664
 20
243.1034068187
 11
125.2022463664
 21
235.4639314624
  0
LINE
  5
23D
100
AcDbEntity
  8
0
100
AcDbLine
 62
7
  6
CONTINUOUS
 10
133.2022463664
 20
230.6176994879
 11
133.2022463664
 21
243.1034068187
  0
LINE
  5
23E
100
AcDbEntity
  8
0
100
AcDbLine
 62
7
  6
CONTINUOUS
 10
133.6022463664
 20
235.0942767649
 11
133.6022463664
 21
243.1034068187
  0
LINE
  5
23F
100
AcDbEntity
  8
0
100
AcDbLine
 62
7
  6
CONTINUOUS
 10
128.5506336801
 20
261.6034068187
 11
128.7192834534
 21
262.2328163414
  0
LINE
  5
240
100
AcDbEntity
  8
0
100
AcDbLine
 62
7
  6
CONTINUOUS
 10
324.5698867138
 20
230.6308003873
 11
325.9583958093
 21
230.9653233662
  0
LINE
  5
241
100
AcDbEntity
  8
0
100
AcDbLine
 62
7
  6
CONTINUOUS
 10
122.7831401731
 20
249.2583246198
 11
128.9379471208
 21
243.1034068186
  0
LINE
  5
242
100
AcDbEntity
  8
0
100
AcDbLine
 62
7
  6
CONTINUOUS
 10
133.6022463664
 20
235.0942767649
 11
137.3253545093
 21
224.603406758
  0
LINE
  5
243
100
AcDbEntity
  8
0
100
AcDbLine
 62
7
  6
CONTINUOUS
 10
136.7575711188
 20
226.2021073358
 11
136.8812113912
 21
225.8533700781
  0
LINE
  5
244
100
AcDbEntity
  8
0
100
AcDbLine
 62
7
  6
CONTINUOUS
 10
129.6852092795
 20
262.2328163414
 11
129.8538590528
 21
261.6034068187
  0
LINE
  5
245
100
AcDbEntity
  8
0
100
AcDbLine
 62
7
  6
CONTINUOUS
 10
276.569887196
 20
230.6308005245
 11
277.9583947813
 21
230.9653231642
  0
LINE
  5
246
100
AcDbEntity
  8
0
100
AcDbLine
 62
7
  6
CONTINUOUS
 10
271.2678296003
 20
230.1358571452
 11
259.9513039535
 21
227.7304553636
  0
LWPOLYLINE
  5
247
100
AcDbEntity
  8
0
100
AcDbPolyline
 62
7
  6
CONTINUOUS
 90
3
 70
0
 10
271.2679019797
 20
230.1359111312
 10
271.3931592865
 20
230.1614894839
 10
271.7243045289
 20
230.2191534844
  0
LINE
  5
248
100
AcDbEntity
  8
0
100
AcDbLine
 62
7
  6
CONTINUOUS
 10
271.7140608184
 20
230.2175472576
 11
273.9175390575
 21
230.5534068198
  0
LINE
  5
249
100
AcDbEntity
  8
0
100
AcDbLine
 62
7
  6
CONTINUOUS
 10
324.2321723798
 20
230.5537409411
 11
324.372636798
 21
230.5736215613
  0
LINE
  5
24A
100
AcDbEntity
  8
0
100
AcDbLine
 62
7
  6
CONTINUOUS
 10
325.9496125194
 20
230.9635845939
 11
328.2125321672
 21
231.2369265803
  0
LINE
  5
24B
100
AcDbEntity
  8
0
100
AcDbLine
 62
7
  6
CONTINUOUS
 10
215.3129653667
 20
228.4443057832
 11
200.8987125139
 21
224.7299436232
  0
LINE
  5
24C
100
AcDbEntity
  8
0
100
AcDbLine
 62
7
  6
CONTINUOUS
 10
250.8725775706
 20
227.9239114529
 11
229.8743330584
 21
224.7107285176
  0
LINE
  5
24D
100
AcDbEntity
  8
0
100
AcDbLine
 62
7
  6
CONTINUOUS
 10
276.2321723798
 20
230.5537409411
 11
276.372636798
 21
230.5736215613
  0
LINE
  5
24E
100
AcDbEntity
  8
0
100
AcDbLine
 62
7
  6
CONTINUOUS
 10
277.9496145757
 20
230.963584999
 11
280.2125319747
 21
231.236926572
  0
LWPOLYLINE
  5
24F
100
AcDbEntity
  8
0
100
AcDbPolyline
 62
7
  6
CONTINUOUS
 90
3
 70
0
 10
199.90057252
 20
224.6034068187
 10
200.3871919125
 20
224.633116965
 10
200.898712504
 20
224.729943719
  0
LINE
  5
250
100
AcDbEntity
  8
0
100
AcDbLine
 62
7
  6
CONTINUOUS
 10
137.3253522444
 20
224.6034068187
 11
161.4322463664
 21
224.6034068187
  0
LINE
  5
251
100
AcDbEntity
  8
0
100
AcDbLine
 62
7
  6
CONTINUOUS
 10
187.4322463664
 20
224.6034068187
 11
199.9004318956
 21
224.6034068187
  0
LINE
  5
252
100
AcDbEntity
  8
0
100
AcDbLine
 62
7
  6
CONTINUOUS
 10
161.4322463664
 20
225.0034068187
 11
177.1156215761
 21
225.0034068187
  0
LINE
  5
253
100
AcDbEntity
  8
0
100
AcDbLine
 62
7
  6
CONTINUOUS
 10
183.7488711568
 20
225.0034068187
 11
187.4322463664
 21
225.0034068187
  0
LINE
  5
254
100
AcDbEntity
  8
0
100
AcDbLine
 62
7
  6
CONTINUOUS
 10
162.4322463664
 20
227.2723051618
 11
186.4322463664
 21
227.2723051618
  0
LINE
  5
255
100
AcDbEntity
  8
0
100
AcDbLine
 62
7
  6
CONTINUOUS
 10
200.89907772
 20
224.730037734
 11
199.9806395761
 21
224.7507671354
  0
LINE
  5
256
100
AcDbEntity
  8
0
100
AcDbLine
 62
7
  6
CONTINUOUS
 10
256.5739796125
 20
227.7412813067
 11
250.8725775706
 21
227.9239114529
  0
LINE
  5
257
100
AcDbEntity
  8
0
100
AcDbLine
 62
7
  6
CONTINUOUS
 10
159.9668678978
 20
297.4971961326
 11
159.9668678978
 21
298.2534068187
  0
LINE
  5
258
100
AcDbEntity
  8
0
100
AcDbLine
 62
7
  6
CONTINUOUS
 10
161.2482724603
 20
298.2534068187
 11
161.2482724603
 21
297.4971961326
  0
LINE
  5
259
100
AcDbEntity
  8
0
100
AcDbLine
 62
7
  6
CONTINUOUS
 10
161.4322463664
 20
226.7109843162
 11
161.4322463664
 21
224.6034068187
  0
LINE
  5
25A
100
AcDbEntity
  8
0
100
AcDbLine
 62
7
  6
CONTINUOUS
 10
163.8322463664
 20
301.2194322224
 11
163.8322463664
 21
313.8534068187
  0
LINE
  5
25B
100
AcDbEntity
  8
0
100
AcDbLine
 62
7
  6
CONTINUOUS
 10
163.8442463664
 20
313.8534068187
 11
163.8442463664
 21
314.9991932025
  0
LINE
  5
25C
100
AcDbEntity
  8
0
100
AcDbLine
 62
7
  6
CONTINUOUS
 10
164.0255380595
 20
313.8534068187
 11
164.0255380595
 21
314.9991932025
  0
LINE
  5
25D
100
AcDbEntity
  8
0
100
AcDbLine
 62
7
  6
CONTINUOUS
 10
164.2647317277
 20
313.8534068187
 11
164.2647317277
 21
314.9991932025
  0
LINE
  5
25E
100
AcDbEntity
  8
0
100
AcDbLine
 62
7
  6
CONTINUOUS
 10
165.3834778355
 20
297.7321727825
 11
165.3834778355
 21
300.3534068187
  0
LINE
  5
25F
100
AcDbEntity
  8
0
100
AcDbLine
 62
7
  6
CONTINUOUS
 10
342.9433213659
 20
230.5534068187
 11
333.4323202486
 21
230.5534068187
  0
LINE
  5
260
100
AcDbEntity
  8
0
100
AcDbLine
 62
7
  6
CONTINUOUS
 10
324.2321724843
 20
230.5534068187
 11
285.4323202486
 21
230.5534068187
  0
LINE
  5
261
100
AcDbEntity
  8
0
100
AcDbLine
 62
7
  6
CONTINUOUS
 10
276.2321724843
 20
230.5534068187
 11
273.9189875865
 21
230.5534068187
  0
LINE
  5
262
100
AcDbEntity
  8
0
100
AcDbLine
 62
7
  6
CONTINUOUS
 10
273.9315261927
 20
238.9157086212
 11
343.1594038021
 21
238.9157086212
  0
LINE
  5
263
100
AcDbEntity
  8
0
100
AcDbLine
 62
7
  6
CONTINUOUS
 10
235.4881314531
 20
240.2779248169
 11
230.1079158635
 21
240.2779265571
  0
LINE
  5
264
100
AcDbEntity
  8
0
100
AcDbLine
 62
7
  6
CONTINUOUS
 10
223.1070023616
 20
240.2781058066
 11
133.6022463664
 21
240.2780925504
  0
LINE
  5
265
100
AcDbEntity
  8
0
100
AcDbLine
 62
7
  6
CONTINUOUS
 10
280.200987986
 20
231.2364214611
 11
281.4635025423
 21
231.2364215649
  0
LINE
  5
266
100
AcDbEntity
  8
0
100
AcDbLine
 62
7
  6
CONTINUOUS
 10
328.200985951
 20
231.2364213718
 11
329.4635019664
 21
231.2364215902
  0
LINE
  5
267
100
AcDbEntity
  8
0
100
AcDbLine
 62
7
  6
CONTINUOUS
 10
79.9485432531
 20
251.1147601211
 11
90.4715178653
 21
249.8049383867
  0
LWPOLYLINE
  5
268
100
AcDbEntity
  8
0
100
AcDbPolyline
 62
7
  6
CONTINUOUS
 90
4
 70
0
 10
256.5740050135
 20
227.7413972833
 10
257.5924671128
 20
227.5859540054
 10
258.9938286793
 20
227.5868834256
 10
259.9512924906
 20
227.730509206
  0
LINE
  5
269
100
AcDbEntity
  8
0
100
AcDbLine
 62
7
  6
CONTINUOUS
 10
171.8322463664
 20
317.9025274161
 11
171.8322463664
 21
317.6724243859
  0
LINE
  5
26A
100
AcDbEntity
  8
0
100
AcDbLine
 62
7
  6
CONTINUOUS
 10
124.7301609669
 20
243.1034068187
 11
133.6022463664
 21
243.1034068187
  0
LINE
  5
26B
100
AcDbEntity
  8
0
100
AcDbLine
 62
7
  6
CONTINUOUS
 10
112.5838223272
 20
246.6034068187
 11
109.4838223272
 21
246.6034068187
  0
LINE
  5
26C
100
AcDbEntity
  8
0
100
AcDbLine
 62
7
  6
CONTINUOUS
 10
109.0838223272
 20
249.8034068187
 11
90.4962217419
 21
249.8034068187
  0
LINE
  5
26D
100
AcDbEntity
  8
0
100
AcDbLine
 62
7
  6
CONTINUOUS
 10
90.4715178653
 20
249.8049383867
 11
90.4962217419
 21
249.8034068187
  0
LINE
  5
26E
100
AcDbEntity
  8
0
100
AcDbLine
 62
7
  6
CONTINUOUS
 10
281.4519575567
 20
231.2369267026
 11
283.7148776694
 21
230.9635850987
  0
LINE
  5
26F
100
AcDbEntity
  8
0
100
AcDbLine
 62
7
  6
CONTINUOUS
 10
329.4519559224
 20
231.2369267733
 11
331.7148763566
 21
230.9635853573
  0
LINE
  5
270
100
AcDbEntity
  8
0
100
AcDbLine
 62
7
  6
CONTINUOUS
 10
285.432320353
 20
230.5537411201
 11
285.29185715
 21
230.5736213203
  0
LINE
  5
271
100
AcDbEntity
  8
0
100
AcDbLine
 62
7
  6
CONTINUOUS
 10
333.432320353
 20
230.5537411201
 11
333.29185715
 21
230.5736213203
  0
LWPOLYLINE
  5
272
100
AcDbEntity
  8
0
100
AcDbPolyline
 62
7
  6
CONTINUOUS
 90
3
 70
0
 10
226.597567512
 20
225.6877473092
 10
227.9463791326
 20
224.8897916333
 10
229.8742094229
 20
224.7107568417
  0
LINE
  5
273
100
AcDbEntity
  8
0
100
AcDbLine
 62
7
  6
CONTINUOUS
 10
177.6572463664
 20
295.9306833651
 11
177.6572463664
 21
300.3534068187
  0
LINE
  5
274
100
AcDbEntity
  8
0
100
AcDbLine
 62
7
  6
CONTINUOUS
 10
180.0072463664
 20
300.3534068187
 11
180.0072463664
 21
295.585760767
  0
LINE
  5
275
100
AcDbEntity
  8
0
100
AcDbLine
 62
7
  6
CONTINUOUS
 10
183.0191281737
 20
313.8534068187
 11
183.0191281737
 21
314.9991932025
  0
LINE
  5
276
100
AcDbEntity
  8
0
100
AcDbLine
 62
7
  6
CONTINUOUS
 10
184.1568889395
 20
313.8534068187
 11
184.1568889395
 21
314.9991932025
  0
LINE
  5
277
100
AcDbEntity
  8
0
100
AcDbLine
 62
7
  6
CONTINUOUS
 10
185.8067350576
 20
313.8534068187
 11
185.8067350576
 21
314.9991932025
  0
LINE
  5
278
100
AcDbEntity
  8
0
100
AcDbLine
 62
7
  6
CONTINUOUS
 10
185.8322463664
 20
317.9025274161
 11
185.8322463664
 21
317.6724243859
  0
LINE
  5
279
100
AcDbEntity
  8
0
100
AcDbLine
 62
7
  6
CONTINUOUS
 10
186.8457576753
 20
313.8534068187
 11
186.8457576753
 21
314.9991932025
  0
LINE
  5
27A
100
AcDbEntity
  8
0
100
AcDbLine
 62
7
  6
CONTINUOUS
 10
187.4322463664
 20
224.6034068187
 11
187.4322463664
 21
226.7109843162
  0
LINE
  5
27B
100
AcDbEntity
  8
0
100
AcDbLine
 62
7
  6
CONTINUOUS
 10
193.3322463664
 20
300.3534068187
 11
193.8322463664
 21
301.2194322224
  0
LINE
  5
27C
100
AcDbEntity
  8
0
100
AcDbLine
 62
7
  6
CONTINUOUS
 10
235.6022464576
 20
260.2034189993
 11
273.9322468975
 21
260.5220457368
  0
LINE
  5
27D
100
AcDbEntity
  8
0
100
AcDbLine
 62
7
  6
CONTINUOUS
 10
78.4338223272
 20
252.9534068187
 11
73.3220166288
 21
252.9534068187
  0
LINE
  5
27E
100
AcDbEntity
  8
0
100
AcDbLine
 62
7
  6
CONTINUOUS
 10
122.8790347427
 20
253.4401831154
 11
235.6044170376
 21
253.4402464894
  0
LINE
  5
27F
100
AcDbEntity
  8
0
100
AcDbLine
 62
7
  6
CONTINUOUS
 10
69.9338223272
 20
253.9534068187
 11
64.8220166288
 21
253.9534068187
  0
LINE
  5
280
100
AcDbEntity
  8
0
100
AcDbLine
 62
7
  6
CONTINUOUS
 10
61.4338223272
 20
254.9534068187
 11
56.3220166288
 21
254.9534068187
  0
LINE
  5
281
100
AcDbEntity
  8
0
100
AcDbLine
 62
7
  6
CONTINUOUS
 10
52.9338223272
 20
255.9534068187
 11
47.8220166288
 21
255.9534068187
  0
LINE
  5
282
100
AcDbEntity
  8
0
100
AcDbLine
 62
7
  6
CONTINUOUS
 10
343.8705401531
 20
260.2036504495
 11
273.9328875799
 21
260.2034938759
  0
LINE
  5
283
100
AcDbEntity
  8
0
100
AcDbLine
 62
7
  6
CONTINUOUS
 10
235.6022464757
 20
260.2034145735
 11
113.5475984909
 21
260.2034068139
  0
LINE
  5
284
100
AcDbEntity
  8
0
100
AcDbLine
 62
7
  6
CONTINUOUS
 10
113.5697170518
 20
261.6034068187
 11
113.4461133965
 21
261.6034068187
  0
LINE
  5
285
100
AcDbEntity
  8
0
100
AcDbLine
 62
7
  6
CONTINUOUS
 10
113.0774573176
 20
261.6034068187
 11
112.7838187922
 21
261.6034068187
  0
LINE
  5
286
100
AcDbEntity
  8
0
100
AcDbLine
 62
7
  6
CONTINUOUS
 10
128.55063368
 20
261.6034068187
 11
129.8538590528
 21
261.6034068187
  0
LINE
  5
287
100
AcDbEntity
  8
0
100
AcDbLine
 62
7
  6
CONTINUOUS
 10
256.9936277365
 20
261.6034068187
 11
274.0222463664
 21
261.6034068187
  0
LINE
  5
288
100
AcDbEntity
  8
0
100
AcDbLine
 62
7
  6
CONTINUOUS
 10
256.9880955707
 20
261.6034068187
 11
235.0639353147
 21
261.6034068187
  0
LINE
  5
289
100
AcDbEntity
  8
0
100
AcDbLine
 62
7
  6
CONTINUOUS
 10
283.7060946385
 20
230.9653238039
 11
285.0946052422
 21
230.6308006557
  0
LINE
  5
28A
100
AcDbEntity
  8
0
100
AcDbLine
 62
7
  6
CONTINUOUS
 10
285.2971274908
 20
230.5920564666
 11
285.4323202486
 21
230.5534068187
  0
LINE
  5
28B
100
AcDbEntity
  8
0
100
AcDbLine
 62
7
  6
CONTINUOUS
 10
285.1348476448
 20
230.6191313015
 11
285.2918569924
 21
230.5736213514
  0
LINE
  5
28C
100
AcDbEntity
  8
0
100
AcDbLine
 62
7
  6
CONTINUOUS
 10
285.0946052422
 20
230.6308006557
 11
285.291612028
 21
230.573673302
  0
LINE
  5
28D
100
AcDbEntity
  8
0
100
AcDbLine
 62
7
  6
CONTINUOUS
 10
285.4033685985
 20
230.5619815577
 11
285.4323202486
 21
230.5534068187
  0
LINE
  5
28E
100
AcDbEntity
  8
0
100
AcDbLine
 62
7
  6
CONTINUOUS
 10
226.5974738077
 20
225.6876428921
 11
224.5322463664
 21
227.1855192852
  0
LINE
  5
28F
100
AcDbEntity
  8
0
100
AcDbLine
 62
7
  6
CONTINUOUS
 10
164.3322463664
 20
300.3534068187
 11
163.8322463664
 21
301.2194322224
  0
LINE
  5
290
100
AcDbEntity
  8
0
100
AcDbLine
 62
7
  6
CONTINUOUS
 10
188.3143121003
 20
313.8534068187
 11
188.3143121003
 21
314.9991932025
  0
LINE
  5
291
100
AcDbEntity
  8
0
100
AcDbLine
 62
7
  6
CONTINUOUS
 10
189.2128791979
 20
313.8534068187
 11
189.2128791979
 21
314.9991932025
  0
LINE
  5
292
100
AcDbEntity
  8
0
100
AcDbLine
 62
7
  6
CONTINUOUS
 10
192.2810148974
 20
296.6534068187
 11
192.2810148974
 21
300.3534068187
  0
LINE
  5
293
100
AcDbEntity
  8
0
100
AcDbLine
 62
7
  6
CONTINUOUS
 10
192.3322463664
 20
293.7767518213
 11
192.3322463664
 21
296.6534068187
  0
LINE
  5
294
100
AcDbEntity
  8
0
100
AcDbLine
 62
7
  6
CONTINUOUS
 10
193.8322463664
 20
301.2194322224
 11
193.8322463664
 21
314.9991932025
  0
LINE
  5
295
100
AcDbEntity
  8
0
100
AcDbLine
 62
7
  6
CONTINUOUS
 10
112.7838223272
 20
262.8634068187
 11
113.1771942808
 21
262.8634068187
  0
LINE
  5
296
100
AcDbEntity
  8
0
100
AcDbLine
 62
7
  6
CONTINUOUS
 10
113.4894895354
 20
262.8634068187
 11
348.8722463664
 21
262.8634068187
  0
LINE
  5
297
100
AcDbEntity
  8
0
100
AcDbLine
 62
7
  6
CONTINUOUS
 10
52.9338223272
 20
267.2534068187
 11
47.8220166288
 21
267.2534068187
  0
LINE
  5
298
100
AcDbEntity
  8
0
100
AcDbLine
 62
7
  6
CONTINUOUS
 10
61.4338223272
 20
268.2534068187
 11
56.3220166288
 21
268.2534068187
  0
LINE
  5
299
100
AcDbEntity
  8
0
100
AcDbLine
 62
7
  6
CONTINUOUS
 10
274.8389038154
 20
269.224454664
 11
343.8438083441
 21
269.224454664
  0
LINE
  5
29A
100
AcDbEntity
  8
0
100
AcDbLine
 62
7
  6
CONTINUOUS
 10
69.9338223272
 20
269.2534068187
 11
64.8220166288
 21
269.2534068187
  0
LINE
  5
29B
100
AcDbEntity
  8
0
100
AcDbLine
 62
7
  6
CONTINUOUS
 10
78.4338223272
 20
270.2534068187
 11
73.3220166288
 21
270.2534068187
  0
LINE
  5
29C
100
AcDbEntity
  8
0
100
AcDbLine
 62
7
  6
CONTINUOUS
 10
113.1267465185
 20
272.1034068187
 11
112.9838223272
 21
272.1034068187
  0
LINE
  5
29D
100
AcDbEntity
  8
0
100
AcDbLine
 62
7
  6
CONTINUOUS
 10
331.706093796
 20
230.9653239694
 11
333.094604889
 21
230.6308007562
  0
LINE
  5
29E
100
AcDbEntity
  8
0
100
AcDbLine
 62
7
  6
CONTINUOUS
 10
333.2971274908
 20
230.5920564666
 11
333.4323202486
 21
230.5534068187
  0
LINE
  5
29F
100
AcDbEntity
  8
0
100
AcDbLine
 62
7
  6
CONTINUOUS
 10
333.1348406343
 20
230.6191333328
 11
333.2918569924
 21
230.5736213514
  0
LINE
  5
2A0
100
AcDbEntity
  8
0
100
AcDbLine
 62
7
  6
CONTINUOUS
 10
333.094604889
 20
230.6308007562
 11
333.2916120281
 21
230.573673302
  0
LINE
  5
2A1
100
AcDbEntity
  8
0
100
AcDbLine
 62
7
  6
CONTINUOUS
 10
333.4033685985
 20
230.5619815577
 11
333.4323202486
 21
230.5534068187
  0
LINE
  5
2A2
100
AcDbEntity
  8
0
100
AcDbLine
 62
7
  6
CONTINUOUS
 10
90.4715178653
 20
273.4018752506
 11
90.4962217419
 21
273.4034068187
  0
LINE
  5
2A3
100
AcDbEntity
  8
0
100
AcDbLine
 62
7
  6
CONTINUOUS
 10
109.0838223272
 20
273.4034068187
 11
90.4962217419
 21
273.4034068187
  0
LINE
  5
2A4
100
AcDbEntity
  8
0
100
AcDbLine
 62
7
  6
CONTINUOUS
 10
339.0019794967
 20
275.6034068187
 11
269.9553549171
 21
275.6034068187
  0
LINE
  5
2A5
100
AcDbEntity
  8
0
100
AcDbLine
 62
7
  6
CONTINUOUS
 10
112.5838223272
 20
276.6034068187
 11
109.4838223272
 21
276.6034068187
  0
LWPOLYLINE
  5
2A6
100
AcDbEntity
  8
0
100
AcDbPolyline
 62
7
  6
CONTINUOUS
 90
4
 70
0
 10
271.1361849895
 20
275.6034068977
 10
270.9241611503
 20
275.6049787048
 10
270.309129399
 20
275.6253639899
 10
269.9553549171
 20
275.6468223998
  0
LINE
  5
2A7
100
AcDbEntity
  8
0
100
AcDbLine
 62
7
  6
CONTINUOUS
 10
270.3103402448
 20
275.6253238563
 11
269.9550477878
 21
275.6468484086
  0
LWPOLYLINE
  5
2A8
100
AcDbEntity
  8
0
100
AcDbPolyline
 62
7
  6
CONTINUOUS
 90
10
 70
0
 10
269.9534019254
 20
275.646957646
 10
267.6987745374
 20
275.8748013909
 10
263.3755160346
 20
276.5130769061
 10
260.5176390492
 20
277.0829019074
 10
258.5982839345
 20
277.6202330316
 10
257.7970278449
 20
277.9078113823
 10
256.4419138033
 20
278.5244459002
 10
255.3665616236
 20
279.2090812291
 10
254.578231804
 20
279.9865463867
 10
254.4454287442
 20
280.1825392473
  0
LINE
  5
2A9
100
AcDbEntity
  8
0
100
AcDbLine
 62
7
  6
CONTINUOUS
 10
79.9485432531
 20
272.0920535162
 11
90.4715178653
 21
273.4018752506
  0
LINE
  5
2AA
100
AcDbEntity
  8
0
100
AcDbLine
 62
7
  6
CONTINUOUS
 10
162.4100303327
 20
298.1686022455
 11
247.735950377
 21
285.644841381
  0
LINE
  5
2AB
100
AcDbEntity
  8
0
100
AcDbLine
 62
7
  6
CONTINUOUS
 10
116.5513366042
 20
286.8756932668
 11
115.1831930216
 21
286.5695827734
  0
LINE
  5
2AC
100
AcDbEntity
  8
0
100
AcDbLine
 62
7
  6
CONTINUOUS
 10
180.0072463664
 20
296.6534068187
 11
192.3321039605
 21
296.6534068187
  0
LINE
  5
2AD
100
AcDbEntity
  8
0
100
AcDbLine
 62
7
  6
CONTINUOUS
 10
159.9668678978
 20
297.4971961326
 11
161.2482724603
 21
297.4971961326
  0
LINE
  5
2AE
100
AcDbEntity
  8
0
100
AcDbLine
 62
7
  6
CONTINUOUS
 10
161.2482724603
 20
298.2534068187
 11
159.9668678978
 21
298.2534068187
  0
LINE
  5
2AF
100
AcDbEntity
  8
0
100
AcDbLine
 62
7
  6
CONTINUOUS
 10
193.332230522
 20
300.3534068187
 11
164.3322622109
 21
300.3534068187
  0
LINE
  5
2B0
100
AcDbEntity
  8
0
100
AcDbLine
 62
7
  6
CONTINUOUS
 10
193.8322463664
 20
301.2194322224
 11
163.8322463664
 21
301.2194322224
  0
LINE
  5
2B1
100
AcDbEntity
  8
0
100
AcDbLine
 62
7
  6
CONTINUOUS
 10
248.7846936867
 20
285.3879177037
 11
247.7361843693
 21
285.644807034
  0
LINE
  5
2B2
100
AcDbEntity
  8
0
100
AcDbLine
 62
7
  6
CONTINUOUS
 10
250.3543534158
 20
284.728790674
 11
248.7846936867
 21
285.3879177037
  0
LINE
  5
2B3
100
AcDbEntity
  8
0
100
AcDbLine
 62
7
  6
CONTINUOUS
 10
256.5740067544
 20
227.7412753625
 11
256.2048033001
 21
228.3228804805
  0
LINE
  5
2B4
100
AcDbEntity
  8
0
100
AcDbLine
 62
7
  6
CONTINUOUS
 10
236.1856930035
 20
230.8047619982
 11
236.6036992762
 21
228.8582871084
  0
LINE
  5
2B5
100
AcDbEntity
  8
0
100
AcDbLine
 62
7
  6
CONTINUOUS
 10
235.0639342089
 20
262.8633755453
 11
235.0639353147
 21
261.6034068187
  0
LINE
  5
2B6
100
AcDbEntity
  8
0
100
AcDbLine
 62
7
  6
CONTINUOUS
 10
235.6022421914
 20
261.6034068187
 11
235.6033272341
 21
245.2522926032
  0
LINE
  5
2B7
100
AcDbEntity
  8
0
100
AcDbLine
 62
7
  6
CONTINUOUS
 10
235.6044170376
 20
253.4402464894
 11
235.6033267823
 21
250.7128896562
  0
LINE
  5
2B8
100
AcDbEntity
  8
0
100
AcDbLine
 62
7
  6
CONTINUOUS
 10
235.6033267823
 20
247.9835716935
 11
235.602236527
 21
245.2522926014
  0
LINE
  5
2B9
100
AcDbEntity
  8
0
100
AcDbLine
 62
7
  6
CONTINUOUS
 10
219.5182707097
 20
235.7281082987
 11
215.3129653667
 21
228.4443057832
  0
LINE
  5
2BA
100
AcDbEntity
  8
0
100
AcDbLine
 62
7
  6
CONTINUOUS
 10
251.4109347257
 20
283.7569963271
 11
251.5815092893
 21
284.0196030261
  0
LINE
  5
2BB
100
AcDbEntity
  8
0
100
AcDbLine
 62
7
  6
CONTINUOUS
 10
158.4374923324
 20
297.3271870878
 11
122.9397322245
 21
289.3376627929
  0
LINE
  5
2BC
100
AcDbEntity
  8
0
100
AcDbLine
 62
7
  6
CONTINUOUS
 10
117.4754721653
 20
288.9379405686
 11
158.2189974155
 21
298.0601314057
  0
LINE
  5
2BD
100
AcDbEntity
  8
0
100
AcDbLine
 62
7
  6
CONTINUOUS
 10
163.8322465537
 20
313.8534068187
 11
163.8442463664
 21
313.8534068187
  0
LINE
  5
2BE
100
AcDbEntity
  8
0
100
AcDbLine
 62
7
  6
CONTINUOUS
 10
164.0255380595
 20
313.8534068187
 11
164.2647317277
 21
313.8534068187
  0
LINE
  5
2BF
100
AcDbEntity
  8
0
100
AcDbLine
 62
7
  6
CONTINUOUS
 10
183.0191281737
 20
313.8534068187
 11
184.1568889395
 21
313.8534068187
  0
LINE
  5
2C0
100
AcDbEntity
  8
0
100
AcDbLine
 62
7
  6
CONTINUOUS
 10
185.8067350576
 20
313.8534068187
 11
186.8457576753
 21
313.8534068187
  0
LINE
  5
2C1
100
AcDbEntity
  8
0
100
AcDbLine
 62
7
  6
CONTINUOUS
 10
188.3143121003
 20
313.8534068187
 11
189.2128791979
 21
313.8534068187
  0
LINE
  5
2C2
100
AcDbEntity
  8
0
100
AcDbLine
 62
7
  6
CONTINUOUS
 10
163.8442463664
 20
314.9991932025
 11
164.0255380595
 21
314.9991932025
  0
LINE
  5
2C3
100
AcDbEntity
  8
0
100
AcDbLine
 62
7
  6
CONTINUOUS
 10
164.2647317277
 20
314.9991932025
 11
183.0191281737
 21
314.9991932025
  0
LINE
  5
2C4
100
AcDbEntity
  8
0
100
AcDbLine
 62
7
  6
CONTINUOUS
 10
184.1568889395
 20
314.9991932025
 11
185.8067350576
 21
314.9991932025
  0
LINE
  5
2C5
100
AcDbEntity
  8
0
100
AcDbLine
 62
7
  6
CONTINUOUS
 10
186.8457576753
 20
314.9991932025
 11
188.3143121003
 21
314.9991932025
  0
LINE
  5
2C6
100
AcDbEntity
  8
0
100
AcDbLine
 62
7
  6
CONTINUOUS
 10
189.2128791979
 20
314.9991932025
 11
193.8322463664
 21
314.9991932025
  0
LWPOLYLINE
  5
2C7
100
AcDbEntity
  8
0
100
AcDbPolyline
 62
7
  6
CONTINUOUS
 90
4
 70
0
 10
251.5814971945
 20
284.0196202317
 10
250.3202004998
 20
284.7459315214
 10
248.7461447649
 20
285.4004329176
 10
247.7360946715
 20
285.6448201989
  0
LINE
  5
2C8
100
AcDbEntity
  8
0
100
AcDbLine
 62
7
  6
CONTINUOUS
 10
251.581505007
 20
284.0196090434
 11
250.3543534158
 21
284.728790674
  0
LINE
  5
2C9
100
AcDbEntity
  8
0
100
AcDbLine
 62
7
  6
CONTINUOUS
 10
226.5977003156
 20
225.6874396155
 11
227.7938543144
 21
227.0324853159
  0
LINE
  5
2CA
100
AcDbEntity
  8
0
100
AcDbLine
 62
7
  6
CONTINUOUS
 10
165.4498755468
 20
316.9623010846
 11
192.2145732628
 21
316.9623096367
  0
LINE
  5
2CB
100
AcDbEntity
  8
0
100
AcDbLine
 62
7
  6
CONTINUOUS
 10
187.8322463658
 20
317.6724243859
 11
169.832246419
 21
317.6724243859
  0
LINE
  5
2CC
100
AcDbEntity
  8
0
100
AcDbLine
 62
7
  6
CONTINUOUS
 10
171.8322463664
 20
317.9025274161
 11
185.8322463664
 21
317.9025274161
  0
LWPOLYLINE
  5
2CD
100
AcDbEntity
  8
0
100
AcDbPolyline
 62
7
  6
CONTINUOUS
 90
3
 70
0
 10
251.7537051163
 20
283.8889206607
 10
251.652199984
 20
283.9704933856
 10
251.5815009118
 20
284.0196117683
  0
LINE
  5
2CE
100
AcDbEntity
  8
0
100
AcDbLine
 62
7
  6
CONTINUOUS
 10
252.2029065664
 20
283.456751654
 11
252.0911438665
 21
283.5772484929
  0
LWPOLYLINE
  5
2CF
100
AcDbEntity
  8
0
100
AcDbPolyline
 62
7
  6
CONTINUOUS
 90
4
 70
0
 10
252.4725559902
 20
283.1223251085
 10
252.1117533686
 20
283.5574935091
 10
251.8126954533
 20
283.8441517828
 10
251.5815124419
 20
284.0196009251
  0
LWPOLYLINE
  5
2D0
100
AcDbEntity
  8
0
100
AcDbPolyline
 62
7
  6
CONTINUOUS
 90
3
 70
0
 10
252.4693708564
 20
283.1265954147
 10
252.3451899237
 20
283.2868231526
 10
252.2029065664
 20
283.456751654
  0
LINE
  5
2D1
100
AcDbEntity
  8
0
100
AcDbLine
 62
7
  6
CONTINUOUS
 10
252.6272902619
 20
282.9144636045
 11
252.4702242136
 21
283.1254337222
  0
LINE
  5
2D2
100
AcDbEntity
  8
0
100
AcDbLine
 62
7
  6
CONTINUOUS
 10
253.6340881398
 20
281.4712242197
 11
252.6248390741
 21
282.9179734798
  0
LINE
  5
2D3
100
AcDbEntity
  8
0
100
AcDbLine
 62
7
  6
CONTINUOUS
 10
254.4454727675
 20
280.1825504066
 11
253.6238699066
 21
281.4874532301
  0
LINE
  5
2D4
100
AcDbEntity
  8
0
100
AcDbLine
 62
7
  6
CONTINUOUS
 10
254.1515052676
 20
234.0303191924
 11
254.1508727418
 21
261.603406763
  0
LINE
  5
2D5
100
AcDbEntity
  8
0
100
AcDbLine
 62
7
  6
CONTINUOUS
 10
254.5431274993
 20
261.6034068187
 11
254.5431274993
 21
262.8634068187
  0
LINE
  5
2D6
100
AcDbEntity
  8
0
100
AcDbLine
 62
7
  6
CONTINUOUS
 10
276.2321724815
 20
230.5534068187
 11
276.2603146288
 21
230.5619988652
  0
LINE
  5
2D7
100
AcDbEntity
  8
0
100
AcDbLine
 62
7
  6
CONTINUOUS
 10
276.3726370636
 20
230.5736216387
 11
276.5717924354
 21
230.6313479884
  0
LINE
  5
2D8
100
AcDbEntity
  8
0
100
AcDbLine
 62
7
  6
CONTINUOUS
 10
276.2321724815
 20
230.5534068187
 11
276.3676060111
 21
230.5921206509
  0
LINE
  5
2D9
100
AcDbEntity
  8
0
100
AcDbLine
 62
7
  6
CONTINUOUS
 10
253.2058244838
 20
231.9652136532
 11
250.8725775706
 21
227.9239114529
  0
LINE
  5
2DA
100
AcDbEntity
  8
0
100
AcDbLine
 62
7
  6
CONTINUOUS
 10
324.3726370636
 20
230.5736216387
 11
324.5717927314
 21
230.6313480725
  0
LINE
  5
2DB
100
AcDbEntity
  8
0
100
AcDbLine
 62
7
  6
CONTINUOUS
 10
324.2321724815
 20
230.5534068187
 11
324.3676060111
 21
230.5921206509
  0
LINE
  5
2DC
100
AcDbEntity
  8
0
100
AcDbLine
 62
7
  6
CONTINUOUS
 10
273.9315261927
 20
238.9157086212
 11
273.9315261927
 21
245.2855230308
  0
LINE
  5
2DD
100
AcDbEntity
  8
0
100
AcDbLine
 62
7
  6
CONTINUOUS
 10
274.0222463664
 20
261.6034068187
 11
274.0222412079
 21
262.8634286498
  0
LINE
  5
2DE
100
AcDbEntity
  8
0
100
AcDbLine
 62
7
  6
CONTINUOUS
 10
273.9332070096
 20
255.2864091425
 11
273.9322473832
 21
261.6034068187
  0
LINE
  5
2DF
100
AcDbEntity
  8
0
100
AcDbLine
 62
7
  6
CONTINUOUS
 10
324.2321724815
 20
230.5534068187
 11
324.2603146288
 21
230.5619988652
  0
LINE
  5
2E0
100
AcDbEntity
  8
0
100
AcDbLine
 62
7
  6
CONTINUOUS
 10
348.8722463664
 20
260.2034065424
 11
348.8722463664
 21
262.8634068187
  0
LINE
  5
2E1
100
AcDbEntity
  8
0
100
AcDbLine
 62
7
  6
CONTINUOUS
 10
343.8705401531
 20
260.2036504495
 11
343.8716901616
 21
269.2119914124
  0
LINE
  5
2E2
100
AcDbEntity
  8
0
100
AcDbLine
 62
7
  6
CONTINUOUS
 10
342.943309298
 20
230.5534068187
 11
343.1593351082
 21
238.9157086212
  0
LINE
  5
2E3
100
AcDbEntity
  8
0
100
AcDbLine
 62
7
  6
CONTINUOUS
 10
343.1594038021
 20
238.9157086212
 11
343.8705375436
 21
260.2035721627
  0
LINE
  5
2E4
100
AcDbEntity
  8
0
100
AcDbLine
 62
7
  6
CONTINUOUS
 10
343.5024056496
 20
249.2194683455
 11
343.8705375436
 21
260.2035721627
  0
LINE
  5
2E5
100
AcDbEntity
  8
0
100
AcDbLine
 62
7
  6
CONTINUOUS
 10
348.8722463581
 20
260.2034065958
 11
347.9398005294
 21
235.366135736
  0
LINE
  5
2E6
100
AcDbEntity
  8
0
100
AcDbLine
 62
7
  6
CONTINUOUS
 10
347.2364527113
 20
269.2113993793
 11
348.8722463664
 21
262.8634068187
  0
ARC
  5
2E7
100
AcDbEntity
  8
0
100
AcDbCircle
 62
7
  6
CONTINUOUS
 10
-2201.1996825362
 20
256.7630390598
 40
2334.9024375412
100
AcDbArc
 50
359.3514078363
 51
359.4682569251
  0
ARC
  5
2E8
100
AcDbEntity
  8
0
100
AcDbCircle
 62
7
  6
CONTINUOUS
 10
-267.0224664011
 20
253.7704249599
 40
540.9577976175
100
AcDbArc
 50
359.6291019283
 51
0.1605663317
  0
ARC
  5
2E9
100
AcDbEntity
  8
0
100
AcDbCircle
 62
7
  6
CONTINUOUS
 10
-177.3176413648
 20
252.2105026279
 40
412.9783501744
100
AcDbArc
 50
358.3442673025
 51
359.0345867009
  0
ARC
  5
2EA
100
AcDbEntity
  8
0
100
AcDbCircle
 62
7
  6
CONTINUOUS
 10
-249.2482894101
 20
260.2373325165
 40
372.1893957976
100
AcDbArc
 50
358.953576288
 51
359.994777392
  0
ARC
  5
2EB
100
AcDbEntity
  8
0
100
AcDbCircle
 62
7
  6
CONTINUOUS
 10
-94.8173184237
 20
260.2385809895
 40
208.3649324592
100
AcDbArc
 50
358.5413125137
 51
359.9488815073
  0
ARC
  5
2EC
100
AcDbEntity
  8
0
100
AcDbCircle
 62
7
  6
CONTINUOUS
 10
158.6938303413
 20
202.6191884623
 40
94.029814879
100
AcDbArc
 50
114.2487569731
 51
114.4241989969
  0
ARC
  5
2ED
100
AcDbEntity
  8
0
100
AcDbCircle
 62
7
  6
CONTINUOUS
 10
137.3253523787
 20
236.6034068187
 40
12.0
100
AcDbArc
 50
224.9999999974
 51
270.0
  0
ARC
  5
2EE
100
AcDbEntity
  8
0
100
AcDbCircle
 62
7
  6
CONTINUOUS
 10
80.1338223272
 20
252.6032733608
 40
1.5
100
AcDbArc
 50
180.0
 51
262.9047399607
  0
ARC
  5
2EF
100
AcDbEntity
  8
0
100
AcDbCircle
 62
7
  6
CONTINUOUS
 10
46.1338223272
 20
255.9534068187
 40
1.5
100
AcDbArc
 50
180.0
 51
353.2436729694
  0
ARC
  5
2F0
100
AcDbEntity
  8
0
100
AcDbCircle
 62
7
  6
CONTINUOUS
 10
54.6338223272
 20
254.9534068187
 40
1.5
100
AcDbArc
 50
180.0
 51
353.2436729694
  0
ARC
  5
2F1
100
AcDbEntity
  8
0
100
AcDbCircle
 62
7
  6
CONTINUOUS
 10
71.6338223272
 20
252.9534068187
 40
1.5
100
AcDbArc
 50
180.0
 51
353.2436729694
  0
ARC
  5
2F2
100
AcDbEntity
  8
0
100
AcDbCircle
 62
7
  6
CONTINUOUS
 10
63.1338223272
 20
253.9534068187
 40
1.5
100
AcDbArc
 50
180.0
 51
353.2436729694
  0
ARC
  5
2F3
100
AcDbEntity
  8
0
100
AcDbCircle
 62
7
  6
CONTINUOUS
 10
47.8220166288
 20
255.7534068187
 40
0.2
100
AcDbArc
 50
90.0
 51
173.2436729691
  0
ARC
  5
2F4
100
AcDbEntity
  8
0
100
AcDbCircle
 62
7
  6
CONTINUOUS
 10
64.8220166288
 20
253.7534068187
 40
0.2
100
AcDbArc
 50
90.0
 51
173.2436729691
  0
ARC
  5
2F5
100
AcDbEntity
  8
0
100
AcDbCircle
 62
7
  6
CONTINUOUS
 10
73.3220166288
 20
252.7534068187
 40
0.2
100
AcDbArc
 50
90.0
 51
173.2436729691
  0
ARC
  5
2F6
100
AcDbEntity
  8
0
100
AcDbCircle
 62
7
  6
CONTINUOUS
 10
52.9338223272
 20
255.7534068187
 40
0.2
100
AcDbArc
 50
0.0
 51
90.0
  0
ARC
  5
2F7
100
AcDbEntity
  8
0
100
AcDbCircle
 62
7
  6
CONTINUOUS
 10
78.4338223272
 20
252.7534068187
 40
0.2
100
AcDbArc
 50
0.0
 51
90.0
  0
ARC
  5
2F8
100
AcDbEntity
  8
0
100
AcDbCircle
 62
7
  6
CONTINUOUS
 10
56.3220166288
 20
254.7534068187
 40
0.2
100
AcDbArc
 50
90.0
 51
173.2436729691
  0
ARC
  5
2F9
100
AcDbEntity
  8
0
100
AcDbCircle
 62
7
  6
CONTINUOUS
 10
61.4338223272
 20
254.7534068187
 40
0.2
100
AcDbArc
 50
0.0
 51
90.0
  0
ARC
  5
2FA
100
AcDbEntity
  8
0
100
AcDbCircle
 62
7
  6
CONTINUOUS
 10
69.9338223272
 20
253.7534068187
 40
0.2
100
AcDbArc
 50
0.0
 51
90.0
  0
ARC
  5
2FB
100
AcDbEntity
  8
0
100
AcDbCircle
 62
7
  6
CONTINUOUS
 10
46.1338223272
 20
267.2534068187
 40
1.5
100
AcDbArc
 50
6.7563270306
 51
180.0
  0
ARC
  5
2FC
100
AcDbEntity
  8
0
100
AcDbCircle
 62
7
  6
CONTINUOUS
 10
80.1338223272
 20
270.6035402765
 40
1.5
100
AcDbArc
 50
97.0952600393
 51
180.0
  0
ARC
  5
2FD
100
AcDbEntity
  8
0
100
AcDbCircle
 62
7
  6
CONTINUOUS
 10
54.6338223272
 20
268.2534068187
 40
1.5
100
AcDbArc
 50
6.7563270306
 51
180.0
  0
ARC
  5
2FE
100
AcDbEntity
  8
0
100
AcDbCircle
 62
7
  6
CONTINUOUS
 10
71.6338223272
 20
270.2534068187
 40
1.5
100
AcDbArc
 50
6.7563270306
 51
180.0
  0
ARC
  5
2FF
100
AcDbEntity
  8
0
100
AcDbCircle
 62
7
  6
CONTINUOUS
 10
63.1338223272
 20
269.2534068187
 40
1.5
100
AcDbArc
 50
6.7563270306
 51
180.0
  0
ARC
  5
300
100
AcDbEntity
  8
0
100
AcDbCircle
 62
7
  6
CONTINUOUS
 10
52.9338223272
 20
267.4534068187
 40
0.2
100
AcDbArc
 50
270.0
 51
360.0
  0
ARC
  5
301
100
AcDbEntity
  8
0
100
AcDbCircle
 62
7
  6
CONTINUOUS
 10
61.4338223272
 20
268.4534068187
 40
0.2
100
AcDbArc
 50
270.0
 51
360.0
  0
ARC
  5
302
100
AcDbEntity
  8
0
100
AcDbCircle
 62
7
  6
CONTINUOUS
 10
69.9338223272
 20
269.4534068187
 40
0.2
100
AcDbArc
 50
270.0
 51
360.0
  0
ARC
  5
303
100
AcDbEntity
  8
0
100
AcDbCircle
 62
7
  6
CONTINUOUS
 10
78.4338223272
 20
270.4534068187
 40
0.2
100
AcDbArc
 50
270.0
 51
360.0
  0
ARC
  5
304
100
AcDbEntity
  8
0
100
AcDbCircle
 62
7
  6
CONTINUOUS
 10
47.8220166288
 20
267.4534068187
 40
0.2
100
AcDbArc
 50
186.7563270309
 51
270.0
  0
ARC
  5
305
100
AcDbEntity
  8
0
100
AcDbCircle
 62
7
  6
CONTINUOUS
 10
56.3220166288
 20
268.4534068187
 40
0.2
100
AcDbArc
 50
186.7563270309
 51
270.0
  0
ARC
  5
306
100
AcDbEntity
  8
0
100
AcDbCircle
 62
7
  6
CONTINUOUS
 10
73.3220166288
 20
270.4534068187
 40
0.2
100
AcDbArc
 50
186.7563270309
 51
270.0
  0
ARC
  5
307
100
AcDbEntity
  8
0
100
AcDbCircle
 62
7
  6
CONTINUOUS
 10
64.8220166288
 20
269.4534068187
 40
0.2
100
AcDbArc
 50
186.7563270309
 51
270.0
  0
ARC
  5
308
100
AcDbEntity
  8
0
100
AcDbCircle
 62
7
  6
CONTINUOUS
 10
121.7026876791
 20
248.6904364864
 40
9.4999597216
100
AcDbArc
 50
192.8752437191
 51
224.9967214749
  0
ARC
  5
309
100
AcDbEntity
  8
0
100
AcDbCircle
 62
7
  6
CONTINUOUS
 10
122.267787661
 20
247.7854365898
 40
9.2595567314
100
AcDbArc
 50
218.7109484603
 51
224.9890412025
  0
ARC
  5
30A
100
AcDbEntity
  8
0
100
AcDbCircle
 62
7
  6
CONTINUOUS
 10
109.0838223272
 20
249.6034068187
 40
0.2
100
AcDbArc
 50
0.0
 51
90.0
  0
ARC
  5
30B
100
AcDbEntity
  8
0
100
AcDbCircle
 62
7
  6
CONTINUOUS
 10
109.4838223272
 20
246.8034068187
 40
0.2
100
AcDbArc
 50
180.0
 51
270.0
  0
ARC
  5
30C
100
AcDbEntity
  8
0
100
AcDbCircle
 62
7
  6
CONTINUOUS
 10
126.4428693083
 20
270.5490093397
 40
127.5619784052
100
AcDbArc
 50
4.1104957657
 51
4.3523060279
  0
ARC
  5
30D
100
AcDbEntity
  8
0
100
AcDbCircle
 62
7
  6
CONTINUOUS
 10
126.8018704821
 20
272.1944525098
 40
17.5728672361
100
AcDbArc
 50
102.6960230895
 51
103.665893479
  0
ARC
  5
30E
100
AcDbEntity
  8
0
100
AcDbCircle
 62
7
  6
CONTINUOUS
 10
126.2201075587
 20
274.5752457924
 40
15.1220274628
100
AcDbArc
 50
103.6552561414
 51
105.1868214064
  0
ARC
  5
30F
100
AcDbEntity
  8
0
100
AcDbCircle
 62
7
  6
CONTINUOUS
 10
123.2193641435
 20
261.6055506881
 40
9.6496473299
100
AcDbArc
 50
177.0510394435
 51
180.0127294466
  0
ARC
  5
310
100
AcDbEntity
  8
0
100
AcDbCircle
 62
7
  6
CONTINUOUS
 10
129.2022463664
 20
262.1034068187
 40
0.5
100
AcDbArc
 50
15.0000000262
 51
164.9999999714
  0
ARC
  5
311
100
AcDbEntity
  8
0
100
AcDbCircle
 62
7
  6
CONTINUOUS
 10
112.9838223272
 20
272.3034068187
 40
0.2
100
AcDbArc
 50
180.0
 51
270.0
  0
ARC
  5
312
100
AcDbEntity
  8
0
100
AcDbCircle
 62
7
  6
CONTINUOUS
 10
112.5838223272
 20
276.4034068187
 40
0.2
100
AcDbArc
 50
0.0
 51
90.0
  0
ARC
  5
313
100
AcDbEntity
  8
0
100
AcDbCircle
 62
7
  6
CONTINUOUS
 10
109.4838223272
 20
276.4034068187
 40
0.2
100
AcDbArc
 50
90.0
 51
180.0
  0
ARC
  5
314
100
AcDbEntity
  8
0
100
AcDbCircle
 62
7
  6
CONTINUOUS
 10
109.0838223272
 20
273.6034068187
 40
0.2
100
AcDbArc
 50
270.0
 51
360.0
  0
ARC
  5
315
100
AcDbEntity
  8
0
100
AcDbCircle
 62
7
  6
CONTINUOUS
 10
-207.1620935223
 20
279.6470246724
 40
320.3785918094
100
AcDbArc
 50
357.0268987113
 51
358.6891241403
  0
ARC
  5
316
100
AcDbEntity
  8
0
100
AcDbCircle
 62
7
  6
CONTINUOUS
 10
124.2500778824
 20
313.3742453021
 40
59.9497223396
100
AcDbArc
 50
267.4403571244
 51
268.6895709565
  0
ARC
  5
317
100
AcDbEntity
  8
0
100
AcDbCircle
 62
7
  6
CONTINUOUS
 10
159.9668678978
 20
290.2534068187
 40
8.0
100
AcDbArc
 50
90.0
 51
102.62
  0
ARC
  5
318
100
AcDbEntity
  8
0
100
AcDbCircle
 62
7
  6
CONTINUOUS
 10
161.2482724603
 20
290.2534068187
 40
8.0
100
AcDbArc
 50
81.6499981474
 51
90.0
  0
ARC
  5
319
100
AcDbEntity
  8
0
100
AcDbCircle
 62
7
  6
CONTINUOUS
 10
159.9693642274
 20
290.5107193192
 40
6.9864772484
100
AcDbArc
 50
90.0202195261
 51
102.665714962
  0
ARC
  5
31A
100
AcDbEntity
  8
0
100
AcDbCircle
 62
7
  6
CONTINUOUS
 10
161.2477289052
 20
290.523815487
 40
6.97338126
100
AcDbArc
 50
81.6133519305
 51
89.9955339587
  0
ARC
  5
31B
100
AcDbEntity
  8
0
100
AcDbCircle
 62
7
  6
CONTINUOUS
 10
118.1306629016
 20
286.0103620581
 40
2.9999989829
100
AcDbArc
 50
102.6215085775
 51
169.2610322151
  0
ARC
  5
31C
100
AcDbEntity
  8
0
100
AcDbCircle
 62
7
  6
CONTINUOUS
 10
119.4740136698
 20
286.3435828585
 40
2.9714469726
100
AcDbArc
 50
122.189921356
 51
128.7032306375
  0
ARC
  5
31D
100
AcDbEntity
  8
0
100
AcDbCircle
 62
7
  6
CONTINUOUS
 10
119.4499851563
 20
286.3777914123
 40
2.9296968347
100
AcDbArc
 50
102.6403494051
 51
122.1486331949
  0
ARC
  5
31E
100
AcDbEntity
  8
0
100
AcDbCircle
 62
7
  6
CONTINUOUS
 10
165.9146183282
 20
314.9759385027
 40
2.0746946318
100
AcDbArc
 50
138.9126464945
 51
140.0325053857
  0
ARC
  5
31F
100
AcDbEntity
  8
0
100
AcDbCircle
 62
7
  6
CONTINUOUS
 10
165.9115762147
 20
314.9785663711
 40
2.0706747067
100
AcDbArc
 50
136.6287205837
 51
138.9121302418
  0
ARC
  5
320
100
AcDbEntity
  8
0
100
AcDbCircle
 62
7
  6
CONTINUOUS
 10
165.897874327
 20
314.9913351402
 40
2.0519459381
100
AcDbArc
 50
136.3998705935
 51
136.6251592277
  0
ARC
  5
321
100
AcDbEntity
  8
0
100
AcDbCircle
 62
7
  6
CONTINUOUS
 10
165.8322296125
 20
314.9992069973
 40
1.999979881
100
AcDbArc
 50
101.0214612697
 51
134.4268968656
  0
ARC
  5
322
100
AcDbEntity
  8
0
100
AcDbCircle
 62
7
  6
CONTINUOUS
 10
607.0951178209
 20
252.0188140178
 40
371.5545084179
100
AcDbArc
 50
181.042864128
 51
181.8083775397
  0
ARC
  5
323
100
AcDbEntity
  8
0
100
AcDbCircle
 62
7
  6
CONTINUOUS
 10
306.2507741413
 20
250.9390874707
 40
193.0733441934
100
AcDbArc
 50
169.2730200177
 51
176.37823743
  0
ARC
  5
324
100
AcDbEntity
  8
0
100
AcDbCircle
 62
7
  6
CONTINUOUS
 10
178.8322463664
 20
248.2534068187
 40
70.0
100
AcDbArc
 50
78.9785387415
 51
82.6129515642
  0
ARC
  5
325
100
AcDbEntity
  8
0
100
AcDbCircle
 62
7
  6
CONTINUOUS
 10
178.8322463664
 20
248.2534068187
 40
70.0
100
AcDbArc
 50
97.3870483937
 51
101.0214612685
  0
ARC
  5
326
100
AcDbEntity
  8
0
100
AcDbCircle
 62
7
  6
CONTINUOUS
 10
178.8322463664
 20
248.2534068187
 40
70.0
100
AcDbArc
 50
84.2608295518
 51
95.7391704601
  0
ARC
  5
327
100
AcDbEntity
  8
0
100
AcDbCircle
 62
7
  6
CONTINUOUS
 10
271.4770026931
 20
169.0138018723
 40
61.2023375007
100
AcDbArc
 50
90.625001037
 51
92.6248644444
  0
ARC
  5
328
100
AcDbEntity
  8
0
100
AcDbCircle
 62
7
  6
CONTINUOUS
 10
281.6644105023
 20
212.7655114673
 40
18.5989036213
100
AcDbArc
 50
104.9195557852
 51
106.8914803436
  0
ARC
  5
329
100
AcDbEntity
  8
0
100
AcDbCircle
 62
7
  6
CONTINUOUS
 10
329.6644105022
 20
212.7655114678
 40
18.5989036208
100
AcDbArc
 50
104.9195557851
 51
106.8914803436
  0
ARC
  5
32A
100
AcDbEntity
  8
0
100
AcDbCircle
 62
7
  6
CONTINUOUS
 10
280.4087350274
 20
214.2243575874
 40
17.0840370377
100
AcDbArc
 50
73.0008959001
 51
75.1415959951
  0
ARC
  5
32B
100
AcDbEntity
  8
0
100
AcDbCircle
 62
7
  6
CONTINUOUS
 10
328.4087350273
 20
214.2243575871
 40
17.084037038
100
AcDbArc
 50
73.0008959001
 51
75.1415959951
  0
ARC
  5
32C
100
AcDbEntity
  8
0
100
AcDbCircle
 62
7
  6
CONTINUOUS
 10
281.2468626884
 20
214.3251584013
 40
16.9843322554
100
AcDbArc
 50
101.7542234076
 51
104.9130761553
  0
ARC
  5
32D
100
AcDbEntity
  8
0
100
AcDbCircle
 62
7
  6
CONTINUOUS
 10
329.2468624434
 20
214.3251593641
 40
16.984331262
100
AcDbArc
 50
101.754218269
 51
104.9130761926
  0
ARC
  5
32E
100
AcDbEntity
  8
0
100
AcDbCircle
 62
7
  6
CONTINUOUS
 10
281.0894527116
 20
215.0332631808
 40
16.2590124938
100
AcDbArc
 50
101.4039694968
 51
101.7194831301
  0
ARC
  5
32F
100
AcDbEntity
  8
0
100
AcDbCircle
 62
7
  6
CONTINUOUS
 10
329.08945248
 20
215.033264314
 40
16.2590113372
100
AcDbArc
 50
101.4039660344
 51
101.7194779284
  0
ARC
  5
330
100
AcDbEntity
  8
0
100
AcDbCircle
 62
7
  6
CONTINUOUS
 10
280.8204306892
 20
216.6389821998
 40
14.6339098446
100
AcDbArc
 50
86.553377658
 51
87.8546681844
  0
ARC
  5
331
100
AcDbEntity
  8
0
100
AcDbCircle
 62
7
  6
CONTINUOUS
 10
328.8204306919
 20
216.6389822588
 40
14.6339097855
100
AcDbArc
 50
86.5533807792
 51
87.8546693967
  0
ARC
  5
332
100
AcDbEntity
  8
0
100
AcDbCircle
 62
7
  6
CONTINUOUS
 10
328.8374645966
 20
216.7321616577
 40
14.5405763961
100
AcDbArc
 50
91.6981523039
 51
93.8547146291
  0
ARC
  5
333
100
AcDbEntity
  8
0
100
AcDbCircle
 62
7
  6
CONTINUOUS
 10
280.8374645954
 20
216.7321616798
 40
14.540576374
100
AcDbArc
 50
91.6981529246
 51
93.8547147869
  0
ARC
  5
334
100
AcDbEntity
  8
0
100
AcDbCircle
 62
7
  6
CONTINUOUS
 10
280.832028146
 20
216.9375173152
 40
14.3351498384
100
AcDbArc
 50
87.8563223244
 51
91.7007566934
  0
ARC
  5
335
100
AcDbEntity
  8
0
100
AcDbCircle
 62
7
  6
CONTINUOUS
 10
328.8320281466
 20
216.9375174349
 40
14.3351497188
100
AcDbArc
 50
87.8563235443
 51
91.700756078
  0
ARC
  5
336
100
AcDbEntity
  8
0
100
AcDbCircle
 62
7
  6
CONTINUOUS
 10
235.6520796937
 20
245.4434489279
 40
13.3126351937
100
AcDbArc
 50
267.5494814973
 51
272.1163307859
  0
ARC
  5
337
100
AcDbEntity
  8
0
100
AcDbCircle
 62
7
  6
CONTINUOUS
 10
218.3822463664
 20
216.5334068187
 40
12.3
100
AcDbArc
 50
60.0
 51
104.45
  0
ARC
  5
338
100
AcDbEntity
  8
0
100
AcDbCircle
 62
7
  6
CONTINUOUS
 10
235.5330633241
 20
242.6373535497
 40
11.8506332534
100
AcDbArc
 50
267.5485850549
 51
273.1569283061
  0
ARC
  5
339
100
AcDbEntity
  8
0
100
AcDbCircle
 62
7
  6
CONTINUOUS
 10
339.0019794967
 20
267.1034068187
 40
8.5
100
AcDbArc
 50
14.4499999999
 51
90.0
  0
ARC
  5
33A
100
AcDbEntity
  8
0
100
AcDbCircle
 62
7
  6
CONTINUOUS
 10
256.9998371921
 20
237.4493870523
 40
8.4541989726
100
AcDbArc
 50
263.6421053002
 51
280.4708248663
  0
ARC
  5
33B
100
AcDbEntity
  8
0
100
AcDbCircle
 62
7
  6
CONTINUOUS
 10
254.3598628172
 20
228.2657024078
 40
5.7683810156
100
AcDbArc
 50
92.0700098749
 51
95.484654236
  0
ARC
  5
33C
100
AcDbEntity
  8
0
100
AcDbCircle
 62
7
  6
CONTINUOUS
 10
342.9433213659
 20
235.5536371075
 40
4.9999959785
100
AcDbArc
 50
270.0
 51
357.85
  0
ARC
  5
33D
100
AcDbEntity
  8
0
100
AcDbCircle
 62
7
  6
CONTINUOUS
 10
270.1780737731
 20
226.6816141538
 40
3.7821748961
100
AcDbArc
 50
113.4303979146
 51
119.4582424922
  0
ARC
  5
33E
100
AcDbEntity
  8
0
100
AcDbCircle
 62
7
  6
CONTINUOUS
 10
253.5944274604
 20
228.427387621
 40
3.5591055699
100
AcDbArc
 50
92.8317522281
 51
96.2683638125
  0
ARC
  5
33F
100
AcDbEntity
  8
0
100
AcDbCircle
 62
7
  6
CONTINUOUS
 10
198.968618152
 20
228.1535095212
 40
3.5500411622
100
AcDbArc
 50
270.0296572617
 51
286.5633719796
  0
ARC
  5
340
100
AcDbEntity
  8
0
100
AcDbCircle
 62
7
  6
CONTINUOUS
 10
324.2322701898
 20
231.0538125274
 40
0.5002862803
100
AcDbArc
 50
286.3227792804
 51
315.4198707469
  0
ARC
  5
341
100
AcDbEntity
  8
0
100
AcDbCircle
 62
7
  6
CONTINUOUS
 10
276.2322701898
 20
231.0538125274
 40
0.5002862803
100
AcDbArc
 50
286.3227792772
 51
315.4198707469
  0
ARC
  5
342
100
AcDbEntity
  8
0
100
AcDbCircle
 62
7
  6
CONTINUOUS
 10
333.4322223075
 20
231.0538126834
 40
0.5002862555
100
AcDbArc
 50
224.58014276
 51
253.677231456
  0
ARC
  5
343
100
AcDbEntity
  8
0
100
AcDbCircle
 62
7
  6
CONTINUOUS
 10
285.4322223075
 20
231.0538126834
 40
0.5002862555
100
AcDbArc
 50
224.5801427598
 51
253.6772314535
  0
ARC
  5
344
100
AcDbEntity
  8
0
100
AcDbCircle
 62
7
  6
CONTINUOUS
 10
272.0401692948
 20
384.6891472761
 40
109.4077158891
100
AcDbArc
 50
268.9082423515
 51
269.0949705741
  0
ARC
  5
345
100
AcDbEntity
  8
0
100
AcDbCircle
 62
7
  6
CONTINUOUS
 10
331.7209990762
 20
324.9906614168
 40
90.0037313396
100
AcDbArc
 50
209.8231733978
 51
210.1218048265
  0
ARC
  5
346
100
AcDbEntity
  8
0
100
AcDbCircle
 62
7
  6
CONTINUOUS
 10
276.9330031368
 20
349.1468730736
 40
79.9498481325
100
AcDbArc
 50
267.2298587558
 51
268.4990993828
  0
ARC
  5
347
100
AcDbEntity
  8
0
100
AcDbCircle
 62
7
  6
CONTINUOUS
 10
288.3148806322
 20
345.3155562563
 40
77.1526040387
100
AcDbArc
 50
258.6267032478
 51
259.9728984803
  0
ARC
  5
348
100
AcDbEntity
  8
0
100
AcDbCircle
 62
7
  6
CONTINUOUS
 10
232.7313951477
 20
283.5684328073
 40
43.3781939521
100
AcDbArc
 50
273.6438721425
 51
273.9581003359
  0
ARC
  5
349
100
AcDbEntity
  8
0
100
AcDbCircle
 62
7
  6
CONTINUOUS
 10
191.8322631204
 20
314.9992069973
 40
1.999979881
100
AcDbArc
 50
0.0
 51
78.9785387303
  0
ARC
  5
34A
100
AcDbEntity
  8
0
100
AcDbCircle
 62
7
  6
CONTINUOUS
 10
-288.2304909489
 20
685.117166665
 40
690.0169656276
100
AcDbArc
 50
318.3868857421
 51
318.6112339721
  0
ARC
  5
34B
100
AcDbEntity
  8
0
100
AcDbCircle
 62
7
  6
CONTINUOUS
 10
29.0938315484
 20
577.6450714948
 40
403.3749686631
100
AcDbArc
 50
300.3332170194
 51
300.698697644
  0
SPLINE
  5
34C
100
AcDbEntity
  8
0
100
AcDbSpline
 62
7
  6
CONTINUOUS
 70
0
 71
3
 72
9
 73
5
 74
0
 42
0.0000001
 43
0.0000001
 44
0.0000000001
 40
0.0
 40
0.0
 40
0.0
 40
0.0
 40
0.4879683511
 40
1.0
 40
1.0
 40
1.0
 40
1.0
 10
182.9918162139
 20
315.8272173762
 30
0.0
 10
182.9918165904
 20
315.6924592467
 30
0.0
 10
183.0096157291
 20
315.4166651475
 30
0.0
 10
183.0191281737
 20
315.1405966913
 30
0.0
 10
183.0191281737
 20
314.9991932025
 30
0.0
  0
SPLINE
  5
34D
100
AcDbEntity
  8
0
100
AcDbSpline
 62
7
  6
CONTINUOUS
 70
0
 71
3
 72
10
 73
6
 74
0
 42
0.0000001
 43
0.0000001
 44
0.0000000001
 40
0.0
 40
0.0
 40
0.0
 40
0.0
 40
0.2300879797
 40
0.4788588236
 40
1.0
 40
1.0
 40
1.0
 40
1.0
 10
185.7322437937
 20
316.0377890794
 30
0.0
 10
185.7322491356
 20
315.9579115735
 30
0.0
 10
185.7463848958
 20
315.7918976567
 30
0.0
 10
185.7870657791
 20
315.4473885846
 30
0.0
 10
185.8067350576
 20
315.1801129428
 30
0.0
 10
185.8067350576
 20
314.9991932025
 30
0.0
  0
SPLINE
  5
34E
100
AcDbEntity
  8
0
100
AcDbSpline
 62
7
  6
CONTINUOUS
 70
0
 71
3
 72
11
 73
7
 74
0
 42
0.0000001
 43
0.0000001
 44
0.0000000001
 40
0.0
 40
0.0
 40
0.0
 40
0.0
 40
0.2183438322
 40
0.468210499
 40
0.7316622866
 40
1.0
 40
1.0
 40
1.0
 40
1.0
 10
188.1715468597
 20
316.186631005
 30
0.0
 10
188.1715400125
 20
316.0994873121
 30
0.0
 10
188.2021711779
 20
315.913823102
 30
0.0
 10
188.2577574079
 20
315.6277281178
 30
0.0
 10
188.3030105843
 20
315.3186428416
 30
0.0
 10
188.3143121003
 20
315.106290065
 30
0.0
 10
188.3143121003
 20
314.9991932025
 30
0.0
  0
LINE
  5
34F
100
AcDbEntity
  8
0
100
AcDbLine
 62
7
  6
CONTINUOUS
 10
164.4322463664
 20
316.4274755319
 11
164.4119160135
 21
316.4064005179
  0
SPLINE
  5
350
100
AcDbEntity
  8
0
100
AcDbSpline
 62
7
  6
CONTINUOUS
 70
0
 71
3
 72
9
 73
5
 74
0
 42
0.0000001
 43
0.0000001
 44
0.0000000001
 40
0.0
 40
0.0
 40
0.0
 40
0.0
 40
0.4817323468
 40
1.0
 40
1.0
 40
1.0
 40
1.0
 10
164.324553711
 20
316.3086246354
 30
0.0
 10
164.178477346
 20
316.134343852
 30
0.0
 10
163.9330306896
 20
315.7199844035
 30
0.0
 10
163.8442463664
 20
315.2438427208
 30
0.0
 10
163.8442463664
 20
314.9991932025
 30
0.0
  0
SPLINE
  5
351
100
AcDbEntity
  8
0
100
AcDbSpline
 62
7
  6
CONTINUOUS
 70
0
 71
3
 72
16
 73
12
 74
0
 42
0.0000001
 43
0.0000001
 44
0.0000000001
 40
0.0
 40
0.0
 40
0.0
 40
0.0
 40
0.2881858854
 40
0.4319109103
 40
0.5740920197
 40
0.7120296803
 40
0.8393619072
 40
0.8952096783
 40
0.9425719688
 40
0.9783717791
 40
1.0
 40
1.0
 40
1.0
 40
1.0
 10
164.2647317277
 20
314.9991932025
 30
0.0
 10
164.2647317277
 20
315.144304236
 30
0.0
 10
164.2882853459
 20
315.3626121789
 30
0.0
 10
164.362583798
 20
315.6422687226
 30
0.0
 10
164.4365978852
 20
315.8427920299
 30
0.0
 10
164.523706105
 20
316.0287488784
 30
0.0
 10
164.6023912577
 20
316.1701783371
 30
0.0
 10
164.6614335691
 20
316.2699793503
 30
0.0
 10
164.6973158074
 20
316.3304072111
 30
0.0
 10
164.7216446487
 20
316.3765096547
 30
0.0
 10
164.7333757971
 20
316.4041763002
 30
0.0
 10
164.7333757971
 20
316.4150668179
 30
0.0
  0
SPLINE
  5
352
100
AcDbEntity
  8
0
100
AcDbSpline
 62
7
  6
CONTINUOUS
 70
0
 71
3
 72
14
 73
10
 74
0
 42
0.0000001
 43
0.0000001
 44
0.0000000001
 40
0.0
 40
0.0
 40
0.0
 40
0.0
 40
0.1203817572
 40
0.2480442513
 40
0.3731103101
 40
0.4960757954
 40
0.6194777978
 40
0.7446883247
 40
1.0
 40
1.0
 40
1.0
 40
1.0
 10
186.0322463664
 20
316.4274755319
 30
0.0
 10
186.1050808559
 20
316.4274755319
 30
0.0
 10
186.2553974422
 20
316.3919304025
 30
0.0
 10
186.4501800973
 20
316.2718554619
 30
0.0
 10
186.6031366627
 20
316.0998253147
 30
0.0
 10
186.7088914266
 20
315.8997623212
 30
0.0
 10
186.7775247411
 20
315.6848025966
 30
0.0
 10
186.8332328203
 20
315.3845676318
 30
0.0
 10
186.8457576753
 20
315.153664245
 30
0.0
 10
186.8457576753
 20
314.9991932025
 30
0.0
  0
SPLINE
  5
353
100
AcDbEntity
  8
0
100
AcDbSpline
 62
7
  6
CONTINUOUS
 70
0
 71
3
 72
13
 73
9
 74
0
 42
0.0000001
 43
0.0000001
 44
0.0000000001
 40
0.0
 40
0.0
 40
0.0
 40
0.0
 40
0.2467837665
 40
0.3707809277
 40
0.4919747008
 40
0.614705149
 40
0.7406378811
 40
1.0
 40
1.0
 40
1.0
 40
1.0
 10
183.2918162125
 20
316.4150521291
 30
0.0
 10
183.4437150502
 20
316.4513608384
 30
0.0
 10
183.7049129601
 20
316.3827060366
 30
0.0
 10
183.9269303671
 20
316.1608105705
 30
0.0
 10
184.0372261481
 20
315.9522187874
 30
0.0
 10
184.1013685335
 20
315.7262052799
 30
0.0
 10
184.1486724429
 20
315.4076804563
 30
0.0
 10
184.1568889395
 20
315.1633314972
 30
0.0
 10
184.1568889395
 20
314.9991932025
 30
0.0
  0
SPLINE
  5
354
100
AcDbEntity
  8
0
100
AcDbSpline
 62
7
  6
CONTINUOUS
 70
0
 71
3
 72
12
 73
8
 74
0
 42
0.0000001
 43
0.0000001
 44
0.0000000001
 40
0.0
 40
0.0
 40
0.0
 40
0.0
 40
0.2538454544
 40
0.503577297
 40
0.7533254861
 40
0.8802590572
 40
1.0
 40
1.0
 40
1.0
 40
1.0
 10
189.2128791979
 20
314.9991932025
 30
0.0
 10
189.2128791979
 20
315.1439287984
 30
0.0
 10
189.192573776
 20
315.4316520022
 30
0.0
 10
189.0855944766
 20
315.8509130425
 30
0.0
 10
188.8918357739
 20
316.1628651549
 30
0.0
 10
188.6688719664
 20
316.3410368883
 30
0.0
 10
188.5379494498
 20
316.3991947808
 30
0.0
 10
188.4715470897
 20
316.4150668179
 30
0.0
  0
SPLINE
  5
355
100
AcDbEntity
  8
0
100
AcDbSpline
 62
7
  6
CONTINUOUS
 70
0
 71
3
 72
11
 73
7
 74
0
 42
0.0000001
 43
0.0000001
 44
0.0000000001
 40
0.0
 40
0.0
 40
0.0
 40
0.0
 40
0.2992798185
 40
0.5312615333
 40
0.7469953868
 40
1.0
 40
1.0
 40
1.0
 40
1.0
 10
188.4715470897
 20
316.4150666251
 30
0.0
 10
188.4273381915
 20
316.4256337988
 30
0.0
 10
188.3457711643
 20
316.4361312473
 30
0.0
 10
188.2315650337
 20
316.3957522254
 30
0.0
 10
188.1761407616
 20
316.296995187
 30
0.0
 10
188.1715498791
 20
316.2250570616
 30
0.0
 10
188.1715468597
 20
316.186631005
 30
0.0
  0
SPLINE
  5
356
100
AcDbEntity
  8
0
100
AcDbSpline
 62
7
  6
CONTINUOUS
 70
0
 71
3
 72
12
 73
8
 74
0
 42
0.0000001
 43
0.0000001
 44
0.0000000001
 40
0.0
 40
0.0
 40
0.0
 40
0.0
 40
0.2665604393
 40
0.3833841631
 40
0.4964181446
 40
0.7329017599
 40
1.0
 40
1.0
 40
1.0
 40
1.0
 10
186.0322463664
 20
316.4274755319
 30
0.0
 10
185.9824021995
 20
316.4274755319
 30
0.0
 10
185.908195984
 20
316.4150020434
 30
0.0
 10
185.8300976158
 20
316.3627059281
 30
0.0
 10
185.7736022353
 20
316.2947781262
 30
0.0
 10
185.7370500819
 20
316.1820140684
 30
0.0
 10
185.7322404536
 20
316.0877338097
 30
0.0
 10
185.7322437937
 20
316.0377890794
 30
0.0
  0
SPLINE
  5
357
100
AcDbEntity
  8
0
100
AcDbSpline
 62
7
  6
CONTINUOUS
 70
0
 71
3
 72
11
 73
7
 74
0
 42
0.0000001
 43
0.0000001
 44
0.0000000001
 40
0.0
 40
0.0
 40
0.0
 40
0.0
 40
0.2478652896
 40
0.4800994175
 40
0.7288488752
 40
1.0
 40
1.0
 40
1.0
 40
1.0
 10
183.2918162125
 20
316.4150521288
 30
0.0
 10
183.2342704013
 20
316.4012968285
 30
0.0
 10
183.125334286
 20
316.3477319488
 30
0.0
 10
183.0311566534
 20
316.1938636465
 30
0.0
 10
182.996111351
 20
316.0161682334
 30
0.0
 10
182.991816033
 20
315.891942803
 30
0.0
 10
182.9918162139
 20
315.8272173762
 30
0.0
  0
SPLINE
  5
358
100
AcDbEntity
  8
0
100
AcDbSpline
 62
7
  6
CONTINUOUS
 70
0
 71
3
 72
22
 73
18
 74
0
 42
0.0000001
 43
0.0000001
 44
0.0000000001
 40
0.0
 40
0.0
 40
0.0
 40
0.0
 40
0.0059155921
 40
0.0118546896
 40
0.0215016747
 40
0.0356984184
 40
0.0543081426
 40
0.0768778523
 40
0.1315512302
 40
0.1951568303
 40
0.2640303586
 40
0.3357357469
 40
0.4088330263
 40
0.556372864
 40
0.7042444533
 40
0.8521031575
 40
1.0
 40
1.0
 40
1.0
 40
1.0
 10
164.7333757971
 20
316.4150666251
 30
0.0
 10
164.7333757971
 20
316.4183772918
 30
0.0
 10
164.7316557839
 20
316.4260936676
 30
0.0
 10
164.7181550696
 20
316.4285096849
 30
0.0
 10
164.7024447057
 20
316.4233082657
 30
0.0
 10
164.6808600027
 20
316.4130555165
 30
0.0
 10
164.6545732203
 20
316.3966121042
 30
0.0
 10
164.6109849564
 20
316.3652827607
 30
0.0
 10
164.5510395944
 20
316.3138855819
 30
0.0
 10
164.4773300414
 20
316.2393325168
 30
0.0
 10
164.4035321659
 20
316.1519338006
 30
0.0
 10
164.3333601813
 20
316.054965627
 30
0.0
 10
164.2472691637
 20
315.915695611
 30
0.0
 10
164.1578310671
 20
315.7290610394
 30
0.0
 10
164.0813111473
 20
315.4923461099
 30
0.0
 10
164.0357111281
 20
315.2476576462
 30
0.0
 10
164.0255380595
 20
315.0819638091
 30
0.0
 10
164.0255380595
 20
314.9991932025
 30
0.0
  0
SPLINE
  5
359
100
AcDbEntity
  8
0
100
AcDbSpline
 62
7
  6
CONTINUOUS
 70
0
 71
3
 72
10
 73
6
 74
0
 42
0.0000001
 43
0.0000001
 44
0.0000000001
 40
0.0
 40
0.0
 40
0.0
 40
0.0
 40
0.3345774116
 40
0.6210043165
 40
1.0
 40
1.0
 40
1.0
 40
1.0
 10
186.4322463664
 20
227.2723051618
 30
0.0
 10
186.5685319697
 20
227.2723051618
 30
0.0
 10
186.8252357059
 20
227.238669184
 30
0.0
 10
187.1981498486
 20
227.099897286
 30
0.0
 10
187.4322463664
 20
226.8653631044
 30
0.0
 10
187.4322463664
 20
226.7109843162
 30
0.0
  0
SPLINE
  5
35A
100
AcDbEntity
  8
0
100
AcDbSpline
 62
7
  6
CONTINUOUS
 70
0
 71
3
 72
10
 73
6
 74
0
 42
0.0000001
 43
0.0000001
 44
0.0000000001
 40
0.0
 40
0.0
 40
0.0
 40
0.0
 40
0.3790038148
 40
0.6654345547
 40
1.0
 40
1.0
 40
1.0
 40
1.0
 10
161.4322463664
 20
226.7109843162
 30
0.0
 10
161.4322463664
 20
226.865370132
 30
0.0
 10
161.6663092448
 20
227.0999483305
 30
0.0
 10
162.0392574824
 20
227.2386957591
 30
0.0
 10
162.2959623577
 20
227.2723051618
 30
0.0
 10
162.4322463664
 20
227.2723051618
 30
0.0
  0
SPLINE
  5
35B
100
AcDbEntity
  8
0
100
AcDbSpline
 62
7
  6
CONTINUOUS
 70
0
 71
3
 72
11
 73
7
 74
0
 42
0.0000001
 43
0.0000001
 44
0.0000000001
 40
0.0
 40
0.0
 40
0.0
 40
0.0
 40
0.2388990252
 40
0.5000000848
 40
0.7611025393
 40
1.0
 40
1.0
 40
1.0
 40
1.0
 10
177.1156215761
 20
225.0034068187
 30
0.0
 10
177.6438656892
 20
225.0034068187
 30
0.0
 10
178.7493500124
 20
225.0213235454
 30
0.0
 10
180.4322500167
 20
225.035812359
 30
0.0
 10
182.1151465315
 20
225.0213213152
 30
0.0
 10
183.2206305028
 20
225.0034068187
 30
0.0
 10
183.7488711568
 20
225.0034068187
 30
0.0
  0
SPLINE
  5
35C
100
AcDbEntity
  8
0
100
AcDbSpline
 62
7
  6
CONTINUOUS
 70
0
 71
3
 72
9
 73
5
 74
0
 42
0.0000001
 43
0.0000001
 44
0.0000000001
 40
0.0
 40
0.0
 40
0.0
 40
0.0
 40
0.279313347
 40
1.0
 40
1.0
 40
1.0
 40
1.0
 10
113.6254455731
 20
261.6034068187
 30
0.0
 10
113.6254455731
 20
261.5123391855
 30
0.0
 10
113.6175176523
 20
261.1863046967
 30
0.0
 10
113.5834595938
 20
260.8612041312
 30
0.0
 10
113.5475984909
 20
260.6289832984
 30
0.0
  0
SPLINE
  5
35D
100
AcDbEntity
  8
0
100
AcDbSpline
 62
7
  6
CONTINUOUS
 70
0
 71
3
 72
9
 73
5
 74
0
 42
0.0000001
 43
0.0000001
 44
0.0000000001
 40
0.0
 40
0.0
 40
0.0
 40
0.0
 40
0.2129432299
 40
1.0
 40
1.0
 40
1.0
 40
1.0
 10
113.5473446895
 20
262.5814520535
 30
0.0
 10
113.55803065
 20
262.5125988208
 30
0.0
 10
113.6038096181
 20
262.1886211393
 30
0.0
 10
113.6254455731
 20
261.8609410326
 30
0.0
 10
113.6254455731
 20
261.6034068187
 30
0.0
  0
SPLINE
  5
35E
100
AcDbEntity
  8
0
100
AcDbSpline
 62
7
  6
CONTINUOUS
 70
0
 71
3
 72
10
 73
6
 74
0
 42
0.0000001
 43
0.0000001
 44
0.0000000001
 40
0.0
 40
0.0
 40
0.0
 40
0.0
 40
0.6718936041
 40
0.874615708
 40
1.0
 40
1.0
 40
1.0
 40
1.0
 10
113.5475984909
 20
260.6289829308
 30
0.0
 10
113.5267869598
 20
260.4942164657
 30
0.0
 10
113.4936635302
 20
260.3170874991
 30
0.0
 10
113.4180847084
 20
260.1302752851
 30
0.0
 10
113.3769284339
 20
260.0734248404
 30
0.0
 10
113.3547617351
 20
260.0609266903
 30
0.0
  0
SPLINE
  5
35F
100
AcDbEntity
  8
0
100
AcDbSpline
 62
7
  6
CONTINUOUS
 70
0
 71
3
 72
8
 73
4
 74
0
 42
0.0000001
 43
0.0000001
 44
0.0000000001
 40
0.0
 40
0.0
 40
0.0
 40
0.0
 40
1.0
 40
1.0
 40
1.0
 40
1.0
 10
113.3547617351
 20
260.0609266903
 30
0.0
 10
113.3467446493
 20
260.0564064528
 30
0.0
 10
113.3373993841
 20
260.0534034502
 30
0.0
 10
113.3281957863
 20
260.0534029763
 30
0.0
  0
SPLINE
  5
360
100
AcDbEntity
  8
0
100
AcDbSpline
 62
7
  6
CONTINUOUS
 70
0
 71
3
 72
9
 73
5
 74
0
 42
0.0000001
 43
0.0000001
 44
0.0000000001
 40
0.0
 40
0.0
 40
0.0
 40
0.0
 40
0.2564386979
 40
1.0
 40
1.0
 40
1.0
 40
1.0
 10
113.4461302147
 20
261.6034068187
 30
0.0
 10
113.4461302147
 20
261.5606989266
 30
0.0
 10
113.4470107608
 20
261.3941592024
 30
0.0
 10
113.4521213367
 20
261.2276309497
 30
0.0
 10
113.4586668805
 20
261.1039696466
 30
0.0
  0
SPLINE
  5
361
100
AcDbEntity
  8
0
100
AcDbSpline
 62
7
  6
CONTINUOUS
 70
0
 71
3
 72
9
 73
5
 74
0
 42
0.0000001
 43
0.0000001
 44
0.0000000001
 40
0.0
 40
0.0
 40
0.0
 40
0.0
 40
0.2734552631
 40
1.0
 40
1.0
 40
1.0
 40
1.0
 10
113.4586668805
 20
261.1039696466
 30
0.0
 10
113.4609329922
 20
261.0611572658
 30
0.0
 10
113.4704051911
 20
260.9046685144
 30
0.0
 10
113.4845739687
 20
260.7484122588
 30
0.0
 10
113.4989012902
 20
260.6354092221
 30
0.0
  0
SPLINE
  5
362
100
AcDbEntity
  8
0
100
AcDbSpline
 62
7
  6
CONTINUOUS
 70
0
 71
3
 72
9
 73
5
 74
0
 42
0.0000001
 43
0.0000001
 44
0.0000000001
 40
0.0
 40
0.0
 40
0.0
 40
0.0
 40
0.2628050994
 40
1.0
 40
1.0
 40
1.0
 40
1.0
 10
113.4989012902
 20
260.6354092221
 30
0.0
 10
113.5004925047
 20
260.6228589301
 30
0.0
 10
113.506745874
 20
260.5751294772
 30
0.0
 10
113.5138076214
 20
260.5275037749
 30
0.0
 10
113.5195795201
 20
260.4924896507
 30
0.0
  0
SPLINE
  5
363
100
AcDbEntity
  8
0
100
AcDbSpline
 62
7
  6
CONTINUOUS
 70
0
 71
3
 72
9
 73
5
 74
0
 42
0.0000001
 43
0.0000001
 44
0.0000000001
 40
0.0
 40
0.0
 40
0.0
 40
0.0
 40
0.2196651948
 40
1.0
 40
1.0
 40
1.0
 40
1.0
 10
113.4894895354
 20
262.8634068187
 30
0.0
 10
113.4947897534
 20
262.8430233856
 30
0.0
 10
113.5173752317
 20
262.749829314
 30
0.0
 10
113.5345402545
 20
262.6553814716
 30
0.0
 10
113.5460158194
 20
262.581449122
 30
0.0
  0
SPLINE
  5
364
100
AcDbEntity
  8
0
100
AcDbSpline
 62
7
  6
CONTINUOUS
 70
0
 71
3
 72
9
 73
5
 74
0
 42
0.0000001
 43
0.0000001
 44
0.0000000001
 40
0.0
 40
0.0
 40
0.0
 40
0.0
 40
0.2296273245
 40
1.0
 40
1.0
 40
1.0
 40
1.0
 10
229.448333119
 20
228.9022524354
 30
0.0
 10
229.5389927578
 20
229.0044807597
 30
0.0
 10
229.9148310021
 20
229.465914191
 30
0.0
 10
230.2058089799
 20
229.9984429788
 30
0.0
 10
230.3619969636
 20
230.429416673
 30
0.0
  0
SPLINE
  5
365
100
AcDbEntity
  8
0
100
AcDbSpline
 62
7
  6
CONTINUOUS
 70
0
 71
3
 72
9
 73
5
 74
0
 42
0.0000001
 43
0.0000001
 44
0.0000000001
 40
0.0
 40
0.0
 40
0.0
 40
0.0
 40
0.2566576202
 40
1.0
 40
1.0
 40
1.0
 40
1.0
 10
232.8095287648
 20
229.4905841845
 30
0.0
 10
232.5856549451
 20
229.5179988926
 30
0.0
 10
231.7214296791
 20
229.6800162298
 30
0.0
 10
230.8929164382
 20
230.0488342245
 30
0.0
 10
230.3620577832
 20
230.4294998664
 30
0.0
  0
SPLINE
  5
366
100
AcDbEntity
  8
0
100
AcDbSpline
 62
7
  6
CONTINUOUS
 70
0
 71
3
 72
19
 73
15
 74
0
 42
0.0000001
 43
0.0000001
 44
0.0000000001
 40
0.0
 40
0.0
 40
0.0
 40
0.0
 40
0.1154505336
 40
0.2448969067
 40
0.3874031636
 40
0.5371371435
 40
0.6117219352
 40
0.6829800139
 40
0.7472960716
 40
0.8023053461
 40
0.8504238838
 40
0.8972339789
 40
0.9466409062
 40
1.0
 40
1.0
 40
1.0
 40
1.0
 10
125.328085853
 20
234.4845990588
 30
0.0
 10
125.4401675275
 20
234.0391750427
 30
0.0
 10
125.827646445
 20
233.1312313305
 30
0.0
 10
126.7152434899
 20
231.8644605017
 30
0.0
 10
127.848203827
 20
230.6228761036
 30
0.0
 10
128.959865527
 20
229.6669607697
 30
0.0
 10
129.9574479963
 20
229.0393974355
 30
0.0
 10
130.725302793
 20
228.6983534288
 30
0.0
 10
131.4746111598
 20
228.5389223315
 30
0.0
 10
132.15377718
 20
228.6100158616
 30
0.0
 10
132.6822999907
 20
228.9286316214
 30
0.0
 10
133.0097329864
 20
229.4173746899
 30
0.0
 10
133.1740002486
 20
229.9955370807
 30
0.0
 10
133.2024257436
 20
230.4056625416
 30
0.0
 10
133.2024064932
 20
230.617946685
 30
0.0
  0
SPLINE
  5
367
100
AcDbEntity
  8
0
100
AcDbSpline
 62
7
  6
CONTINUOUS
 70
0
 71
3
 72
9
 73
5
 74
0
 42
0.0000001
 43
0.0000001
 44
0.0000000001
 40
0.0
 40
0.0
 40
0.0
 40
0.0
 40
0.2457747766
 40
1.0
 40
1.0
 40
1.0
 40
1.0
 10
125.2022336383
 20
235.4640094251
 30
0.0
 10
125.2022309734
 20
235.3830035733
 30
0.0
 10
125.2131545563
 20
235.0534359926
 30
0.0
 10
125.2675606123
 20
234.725831639
 30
0.0
 10
125.3281618983
 20
234.4847435415
 30
0.0
  0
SPLINE
  5
368
100
AcDbEntity
  8
0
100
AcDbSpline
 62
7
  6
CONTINUOUS
 70
0
 71
3
 72
10
 73
6
 74
0
 42
0.0000001
 43
0.0000001
 44
0.0000000001
 40
0.0
 40
0.0
 40
0.0
 40
0.0
 40
0.5851701359
 40
0.8132638989
 40
1.0
 40
1.0
 40
1.0
 40
1.0
 10
232.809521295
 20
229.4909265664
 30
0.0
 10
232.857076578
 20
229.0855238205
 30
0.0
 10
232.8922678101
 20
228.5161230652
 30
0.0
 10
232.8404846124
 20
227.8198832331
 30
0.0
 10
232.7889546615
 20
227.5340617666
 30
0.0
 10
232.7545246314
 20
227.4084376876
 30
0.0
  0
SPLINE
  5
369
100
AcDbEntity
  8
0
100
AcDbSpline
 62
7
  6
CONTINUOUS
 70
0
 71
3
 72
11
 73
7
 74
0
 42
0.0000001
 43
0.0000001
 44
0.0000000001
 40
0.0
 40
0.0
 40
0.0
 40
0.0
 40
0.4278785078
 40
0.7425253827
 40
0.9349376622
 40
1.0
 40
1.0
 40
1.0
 40
1.0
 10
232.7548669025
 20
227.4084918823
 30
0.0
 10
232.3461640147
 20
227.0214839037
 30
0.0
 10
231.6350856492
 20
226.3518244515
 30
0.0
 10
230.7374297292
 20
225.5110674925
 30
0.0
 10
230.1847273193
 20
225.0002708455
 30
0.0
 10
229.9380597747
 20
224.768122897
 30
0.0
 10
229.8745025674
 20
224.7108017096
 30
0.0
  0
SPLINE
  5
36A
100
AcDbEntity
  8
0
100
AcDbSpline
 62
7
  6
CONTINUOUS
 70
0
 71
3
 72
9
 73
5
 74
0
 42
0.0000001
 43
0.0000001
 44
0.0000000001
 40
0.0
 40
0.0
 40
0.0
 40
0.0
 40
0.2255883112
 40
1.0
 40
1.0
 40
1.0
 40
1.0
 10
277.8746353387
 20
230.9712817694
 30
0.0
 10
278.0223636841
 20
231.0010793117
 30
0.0
 10
278.6789951099
 20
231.1240504595
 30
0.0
 10
279.3437780618
 20
231.2050398023
 30
0.0
 10
279.8599492847
 20
231.2398432694
 30
0.0
  0
SPLINE
  5
36B
100
AcDbEntity
  8
0
100
AcDbSpline
 62
7
  6
CONTINUOUS
 70
0
 71
3
 72
9
 73
5
 74
0
 42
0.0000001
 43
0.0000001
 44
0.0000000001
 40
0.0
 40
0.0
 40
0.0
 40
0.0
 40
0.3014008356
 40
1.0
 40
1.0
 40
1.0
 40
1.0
 10
281.700201373
 20
231.2464227998
 30
0.0
 10
282.0145460093
 20
231.2274928912
 30
0.0
 10
283.0554689414
 20
231.1306203661
 30
0.0
 10
284.0841886433
 20
230.9246544778
 30
0.0
 10
284.7896142731
 20
230.7371471319
 30
0.0
  0
SPLINE
  5
36C
100
AcDbEntity
  8
0
100
AcDbSpline
 62
7
  6
CONTINUOUS
 70
0
 71
3
 72
9
 73
5
 74
0
 42
0.0000001
 43
0.0000001
 44
0.0000000001
 40
0.0
 40
0.0
 40
0.0
 40
0.0
 40
0.225588333
 40
1.0
 40
1.0
 40
1.0
 40
1.0
 10
325.8746362989
 20
230.9712819631
 30
0.0
 10
326.0223645912
 20
231.0010794854
 30
0.0
 10
326.6789957164
 20
231.1240505387
 30
0.0
 10
327.3437783577
 20
231.2050398237
 30
0.0
 10
327.8599493244
 20
231.239843272
 30
0.0
  0
SPLINE
  5
36D
100
AcDbEntity
  8
0
100
AcDbSpline
 62
7
  6
CONTINUOUS
 70
0
 71
3
 72
9
 73
5
 74
0
 42
0.0000001
 43
0.0000001
 44
0.0000000001
 40
0.0
 40
0.0
 40
0.0
 40
0.0
 40
0.3014008353
 40
1.0
 40
1.0
 40
1.0
 40
1.0
 10
329.7002005764
 20
231.2464228478
 30
0.0
 10
330.0145452933
 20
231.2274929515
 30
0.0
 10
331.0554684947
 20
231.1306204501
 30
0.0
 10
332.0841884637
 20
230.9246545255
 30
0.0
 10
332.7896142731
 20
230.7371471319
 30
0.0
  0
SPLINE
  5
36E
100
AcDbEntity
  8
0
100
AcDbSpline
 62
7
  6
CONTINUOUS
 70
0
 71
3
 72
9
 73
5
 74
0
 42
0.0000001
 43
0.0000001
 44
0.0000000001
 40
0.0
 40
0.0
 40
0.0
 40
0.0
 40
0.5543469606
 40
1.0
 40
1.0
 40
1.0
 40
1.0
 10
133.553154784
 20
230.3323474163
 30
0.0
 10
133.4641884188
 20
230.3402247034
 30
0.0
 10
133.3000057677
 20
230.3883612848
 30
0.0
 10
133.2023006981
 20
230.5460851457
 30
0.0
 10
133.2022654142
 20
230.617887178
 30
0.0
  0
SPLINE
  5
36F
100
AcDbEntity
  8
0
100
AcDbSpline
 62
7
  6
CONTINUOUS
 70
0
 71
3
 72
10
 73
6
 74
0
 42
0.0000001
 43
0.0000001
 44
0.0000000001
 40
0.0
 40
0.0
 40
0.0
 40
0.0
 40
0.3706831513
 40
0.6656735614
 40
1.0
 40
1.0
 40
1.0
 40
1.0
 10
133.2022497492
 20
235.268378239
 30
0.0
 10
133.2022956575
 20
235.2116806366
 30
0.0
 10
133.311785717
 20
235.1376378144
 30
0.0
 10
133.4528483998
 20
235.103161739
 30
0.0
 10
133.5510655344
 20
235.0939139377
 30
0.0
 10
133.6022022333
 20
235.0938971164
 30
0.0
  0
SPLINE
  5
370
100
AcDbEntity
  8
0
100
AcDbSpline
 62
7
  6
CONTINUOUS
 70
0
 71
3
 72
11
 73
7
 74
0
 42
0.0000001
 43
0.0000001
 44
0.0000000001
 40
0.0
 40
0.0
 40
0.0
 40
0.0
 40
0.3716856317
 40
0.689342521
 40
0.90558447
 40
1.0
 40
1.0
 40
1.0
 40
1.0
 10
133.6022463664
 20
240.2779286689
 30
0.0
 10
133.5512631963
 20
240.2779286689
 30
0.0
 10
133.4580841739
 20
240.2804091491
 30
0.0
 10
133.3293093008
 20
240.293270431
 30
0.0
 10
133.2548535298
 20
240.3076431569
 30
0.0
 10
133.2022463387
 20
240.3278914612
 30
0.0
 10
133.2022463664
 20
240.3408421987
 30
0.0
  0
SPLINE
  5
371
100
AcDbEntity
  8
0
100
AcDbSpline
 62
7
  6
CONTINUOUS
 70
0
 71
3
 72
9
 73
5
 74
0
 42
0.0000001
 43
0.0000001
 44
0.0000000001
 40
0.0
 40
0.0
 40
0.0
 40
0.0
 40
0.2437762517
 40
1.0
 40
1.0
 40
1.0
 40
1.0
 10
254.1514974219
 20
259.9905305331
 30
0.0
 10
252.6443918277
 20
259.9736719988
 30
0.0
 10
246.4620487677
 20
259.9055499316
 30
0.0
 10
240.2796745926
 20
259.8403007574
 30
0.0
 10
235.6044169233
 20
259.7909269664
 30
0.0
  0
SPLINE
  5
372
100
AcDbEntity
  8
0
100
AcDbSpline
 62
7
  6
CONTINUOUS
 70
0
 71
3
 72
9
 73
5
 74
0
 42
0.0000001
 43
0.0000001
 44
0.0000000001
 40
0.0
 40
0.0
 40
0.0
 40
0.0
 40
0.2437900364
 40
1.0
 40
1.0
 40
1.0
 40
1.0
 10
254.1515240105
 20
254.3336261413
 30
0.0
 10
252.6444635518
 20
254.2581785355
 30
0.0
 10
246.4624353332
 20
253.9533155162
 30
0.0
 10
240.2797852789
 20
253.6612812987
 30
0.0
 10
235.6044137255
 20
253.4403050321
 30
0.0
  0
SPLINE
  5
373
100
AcDbEntity
  8
0
100
AcDbSpline
 62
7
  6
CONTINUOUS
 70
0
 71
3
 72
9
 73
5
 74
0
 42
0.0000001
 43
0.0000001
 44
0.0000000001
 40
0.0
 40
0.0
 40
0.0
 40
0.0
 40
0.2438912804
 40
1.0
 40
1.0
 40
1.0
 40
1.0
 10
254.1516045218
 20
242.6969846168
 30
0.0
 10
252.6546280564
 20
242.4940673741
 30
0.0
 10
246.5150961802
 20
241.6742007167
 30
0.0
 10
240.3711178156
 20
240.8882052805
 30
0.0
 10
235.7256531131
 20
240.2937080568
 30
0.0
  0
SPLINE
  5
374
100
AcDbEntity
  8
0
100
AcDbSpline
 62
7
  6
CONTINUOUS
 70
0
 71
3
 72
9
 73
5
 74
0
 42
0.0000001
 43
0.0000001
 44
0.0000000001
 40
0.0
 40
0.0
 40
0.0
 40
0.0
 40
0.2440212462
 40
1.0
 40
1.0
 40
1.0
 40
1.0
 10
254.1515052676
 20
235.3697548196
 30
0.0
 10
252.6885411367
 20
235.0971646193
 30
0.0
 10
246.6903833692
 20
233.9957592052
 30
0.0
 10
240.684239962
 20
232.9385703577
 30
0.0
 10
236.1436924773
 20
232.1397951889
 30
0.0
  0
SPLINE
  5
375
100
AcDbEntity
  8
0
100
AcDbSpline
 62
7
  6
CONTINUOUS
 70
0
 71
3
 72
17
 73
13
 74
0
 42
0.0000001
 43
0.0000001
 44
0.0000000001
 40
0.0
 40
0.0
 40
0.0
 40
0.0
 40
0.0912655232
 40
0.1781980413
 40
0.3406858585
 40
0.4160778308
 40
0.4874616383
 40
0.6192191276
 40
0.736257152
 40
0.8385641598
 40
0.9263935251
 40
1.0
 40
1.0
 40
1.0
 40
1.0
 10
254.1515052676
 20
234.0303158052
 30
0.0
 10
254.3763052136
 20
234.0443069022
 30
0.0
 10
254.8192498742
 20
234.0031518767
 30
0.0
 10
255.6342349392
 20
233.7952906434
 30
0.0
 10
256.3761942367
 20
233.4641726167
 30
0.0
 10
256.9918836757
 20
233.0084894703
 30
0.0
 10
257.4790578286
 20
232.5214835875
 30
0.0
 10
257.9572014773
 20
231.8855151584
 30
0.0
 10
258.3326492449
 20
231.0993200956
 30
0.0
 10
258.5412190885
 20
230.3664882529
 30
0.0
 10
258.5995964374
 20
229.7141251781
 30
0.0
 10
258.5632330696
 20
229.3157792129
 30
0.0
 10
258.5362269764
 20
229.1361438893
 30
0.0
  0
SPLINE
  5
376
100
AcDbEntity
  8
0
100
AcDbSpline
 62
7
  6
CONTINUOUS
 70
0
 71
3
 72
10
 73
6
 74
0
 42
0.0000001
 43
0.0000001
 44
0.0000000001
 40
0.0
 40
0.0
 40
0.0
 40
0.0
 40
0.2451855648
 40
0.4954348985
 40
1.0
 40
1.0
 40
1.0
 40
1.0
 10
247.7360946715
 20
285.6448201988
 30
0.0
 10
248.0730297279
 20
285.5953508435
 30
0.0
 10
248.736889259
 20
285.388276175
 30
0.0
 10
249.9910871574
 20
284.7910401999
 30
0.0
 10
250.8698094046
 20
284.2023240349
 30
0.0
 10
251.4109347257
 20
283.7569963271
 30
0.0
  0
SPLINE
  5
377
100
AcDbEntity
  8
0
100
AcDbSpline
 62
7
  6
CONTINUOUS
 70
0
 71
3
 72
11
 73
7
 74
0
 42
0.0000001
 43
0.0000001
 44
0.0000000001
 40
0.0
 40
0.0
 40
0.0
 40
0.0
 40
0.1424304254
 40
0.3633941512
 40
0.653402349
 40
1.0
 40
1.0
 40
1.0
 40
1.0
 10
273.9322928016
 20
231.0189556735
 30
0.0
 10
273.9388553517
 20
231.3938111817
 30
0.0
 10
273.9219780443
 20
232.3504472829
 30
0.0
 10
273.9304530353
 20
234.0703127671
 30
0.0
 10
273.9265963298
 20
236.327676234
 30
0.0
 10
273.9311963331
 20
238.0033758316
 30
0.0
 10
273.9311752108
 20
238.9157086212
 30
0.0
  0
SPLINE
  5
378
100
AcDbEntity
  8
0
100
AcDbSpline
 62
7
  6
CONTINUOUS
 70
0
 71
3
 72
9
 73
5
 74
0
 42
0.0000001
 43
0.0000001
 44
0.0000000001
 40
0.0
 40
0.0
 40
0.0
 40
0.0
 40
0.2495862738
 40
1.0
 40
1.0
 40
1.0
 40
1.0
 10
268.6741136787
 20
230.1519415
 30
0.0
 10
269.1115410765
 20
230.2240388303
 30
0.0
 10
270.8641957989
 20
230.5126348703
 30
0.0
 10
272.6169843678
 20
230.8004171253
 30
0.0
 10
273.9323022212
 20
231.01636493
 30
0.0
  0
SPLINE
  5
379
100
AcDbEntity
  8
0
100
AcDbSpline
 62
7
  6
CONTINUOUS
 70
0
 71
3
 72
10
 73
6
 74
0
 42
0.0000001
 43
0.0000001
 44
0.0000000001
 40
0.0
 40
0.0
 40
0.0
 40
0.0
 40
0.1632153763
 40
0.4010784381
 40
1.0
 40
1.0
 40
1.0
 40
1.0
 10
258.5362599952
 20
229.1359872266
 30
0.0
 10
258.551622448
 20
229.102522125
 30
0.0
 10
258.6296716976
 20
229.0439235592
 30
0.0
 10
258.8421390776
 20
228.973916931
 30
0.0
 10
259.0292389716
 20
228.9379864761
 30
0.0
 10
259.1626652934
 20
228.9166479794
 30
0.0
  0
SPLINE
  5
37A
100
AcDbEntity
  8
0
100
AcDbSpline
 62
7
  6
CONTINUOUS
 70
0
 71
3
 72
9
 73
5
 74
0
 42
0.0000001
 43
0.0000001
 44
0.0000000001
 40
0.0
 40
0.0
 40
0.0
 40
0.0
 40
0.4876761632
 40
1.0
 40
1.0
 40
1.0
 40
1.0
 10
268.6741429444
 20
230.1519042751
 30
0.0
 10
267.0197672504
 20
230.0631325355
 30
0.0
 10
263.6301656116
 20
229.8169185548
 30
0.0
 10
260.2574648523
 20
229.394364536
 30
0.0
 10
258.5362599952
 20
229.1359872266
 30
0.0
  0
SPLINE
  5
37B
100
AcDbEntity
  8
0
100
AcDbSpline
 62
7
  6
CONTINUOUS
 70
0
 71
3
 72
17
 73
13
 74
0
 42
0.0000001
 43
0.0000001
 44
0.0000000001
 40
0.0
 40
0.0
 40
0.0
 40
0.0
 40
0.2319408185
 40
0.4343754961
 40
0.6066216185
 40
0.747966581
 40
0.8581033248
 40
0.9369069877
 40
0.9645126063
 40
0.9842307597
 40
0.9960594481
 40
1.0
 40
1.0
 40
1.0
 40
1.0
 10
259.1626289122
 20
228.9168037194
 30
0.0
 10
259.228875976
 20
228.8287562543
 30
0.0
 10
259.350782282
 20
228.6622371883
 30
0.0
 10
259.515047559
 20
228.4253636725
 30
0.0
 10
259.6501399749
 20
228.2209445216
 30
0.0
 10
259.7582641446
 20
228.0506915375
 30
0.0
 10
259.8402550703
 20
227.918057844
 30
0.0
 10
259.893465984
 20
227.8276259013
 30
0.0
 10
259.9231666508
 20
227.7787843259
 30
0.0
 10
259.938476303
 20
227.7499206054
 30
0.0
 10
259.9451293556
 20
227.7435740775
 30
0.0
 10
259.9508898331
 20
227.7286446278
 30
0.0
 10
259.9510362617
 20
227.7305108999
 30
0.0
  0
SPLINE
  5
37C
100
AcDbEntity
  8
0
100
AcDbSpline
 62
7
  6
CONTINUOUS
 70
0
 71
3
 72
9
 73
5
 74
0
 42
0.0000001
 43
0.0000001
 44
0.0000000001
 40
0.0
 40
0.0
 40
0.0
 40
0.0
 40
0.4834581796
 40
1.0
 40
1.0
 40
1.0
 40
1.0
 10
268.3181371152
 20
229.9748460646
 30
0.0
 10
266.8370225363
 20
229.859871124
 30
0.0
 10
263.7762829538
 20
229.5799669019
 30
0.0
 10
260.7302812669
 20
229.1653085835
 30
0.0
 10
259.1626572226
 20
228.9166047361
 30
0.0
  0
SPLINE
  5
37D
100
AcDbEntity
  8
0
100
AcDbSpline
 62
7
  6
CONTINUOUS
 70
0
 71
3
 72
9
 73
5
 74
0
 42
0.0000001
 43
0.0000001
 44
0.0000000001
 40
0.0
 40
0.0
 40
0.0
 40
0.0
 40
0.2141657859
 40
1.0
 40
1.0
 40
1.0
 40
1.0
 10
252.4724499653
 20
283.1225425093
 30
0.0
 10
252.4887499598
 20
283.1006039489
 30
0.0
 10
252.5594951832
 20
282.9940788978
 30
0.0
 10
252.6096915678
 20
282.8758483804
 30
0.0
 10
252.6609704754
 20
282.7896644909
 30
0.0
  0
SPLINE
  5
37E
100
AcDbEntity
  8
0
100
AcDbSpline
 62
7
  6
CONTINUOUS
 70
0
 71
3
 72
16
 73
12
 74
0
 42
0.0000001
 43
0.0000001
 44
0.0000000001
 40
0.0
 40
0.0
 40
0.0
 40
0.0
 40
0.0040623096
 40
0.0161481957
 40
0.0367495746
 40
0.0660637575
 40
0.1509088083
 40
0.269826695
 40
0.4200340257
 40
0.596048114
 40
1.0
 40
1.0
 40
1.0
 40
1.0
 10
254.4454356625
 20
280.1825281316
 30
0.0
 10
254.4458428892
 20
280.1817062417
 30
0.0
 10
254.4406986421
 20
280.1795442011
 30
0.0
 10
254.4361046308
 20
280.1746980161
 30
0.0
 10
254.423177946
 20
280.1669864519
 30
0.0
 10
254.3984669435
 20
280.1503639593
 30
0.0
 10
254.3534546211
 20
280.1221526594
 30
0.0
 10
254.2860664793
 20
280.079623324
 30
0.0
 10
254.200649554
 20
280.0264787552
 30
0.0
 10
254.0605625132
 20
279.9396222271
 30
0.0
 10
253.9490431963
 20
279.8709447694
 30
0.0
 10
253.8713304746
 20
279.8231958251
 30
0.0
  0
SPLINE
  5
37F
100
AcDbEntity
  8
0
100
AcDbSpline
 62
7
  6
CONTINUOUS
 70
0
 71
3
 72
9
 73
5
 74
0
 42
0.0000001
 43
0.0000001
 44
0.0000000001
 40
0.0
 40
0.0
 40
0.0
 40
0.0
 40
0.2550663533
 40
1.0
 40
1.0
 40
1.0
 40
1.0
 10
236.6020378398
 20
228.8595385852
 30
0.0
 10
236.2757833138
 20
228.7338593195
 30
0.0
 10
234.9954560056
 20
228.2443173731
 30
0.0
 10
233.711320452
 20
227.7648215612
 30
0.0
 10
232.754424428
 20
227.4084711346
 30
0.0
  0
SPLINE
  5
380
100
AcDbEntity
  8
0
100
AcDbSpline
 62
7
  6
CONTINUOUS
 70
0
 71
3
 72
9
 73
5
 74
0
 42
0.0000001
 43
0.0000001
 44
0.0000000001
 40
0.0
 40
0.0
 40
0.0
 40
0.0
 40
0.4922362722
 40
1.0
 40
1.0
 40
1.0
 40
1.0
 10
253.2057604187
 20
231.9650537211
 30
0.0
 10
250.4433138035
 20
231.719892439
 30
0.0
 10
244.8699216276
 20
230.8085975031
 30
0.0
 10
239.3829262251
 20
229.5319281653
 30
0.0
 10
236.6023348701
 20
228.8593102655
 30
0.0
  0
SPLINE
  5
381
100
AcDbEntity
  8
0
100
AcDbSpline
 62
7
  6
CONTINUOUS
 70
0
 71
3
 72
9
 73
5
 74
0
 42
0.0000001
 43
0.0000001
 44
0.0000000001
 40
0.0
 40
0.0
 40
0.0
 40
0.0
 40
0.5157466345
 40
1.0
 40
1.0
 40
1.0
 40
1.0
 10
124.7055038024
 20
234.2198390841
 30
0.0
 10
124.8210447593
 20
234.1703096549
 30
0.0
 10
125.0881887661
 20
234.1829665509
 30
0.0
 10
125.3023380092
 20
234.3694806056
 30
0.0
 10
125.3281411253
 20
234.4846589229
 30
0.0
  0
SPLINE
  5
382
100
AcDbEntity
  8
0
100
AcDbSpline
 62
7
  6
CONTINUOUS
 70
0
 71
3
 72
11
 73
7
 74
0
 42
0.0000001
 43
0.0000001
 44
0.0000000001
 40
0.0
 40
0.0
 40
0.0
 40
0.0
 40
0.2861049548
 40
0.5419216122
 40
0.7736876213
 40
1.0
 40
1.0
 40
1.0
 40
1.0
 10
124.5843250149
 20
235.2109438162
 30
0.0
 10
124.6501656934
 20
235.178302426
 30
0.0
 10
124.7919691011
 20
235.1484180194
 30
0.0
 10
124.9914490445
 20
235.1845082521
 30
0.0
 10
125.1509456456
 20
235.2868947559
 30
0.0
 10
125.2024613416
 20
235.4058083032
 30
0.0
 10
125.2020871365
 20
235.4639368037
 30
0.0
  0
SPLINE
  5
383
100
AcDbEntity
  8
0
100
AcDbSpline
 62
7
  6
CONTINUOUS
 70
0
 71
3
 72
13
 73
9
 74
0
 42
0.0000001
 43
0.0000001
 44
0.0000000001
 40
0.0
 40
0.0
 40
0.0
 40
0.0
 40
0.1611149179
 40
0.3607199168
 40
0.4818013503
 40
0.6253400815
 40
0.7991217687
 40
1.0
 40
1.0
 40
1.0
 40
1.0
 10
256.0636236038
 20
229.0471120816
 30
0.0
 10
256.1450913218
 20
229.2886780138
 30
0.0
 10
256.2297162873
 20
229.8636004258
 30
0.0
 10
256.0795351359
 20
230.635117423
 30
0.0
 10
255.6791623296
 20
231.263468847
 30
0.0
 10
255.1256122059
 20
231.7051406
 30
0.0
 10
254.3345254212
 20
231.9702676687
 30
0.0
 10
253.7360703034
 20
231.9976324963
 30
0.0
 10
253.4185962795
 20
231.9821499391
 30
0.0
  0
SPLINE
  5
384
100
AcDbEntity
  8
0
100
AcDbSpline
 62
7
  6
CONTINUOUS
 70
0
 71
3
 72
14
 73
10
 74
0
 42
0.0000001
 43
0.0000001
 44
0.0000000001
 40
0.0
 40
0.0
 40
0.0
 40
0.0
 40
0.0157496876
 40
0.0628981969
 40
0.1414411533
 40
0.2512940426
 40
0.3922694033
 40
0.5641736762
 40
1.0
 40
1.0
 40
1.0
 40
1.0
 10
273.918392567
 20
230.5533798313
 30
0.0
 10
273.9208374068
 20
230.553434426
 30
0.0
 10
273.9161605607
 20
230.5689644032
 30
0.0
 10
273.9223411606
 20
230.5853202512
 30
0.0
 10
273.920993298
 20
230.6250388
 30
0.0
 10
273.9241609083
 20
230.6747423691
 30
0.0
 10
273.9257754548
 20
230.7408891971
 30
0.0
 10
273.9292380299
 20
230.8568332384
 30
0.0
 10
273.9311076942
 20
230.9512954298
 30
0.0
 10
273.9322928016
 20
231.0189556735
 30
0.0
  0
SPLINE
  5
385
100
AcDbEntity
  8
0
100
AcDbSpline
 62
7
  6
CONTINUOUS
 70
0
 71
3
 72
10
 73
6
 74
0
 42
0.0000001
 43
0.0000001
 44
0.0000000001
 40
0.0
 40
0.0
 40
0.0
 40
0.0
 40
0.0851417596
 40
0.2869342438
 40
1.0
 40
1.0
 40
1.0
 40
1.0
 10
271.7227144461
 20
230.21915087
 30
0.0
 10
271.7127666245
 20
230.2175637207
 30
0.0
 10
271.6786131453
 20
230.2182320738
 30
0.0
 10
271.5605750058
 20
230.2148795045
 30
0.0
 10
271.4521747835
 20
230.215511141
 30
0.0
 10
271.3678082831
 20
230.2151824336
 30
0.0
  0
SPLINE
  5
386
100
AcDbEntity
  8
0
100
AcDbSpline
 62
7
  6
CONTINUOUS
 70
0
 71
3
 72
9
 73
5
 74
0
 42
0.0000001
 43
0.0000001
 44
0.0000000001
 40
0.0
 40
0.0
 40
0.0
 40
0.0
 40
0.2180712535
 40
1.0
 40
1.0
 40
1.0
 40
1.0
 10
271.3678082831
 20
230.2151824336
 30
0.0
 10
271.3272172419
 20
230.2150242834
 30
0.0
 10
271.1410802775
 20
230.2144801361
 30
0.0
 10
270.9549408934
 20
230.2138900774
 30
0.0
 10
270.8094008883
 20
230.2124981279
 30
0.0
  0
SPLINE
  5
387
100
AcDbEntity
  8
0
100
AcDbSpline
 62
7
  6
CONTINUOUS
 70
0
 71
3
 72
9
 73
5
 74
0
 42
0.0000001
 43
0.0000001
 44
0.0000000001
 40
0.0
 40
0.0
 40
0.0
 40
0.0
 40
0.5431018466
 40
1.0
 40
1.0
 40
1.0
 40
1.0
 10
253.8085247819
 20
234.0076746933
 30
0.0
 10
253.7408721642
 20
233.6273252613
 30
0.0
 10
253.5846391741
 20
232.9322754637
 30
0.0
 10
253.3456317064
 20
232.2586066916
 30
0.0
 10
253.2058244207
 20
231.9652136675
 30
0.0
  0
SPLINE
  5
388
100
AcDbEntity
  8
0
100
AcDbSpline
 62
7
  6
CONTINUOUS
 70
0
 71
3
 72
9
 73
5
 74
0
 42
0.0000001
 43
0.0000001
 44
0.0000000001
 40
0.0
 40
0.0
 40
0.0
 40
0.0
 40
0.5402934966
 40
1.0
 40
1.0
 40
1.0
 40
1.0
 10
254.1514842941
 20
234.030310162
 30
0.0
 10
254.0629553985
 20
233.647767641
 30
0.0
 10
253.8650496998
 20
232.9471677167
 30
0.0
 10
253.580249062
 20
232.2745127713
 30
0.0
 10
253.4185998259
 20
231.9821369712
 30
0.0
  0
SPLINE
  5
389
100
AcDbEntity
  8
0
100
AcDbSpline
 62
7
  6
CONTINUOUS
 70
0
 71
3
 72
9
 73
5
 74
0
 42
0.0000001
 43
0.0000001
 44
0.0000000001
 40
0.0
 40
0.0
 40
0.0
 40
0.0
 40
0.5048863449
 40
1.0
 40
1.0
 40
1.0
 40
1.0
 10
256.0636236038
 20
229.0471120816
 30
0.0
 10
256.0213671416
 20
228.925648824
 30
0.0
 10
255.9997499221
 20
228.6554902044
 30
0.0
 10
256.1267952275
 20
228.4219744076
 30
0.0
 10
256.2048033001
 20
228.3228804805
 30
0.0
  0
SPLINE
  5
38A
100
AcDbEntity
  8
0
100
AcDbSpline
 62
7
  6
CONTINUOUS
 70
0
 71
3
 72
9
 73
5
 74
0
 42
0.0000001
 43
0.0000001
 44
0.0000000001
 40
0.0
 40
0.0
 40
0.0
 40
0.0
 40
0.2574575056
 40
1.0
 40
1.0
 40
1.0
 40
1.0
 10
259.1626329094
 20
228.9168839849
 30
0.0
 10
258.924614063
 20
228.8120068776
 30
0.0
 10
257.9795667044
 20
228.454526528
 30
0.0
 10
256.954467129
 20
228.2958158597
 30
0.0
 10
256.2047941866
 20
228.3229750671
 30
0.0
  0
SPLINE
  5
38B
100
AcDbEntity
  8
0
100
AcDbSpline
 62
7
  6
CONTINUOUS
 70
0
 71
3
 72
9
 73
5
 74
0
 42
0.0000001
 43
0.0000001
 44
0.0000000001
 40
0.0
 40
0.0
 40
0.0
 40
0.0
 40
0.4939629255
 40
1.0
 40
1.0
 40
1.0
 40
1.0
 10
253.808528765
 20
234.0076819044
 30
0.0
 10
250.8705553403
 20
233.7352519631
 30
0.0
 10
244.9655533385
 20
232.7578035906
 30
0.0
 10
239.134241884
 20
231.4702150906
 30
0.0
 10
236.1857070903
 20
230.8047419217
 30
0.0
  0
SPLINE
  5
38C
100
AcDbEntity
  8
0
100
AcDbSpline
 62
7
  6
CONTINUOUS
 70
0
 71
3
 72
16
 73
12
 74
0
 42
0.0000001
 43
0.0000001
 44
0.0000000001
 40
0.0
 40
0.0
 40
0.0
 40
0.0
 40
0.0090326084
 40
0.0300506556
 40
0.0621222967
 40
0.1041345275
 40
0.2121658462
 40
0.3443023947
 40
0.4932874602
 40
0.6542177009
 40
1.0
 40
1.0
 40
1.0
 40
1.0
 10
271.2678561996
 20
230.1358643954
 30
0.0
 10
271.2591571485
 20
230.1340058015
 30
0.0
 10
271.2293196743
 20
230.1338149844
 30
0.0
 10
271.1684360167
 20
230.1298998623
 30
0.0
 10
271.0747254512
 20
230.1270149255
 30
0.0
 10
270.8955658152
 20
230.1199821836
 30
0.0
 10
270.6178273811
 20
230.1097386669
 30
0.0
 10
270.2349517483
 20
230.093267004
 30
0.0
 10
269.8001294045
 20
230.071958744
 30
0.0
 10
269.1554208619
 20
230.0354940651
 30
0.0
 10
268.6575584056
 20
230.0011338342
 30
0.0
 10
268.3180468125
 20
229.9748283366
 30
0.0
  0
SPLINE
  5
38D
100
AcDbEntity
  8
0
100
AcDbSpline
 62
7
  6
CONTINUOUS
 70
0
 71
3
 72
9
 73
5
 74
0
 42
0.0000001
 43
0.0000001
 44
0.0000000001
 40
0.0
 40
0.0
 40
0.0
 40
0.0
 40
0.5675894751
 40
1.0
 40
1.0
 40
1.0
 40
1.0
 10
235.0261852804
 20
230.7974905416
 30
0.0
 10
235.2736337618
 20
230.3923878901
 30
0.0
 10
235.7427119779
 20
229.699249697
 30
0.0
 10
236.3165449315
 20
229.0781004563
 30
0.0
 10
236.6037093726
 20
228.8582773116
 30
0.0
  0
SPLINE
  5
38E
100
AcDbEntity
  8
0
100
AcDbSpline
 62
7
  6
CONTINUOUS
 70
0
 71
3
 72
9
 73
5
 74
0
 42
0.0000001
 43
0.0000001
 44
0.0000000001
 40
0.0
 40
0.0
 40
0.0
 40
0.0
 40
0.2425831176
 40
1.0
 40
1.0
 40
1.0
 40
1.0
 10
236.1858206578
 20
230.8047690445
 30
0.0
 10
236.1825370052
 20
230.9127280414
 30
0.0
 10
236.1691865515
 20
231.3577715479
 30
0.0
 10
236.156451784
 20
231.8028444446
 30
0.0
 10
236.1436909785
 20
232.1398390153
 30
0.0
  0
SPLINE
  5
38F
100
AcDbEntity
  8
0
100
AcDbSpline
 62
7
  6
CONTINUOUS
 70
0
 71
3
 72
9
 73
5
 74
0
 42
0.0000001
 43
0.0000001
 44
0.0000000001
 40
0.0
 40
0.0
 40
0.0
 40
0.0
 40
0.243970919
 40
1.0
 40
1.0
 40
1.0
 40
1.0
 10
254.151604521
 20
235.3697785392
 30
0.0
 10
255.7581483391
 20
235.6691212908
 30
0.0
 10
262.3464369704
 20
236.8783623296
 30
0.0
 10
268.9436419614
 20
238.0381801256
 30
0.0
 10
273.9311814599
 20
238.9155396823
 30
0.0
  0
SPLINE
  5
390
100
AcDbEntity
  8
0
100
AcDbSpline
 62
7
  6
CONTINUOUS
 70
0
 71
3
 72
9
 73
5
 74
0
 42
0.0000001
 43
0.0000001
 44
0.0000000001
 40
0.0
 40
0.0
 40
0.0
 40
0.0
 40
0.4957479403
 40
1.0
 40
1.0
 40
1.0
 40
1.0
 10
273.9318772218
 20
245.2855230666
 30
0.0
 10
273.931778324
 20
246.1089954313
 30
0.0
 10
273.8925696949
 20
247.7699473839
 30
0.0
 10
273.9281869494
 20
249.4310294121
 30
0.0
 10
273.9239968889
 20
250.2686172456
 30
0.0
  0
SPLINE
  5
391
100
AcDbEntity
  8
0
100
AcDbSpline
 62
7
  6
CONTINUOUS
 70
0
 71
3
 72
9
 73
5
 74
0
 42
0.0000001
 43
0.0000001
 44
0.0000000001
 40
0.0
 40
0.0
 40
0.0
 40
0.0
 40
0.2442474552
 40
1.0
 40
1.0
 40
1.0
 40
1.0
 10
254.1515239983
 20
242.6969769522
 30
0.0
 10
255.7610084034
 20
242.914873103
 30
0.0
 10
262.3521143284
 20
243.7955947289
 30
0.0
 10
268.9469394868
 20
244.6482116294
 30
0.0
 10
273.9318776965
 20
245.2855169085
 30
0.0
  0
SPLINE
  5
392
100
AcDbEntity
  8
0
100
AcDbSpline
 62
7
  6
CONTINUOUS
 70
0
 71
3
 72
9
 73
5
 74
0
 42
0.0000001
 43
0.0000001
 44
0.0000000001
 40
0.0
 40
0.0
 40
0.0
 40
0.0
 40
0.2437897606
 40
1.0
 40
1.0
 40
1.0
 40
1.0
 10
254.151497407
 20
254.3336722625
 30
0.0
 10
255.7589004469
 20
254.41414276
 30
0.0
 10
262.3525458423
 20
254.7393014119
 30
0.0
 10
268.9468545314
 20
255.0507757805
 30
0.0
 10
273.9335275156
 20
255.2864638354
 30
0.0
  0
SPLINE
  5
393
100
AcDbEntity
  8
0
100
AcDbSpline
 62
7
  6
CONTINUOUS
 70
0
 71
3
 72
9
 73
5
 74
0
 42
0.0000001
 43
0.0000001
 44
0.0000000001
 40
0.0
 40
0.0
 40
0.0
 40
0.0
 40
0.2437760342
 40
1.0
 40
1.0
 40
1.0
 40
1.0
 10
254.1514934847
 20
259.9905816554
 30
0.0
 10
255.7588699079
 20
260.0085612517
 30
0.0
 10
262.3525428264
 20
260.081213234
 30
0.0
 10
268.9462489304
 20
260.1508010424
 30
0.0
 10
273.9325669703
 20
260.203458162
 30
0.0
  0
SPLINE
  5
394
100
AcDbEntity
  8
0
100
AcDbSpline
 62
7
  6
CONTINUOUS
 70
0
 71
3
 72
11
 73
7
 74
0
 42
0.0000001
 43
0.0000001
 44
0.0000000001
 40
0.0
 40
0.0
 40
0.0
 40
0.0
 40
0.2285243921
 40
0.4737985887
 40
0.7322191874
 40
1.0
 40
1.0
 40
1.0
 40
1.0
 10
236.1436919667
 20
232.1398345795
 30
0.0
 10
236.118402004
 20
232.7612593194
 30
0.0
 10
236.0533362938
 20
234.0491381674
 30
0.0
 10
235.9296894133
 20
236.0381046205
 30
0.0
 10
235.828020689
 20
238.1352062947
 30
0.0
 10
235.7762187624
 20
239.5666771171
 30
0.0
 10
235.7256544426
 20
240.2936980672
 30
0.0
  0
SPLINE
  5
395
100
AcDbEntity
  8
0
100
AcDbSpline
 62
7
  6
CONTINUOUS
 70
0
 71
3
 72
13
 73
9
 74
0
 42
0.0000001
 43
0.0000001
 44
0.0000000001
 40
0.0
 40
0.0
 40
0.0
 40
0.0
 40
0.1411769641
 40
0.2803087665
 40
0.4158024239
 40
0.5462796496
 40
0.7881418719
 40
1.0
 40
1.0
 40
1.0
 40
1.0
 10
230.1079173309
 20
240.277925687
 30
0.0
 10
230.6058324028
 20
240.0220541617
 30
0.0
 10
231.5195855508
 20
239.3442398026
 30
0.0
 10
232.4510466937
 20
237.952964593
 30
0.0
 10
232.9754593559
 20
236.4217517569
 30
0.0
 10
233.2877526851
 20
234.4259807188
 30
0.0
 10
233.2491826879
 20
232.0958903023
 30
0.0
 10
232.9820456518
 20
230.3131429174
 30
0.0
 10
232.8095212937
 20
229.4909632388
 30
0.0
  0
LINE
  5
396
100
AcDbEntity
  8
0
100
AcDbLine
 62
7
  6
CONTINUOUS
 10
113.5475311067
 20
260.0526807372
 11
113.5475878541
 21
260.2033771955
  0
SPLINE
  5
397
100
AcDbEntity
  8
0
100
AcDbSpline
 62
7
  6
CONTINUOUS
 70
0
 71
3
 72
19
 73
15
 74
0
 42
0.0000001
 43
0.0000001
 44
0.0000000001
 40
0.0
 40
0.0
 40
0.0
 40
0.0
 40
0.0108937803
 40
0.0230974208
 40
0.042774689
 40
0.0714862451
 40
0.1095212317
 40
0.1566096203
 40
0.2123097809
 40
0.2761359165
 40
0.4258604732
 40
0.6003100247
 40
0.7936463759
 40
1.0
 40
1.0
 40
1.0
 40
1.0
 10
113.0003192442
 20
247.9561066537
 30
0.0
 10
113.0080624126
 20
247.9490359895
 30
0.0
 10
113.032128383
 20
247.9381631612
 30
0.0
 10
113.0675565458
 20
247.9679616776
 30
0.0
 10
113.0946606219
 20
248.0184516215
 30
0.0
 10
113.1242719727
 20
248.0969879994
 30
0.0
 10
113.152868424
 20
248.2026232244
 30
0.0
 10
113.1815135748
 20
248.3352314261
 30
0.0
 10
113.2092239821
 20
248.4931981617
 30
0.0
 10
113.2466516494
 20
248.7496850054
 30
0.0
 10
113.2874236897
 20
249.1210185717
 30
0.0
 10
113.3270752846
 20
249.6176124604
 30
0.0
 10
113.3578225635
 20
250.1694382612
 30
0.0
 10
113.371098605
 20
250.5539604562
 30
0.0
 10
113.3759414978
 20
250.7525259814
 30
0.0
  0
SPLINE
  5
398
100
AcDbEntity
  8
0
100
AcDbSpline
 62
7
  6
CONTINUOUS
 70
0
 71
3
 72
9
 73
5
 74
0
 42
0.0000001
 43
0.0000001
 44
0.0000000001
 40
0.0
 40
0.0
 40
0.0
 40
0.0
 40
0.5008645755
 40
1.0
 40
1.0
 40
1.0
 40
1.0
 10
113.000449954
 20
247.9561577105
 30
0.0
 10
112.986238485
 20
246.8883517911
 30
0.0
 10
113.3249224203
 20
244.7350589754
 30
0.0
 10
114.3768622582
 20
242.8249701678
 30
0.0
 10
115.0424544519
 20
241.9945859719
 30
0.0
  0
SPLINE
  5
399
100
AcDbEntity
  8
0
100
AcDbSpline
 62
7
  6
CONTINUOUS
 70
0
 71
3
 72
9
 73
5
 74
0
 42
0.0000001
 43
0.0000001
 44
0.0000000001
 40
0.0
 40
0.0
 40
0.0
 40
0.0
 40
0.2516200747
 40
1.0
 40
1.0
 40
1.0
 40
1.0
 10
121.5727630095
 20
253.4843363552
 30
0.0
 10
121.3221569867
 20
253.4955404532
 30
0.0
 10
120.3264927252
 20
253.5463561338
 30
0.0
 10
119.332047329
 20
253.623324509
 30
0.0
 10
118.5898415847
 20
253.6995375482
 30
0.0
  0
LINE
  5
39A
100
AcDbEntity
  8
0
100
AcDbLine
 62
7
  6
CONTINUOUS
 10
118.5898415847
 20
253.6995375482
 11
118.5317987244
 21
253.7055364574
  0
SPLINE
  5
39B
100
AcDbEntity
  8
0
100
AcDbSpline
 62
7
  6
CONTINUOUS
 70
0
 71
3
 72
12
 73
8
 74
0
 42
0.0000001
 43
0.0000001
 44
0.0000000001
 40
0.0
 40
0.0
 40
0.0
 40
0.0
 40
0.3683985148
 40
0.6677624288
 40
0.8784098332
 40
0.9493558316
 40
1.0
 40
1.0
 40
1.0
 40
1.0
 10
118.5317987244
 20
253.7055364574
 30
0.0
 10
117.8905888589
 20
253.7722375261
 30
0.0
 10
116.7297556035
 20
253.9167150133
 30
0.0
 10
115.2206443477
 20
254.2058357984
 30
0.0
 10
114.2372821621
 20
254.4865940729
 30
0.0
 10
113.7138478477
 20
254.7410574251
 30
0.0
 10
113.5395365021
 20
254.8686631529
 30
0.0
 10
113.4801005279
 20
254.9344011882
 30
0.0
  0
SPLINE
  5
39C
100
AcDbEntity
  8
0
100
AcDbSpline
 62
7
  6
CONTINUOUS
 70
0
 71
3
 72
14
 73
10
 74
0
 42
0.0000001
 43
0.0000001
 44
0.0000000001
 40
0.0
 40
0.0
 40
0.0
 40
0.0
 40
0.0453693857
 40
0.1178846093
 40
0.2200072497
 40
0.3489718853
 40
0.4998234127
 40
0.664359695
 40
1.0
 40
1.0
 40
1.0
 40
1.0
 10
113.3759433186
 20
250.7525250408
 30
0.0
 10
113.4712342504
 20
250.6426738432
 30
0.0
 10
113.8046430868
 20
250.4422792101
 30
0.0
 10
114.4634014905
 20
250.1976832248
 30
0.0
 10
115.4102941505
 20
249.9599831423
 30
0.0
 10
116.6144068194
 20
249.7399926478
 30
0.0
 10
118.0272645255
 20
249.55429359
 30
0.0
 10
120.1049177506
 20
249.3577943745
 30
0.0
 10
121.7075370631
 20
249.2818562902
 30
0.0
 10
122.7831060414
 20
249.2583184648
 30
0.0
  0
LINE
  5
39D
100
AcDbEntity
  8
0
100
AcDbLine
 62
7
  6
CONTINUOUS
 10
113.4801898264
 20
254.9344010428
 11
113.3759823805
 21
250.7525237243
  0
SPLINE
  5
39E
100
AcDbEntity
  8
0
100
AcDbSpline
 62
7
  6
CONTINUOUS
 70
0
 71
3
 72
10
 73
6
 74
0
 42
0.0000001
 43
0.0000001
 44
0.0000000001
 40
0.0
 40
0.0
 40
0.0
 40
0.0
 40
0.2292674988
 40
0.6024804377
 40
1.0
 40
1.0
 40
1.0
 40
1.0
 10
235.0828808916
 20
232.1430446611
 30
0.0
 10
235.1003895519
 20
232.7653074785
 30
0.0
 10
235.1566672769
 20
234.4002118737
 30
0.0
 10
235.2705990863
 20
237.1131444734
 30
0.0
 10
235.4068004958
 20
239.2016457303
 30
0.0
 10
235.4881315096
 20
240.277925687
 30
0.0
  0
SPLINE
  5
39F
100
AcDbEntity
  8
0
100
AcDbSpline
 62
7
  6
CONTINUOUS
 70
0
 71
3
 72
9
 73
5
 74
0
 42
0.0000001
 43
0.0000001
 44
0.0000000001
 40
0.0
 40
0.0
 40
0.0
 40
0.0
 40
0.2434512485
 40
1.0
 40
1.0
 40
1.0
 40
1.0
 10
235.0262419114
 20
230.7975062878
 30
0.0
 10
235.0310165521
 20
230.9066897488
 30
0.0
 10
235.0507806745
 20
231.3551643607
 30
0.0
 10
235.0700761464
 20
231.8036641589
 30
0.0
 10
235.0829027461
 20
232.1430445014
 30
0.0
  0
SPLINE
  5
3A0
100
AcDbEntity
  8
0
100
AcDbSpline
 62
7
  6
CONTINUOUS
 70
0
 71
3
 72
11
 73
7
 74
0
 42
0.0000001
 43
0.0000001
 44
0.0000000001
 40
0.0
 40
0.0
 40
0.0
 40
0.0
 40
0.2501281127
 40
0.5003069897
 40
0.7503758011
 40
1.0
 40
1.0
 40
1.0
 40
1.0
 10
223.1070023616
 20
240.2781058066
 30
0.0
 10
223.6807553765
 20
240.4271762309
 30
0.0
 10
224.8415424009
 20
240.6782894024
 30
0.0
 10
226.6144642709
 20
240.8667948941
 30
0.0
 10
228.3982517321
 20
240.7950375515
 30
0.0
 10
229.5594051263
 20
240.4995929178
 30
0.0
 10
230.1079158635
 20
240.2779265571
 30
0.0
  0
SPLINE
  5
3A1
100
AcDbEntity
  8
0
100
AcDbSpline
 62
7
  6
CONTINUOUS
 70
0
 71
3
 72
29
 73
25
 74
0
 42
0.0000001
 43
0.0000001
 44
0.0000000001
 40
0.0
 40
0.0
 40
0.0
 40
0.0
 40
0.1609316248
 40
0.3189925506
 40
0.396682537
 40
0.473259419
 40
0.5484953306
 40
0.622024094
 40
0.6933737819
 40
0.7617903789
 40
0.8261734794
 40
0.8561810738
 40
0.8843218221
 40
0.9102282915
 40
0.9332881841
 40
0.9528105949
 40
0.9680165198
 40
0.9737966142
 40
0.9783321473
 40
0.9841050673
 40
0.9866108135
 40
0.9899075316
 40
0.994340104
 40
1.0
 40
1.0
 40
1.0
 40
1.0
 10
219.5182464952
 20
235.7281284077
 30
0.0
 10
218.4442613825
 20
235.1116589386
 30
0.0
 10
216.3019198582
 20
233.9131794845
 30
0.0
 10
213.6112945351
 20
232.4715186693
 30
0.0
 10
211.4812448764
 20
231.3585064235
 30
0.0
 10
209.9115112852
 20
230.5494051119
 30
0.0
 10
208.3668495866
 20
229.7615953431
 30
0.0
 10
206.8561308709
 20
228.9957803236
 30
0.0
 10
205.3917770714
 20
228.2545533056
 30
0.0
 10
203.9921328838
 20
227.5413305423
 30
0.0
 10
202.8794536738
 20
226.9656152609
 30
0.0
 10
202.047308726
 20
226.5222812064
 30
0.0
 10
201.4799461335
 20
226.2117316791
 30
0.0
 10
200.9639536761
 20
225.9187027923
 30
0.0
 10
200.5119917007
 20
225.6477163044
 30
0.0
 10
200.1398027642
 20
225.403454917
 30
0.0
 10
199.8903243711
 20
225.2174308064
 30
0.0
 10
199.7471519981
 20
225.079753826
 30
0.0
 10
199.6701837764
 20
224.9882754416
 30
0.0
 10
199.6223954371
 20
224.8795752909
 30
0.0
 10
199.6839735569
 20
224.8055319997
 30
0.0
 10
199.7579687759
 20
224.7756418188
 30
0.0
 10
199.8594356367
 20
224.7561741061
 30
0.0
 10
199.937170416
 20
224.7517852139
 30
0.0
 10
199.9807110314
 20
224.7507990832
 30
0.0
  0
SPLINE
  5
3A2
100
AcDbEntity
  8
0
100
AcDbSpline
 62
7
  6
CONTINUOUS
 70
0
 71
3
 72
9
 73
5
 74
0
 42
0.0000001
 43
0.0000001
 44
0.0000000001
 40
0.0
 40
0.0
 40
0.0
 40
0.0
 40
0.5834390404
 40
1.0
 40
1.0
 40
1.0
 40
1.0
 10
113.0765893463
 20
261.6034068187
 30
0.0
 10
113.0765893463
 20
261.8495214074
 30
0.0
 10
113.091605999
 20
262.2711225607
 30
0.0
 10
113.1389288213
 20
262.6919041503
 30
0.0
 10
113.1771942808
 20
262.8634068187
 30
0.0
  0
SPLINE
  5
3A3
100
AcDbEntity
  8
0
100
AcDbSpline
 62
7
  6
CONTINUOUS
 70
0
 71
3
 72
17
 73
13
 74
0
 42
0.0000001
 43
0.0000001
 44
0.0000000001
 40
0.0
 40
0.0
 40
0.0
 40
0.0
 40
0.0668905526
 40
0.1338213083
 40
0.2001824557
 40
0.2662953393
 40
0.3321037573
 40
0.3974509617
 40
0.5263663729
 40
0.7748631563
 40
0.8909990821
 40
1.0
 40
1.0
 40
1.0
 40
1.0
 10
273.1003305635
 20
269.6780427751
 30
0.0
 10
273.0625955643
 20
269.812783672
 30
0.0
 10
272.92739577
 20
270.0628142031
 30
0.0
 10
272.6942787055
 20
270.4095767998
 30
0.0
 10
272.5093954991
 20
270.784674308
 30
0.0
 10
272.3286189374
 20
271.1577963313
 30
0.0
 10
272.1274201413
 20
271.5182889586
 30
0.0
 10
271.8694455154
 20
271.9972535573
 30
0.0
 10
271.4533525113
 20
272.8247362798
 30
0.0
 10
270.97895053
 20
273.7422848952
 30
0.0
 10
270.5815590338
 20
274.650180714
 30
0.0
 10
270.4024750482
 20
275.0857566006
 30
0.0
 10
270.3120649627
 20
275.295080017
 30
0.0
  0
SPLINE
  5
3A4
100
AcDbEntity
  8
0
100
AcDbSpline
 62
7
  6
CONTINUOUS
 70
0
 71
3
 72
14
 73
10
 74
0
 42
0.0000001
 43
0.0000001
 44
0.0000000001
 40
0.0
 40
0.0
 40
0.0
 40
0.0
 40
0.1177500042
 40
0.2392445165
 40
0.3631939085
 40
0.4888218767
 40
0.743416219
 40
0.8716927283
 40
1.0
 40
1.0
 40
1.0
 40
1.0
 10
269.9555570674
 20
275.3012928866
 30
0.0
 10
269.5591486125
 20
275.3088957717
 30
0.0
 10
268.7537894162
 20
275.3304819798
 30
0.0
 10
267.5324028141
 20
275.3932697613
 30
0.0
 10
266.2854578655
 20
275.4731195527
 30
0.0
 10
264.5925871006
 20
275.5981393956
 30
0.0
 10
262.8879427134
 20
275.7759494187
 30
0.0
 10
261.1923051551
 20
276.075295228
 30
0.0
 10
260.3476088348
 20
276.2569661853
 30
0.0
 10
259.9252335632
 20
276.3477867113
 30
0.0
  0
SPLINE
  5
3A5
100
AcDbEntity
  8
0
100
AcDbSpline
 62
7
  6
CONTINUOUS
 70
0
 71
3
 72
9
 73
5
 74
0
 42
0.0000001
 43
0.0000001
 44
0.0000000001
 40
0.0
 40
0.0
 40
0.0
 40
0.0
 40
0.2649358517
 40
1.0
 40
1.0
 40
1.0
 40
1.0
 10
230.1079114432
 20
240.2779281041
 30
0.0
 10
230.0552800821
 20
240.150603767
 30
0.0
 10
229.8550016093
 20
239.6706934538
 30
0.0
 10
229.6489727198
 20
239.1931575929
 30
0.0
 10
229.4927874565
 20
238.8442691837
 30
0.0
  0
SPLINE
  5
3A6
100
AcDbEntity
  8
0
100
AcDbSpline
 62
7
  6
CONTINUOUS
 70
0
 71
3
 72
9
 73
5
 74
0
 42
0.0000001
 43
0.0000001
 44
0.0000000001
 40
0.0
 40
0.0
 40
0.0
 40
0.0
 40
0.5041168189
 40
1.0
 40
1.0
 40
1.0
 40
1.0
 10
229.4927828435
 20
238.8442694881
 30
0.0
 10
229.7396689668
 20
238.7560253786
 30
0.0
 10
230.2114074796
 20
238.5182284292
 30
0.0
 10
230.586008539
 20
238.143071797
 30
0.0
 10
230.7385178234
 20
237.9350967742
 30
0.0
  0
SPLINE
  5
3A7
100
AcDbEntity
  8
0
100
AcDbSpline
 62
7
  6
CONTINUOUS
 70
0
 71
3
 72
9
 73
5
 74
0
 42
0.0000001
 43
0.0000001
 44
0.0000000001
 40
0.0
 40
0.0
 40
0.0
 40
0.0
 40
0.2462571176
 40
1.0
 40
1.0
 40
1.0
 40
1.0
 10
278.2520544071
 20
275.6034068182
 30
0.0
 10
277.6988768668
 20
275.6033915939
 30
0.0
 10
275.4525251736
 20
275.5801148919
 30
0.0
 10
273.2077319957
 20
275.4620724724
 30
0.0
 10
271.5193161773
 20
275.3353616428
 30
0.0
  0
SPLINE
  5
3A8
100
AcDbEntity
  8
0
100
AcDbSpline
 62
7
  6
CONTINUOUS
 70
0
 71
3
 72
9
 73
5
 74
0
 42
0.0000001
 43
0.0000001
 44
0.0000000001
 40
0.0
 40
0.0
 40
0.0
 40
0.0
 40
0.2468496631
 40
1.0
 40
1.0
 40
1.0
 40
1.0
 10
271.5193672399
 20
275.3352941757
 30
0.0
 10
271.4202275825
 20
275.3278532639
 30
0.0
 10
271.018268375
 20
275.3022870804
 30
0.0
 10
270.6153110327
 20
275.2935888785
 30
0.0
 10
270.3119824747
 20
275.2947269346
 30
0.0
  0
SPLINE
  5
3A9
100
AcDbEntity
  8
0
100
AcDbSpline
 62
7
  6
CONTINUOUS
 70
0
 71
3
 72
8
 73
4
 74
0
 42
0.0000001
 43
0.0000001
 44
0.0000000001
 40
0.0
 40
0.0
 40
0.0
 40
0.0
 40
1.0
 40
1.0
 40
1.0
 40
1.0
 10
274.8815128847
 20
269.3413869683
 30
0.0
 10
274.860218511
 20
269.3057847783
 30
0.0
 10
274.8428116896
 20
269.2657547221
 30
0.0
 10
274.8389038154
 20
269.224454664
 30
0.0
  0
SPLINE
  5
3AA
100
AcDbEntity
  8
0
100
AcDbSpline
 62
7
  6
CONTINUOUS
 70
0
 71
3
 72
23
 73
19
 74
0
 42
0.0000001
 43
0.0000001
 44
0.0000000001
 40
0.0
 40
0.0
 40
0.0
 40
0.0
 40
0.008324053
 40
0.0138169267
 40
0.021183001
 40
0.0421649117
 40
0.0718381772
 40
0.1104793035
 40
0.1581472771
 40
0.2147394585
 40
0.2796242189
 40
0.4311291878
 40
0.6061382188
 40
0.7977245509
 40
0.8476733838
 40
0.8976433134
 40
0.9483464884
 40
1.0
 40
1.0
 40
1.0
 40
1.0
 10
278.2521228649
 20
275.603406819
 30
0.0
 10
278.2721722997
 20
275.6033996634
 30
0.0
 10
278.3075889483
 20
275.5821594365
 30
0.0
 10
278.3167580093
 20
275.5303258162
 30
0.0
 10
278.3152960128
 20
275.4490434539
 30
0.0
 10
278.2884243137
 20
275.310963691
 30
0.0
 10
278.2377240246
 20
275.1022440276
 30
0.0
 10
278.1518712094
 20
274.8359830602
 30
0.0
 10
278.0274552027
 20
274.5149496495
 30
0.0
 10
277.8592737034
 20
274.1436630732
 30
0.0
 10
277.5635649318
 20
273.5562670703
 30
0.0
 10
277.0959999964
 20
272.7369600373
 30
0.0
 10
276.4303732242
 20
271.6812475934
 30
0.0
 10
275.8788387124
 20
270.843089288
 30
0.0
 10
275.4873839235
 20
270.2602219656
 30
0.0
 10
275.2867087936
 20
269.9579719885
 30
0.0
 10
275.0924155301
 20
269.6466405204
 30
0.0
 10
274.9484247478
 20
269.4462778735
 30
0.0
 10
274.8815774278
 20
269.3413487001
 30
0.0
  0
SPLINE
  5
3AB
100
AcDbEntity
  8
0
100
AcDbSpline
 62
7
  6
CONTINUOUS
 70
0
 71
3
 72
9
 73
5
 74
0
 42
0.0000001
 43
0.0000001
 44
0.0000000001
 40
0.0
 40
0.0
 40
0.0
 40
0.0
 40
0.2801506002
 40
1.0
 40
1.0
 40
1.0
 40
1.0
 10
223.1070023618
 20
240.2781043504
 30
0.0
 10
223.1629153558
 20
240.0675845381
 30
0.0
 10
223.365387522
 20
239.3169235993
 30
0.0
 10
223.576716622
 20
238.5685035579
 30
0.0
 10
223.741172746
 20
238.0335242153
 30
0.0
  0
SPLINE
  5
3AC
100
AcDbEntity
  8
0
100
AcDbSpline
 62
7
  6
CONTINUOUS
 70
0
 71
3
 72
13
 73
9
 74
0
 42
0.0000001
 43
0.0000001
 44
0.0000000001
 40
0.0
 40
0.0
 40
0.0
 40
0.0
 40
0.3299703901
 40
0.6006903812
 40
0.714698153
 40
0.8169700704
 40
0.9107406626
 40
1.0
 40
1.0
 40
1.0
 40
1.0
 10
343.8437885676
 20
269.2244518489
 30
0.0
 10
343.701316236
 20
270.1630037815
 30
0.0
 10
343.266622864
 20
271.8524092022
 30
0.0
 10
342.26101671
 20
273.6828147409
 30
0.0
 10
341.2895795902
 20
274.7026725527
 30
0.0
 10
340.5545627987
 20
275.2198003181
 30
0.0
 10
339.7876784302
 20
275.5329081163
 30
0.0
 10
339.258756263
 20
275.6034062288
 30
0.0
 10
339.0019627777
 20
275.6034068186
 30
0.0
  0
SPLINE
  5
3AD
100
AcDbEntity
  8
0
100
AcDbSpline
 62
7
  6
CONTINUOUS
 70
0
 71
3
 72
9
 73
5
 74
0
 42
0.0000001
 43
0.0000001
 44
0.0000000001
 40
0.0
 40
0.0
 40
0.0
 40
0.0
 40
0.2929734067
 40
1.0
 40
1.0
 40
1.0
 40
1.0
 10
271.5193063434
 20
275.3353746441
 30
0.0
 10
271.4947488678
 20
275.3748374342
 30
0.0
 10
271.4028614836
 20
275.5015352214
 30
0.0
 10
271.2499155416
 20
275.6034068186
 30
0.0
 10
271.1377465634
 20
275.6034068187
 30
0.0
  0
SPLINE
  5
3AE
100
AcDbEntity
  8
0
100
AcDbSpline
 62
7
  6
CONTINUOUS
 70
0
 71
3
 72
9
 73
5
 74
0
 42
0.0000001
 43
0.0000001
 44
0.0000000001
 40
0.0
 40
0.0
 40
0.0
 40
0.0
 40
0.3004323223
 40
1.0
 40
1.0
 40
1.0
 40
1.0
 10
113.1771942808
 20
262.8634068186
 30
0.0
 10
113.1834685909
 20
262.8849490178
 30
0.0
 10
113.2056402935
 20
262.9561797179
 30
0.0
 10
113.2323676936
 20
263.0266068707
 30
0.0
 10
113.2579317013
 20
263.0721715359
 30
0.0
  0
SPLINE
  5
3AF
100
AcDbEntity
  8
0
100
AcDbSpline
 62
7
  6
CONTINUOUS
 70
0
 71
3
 72
9
 73
5
 74
0
 42
0.0000001
 43
0.0000001
 44
0.0000000001
 40
0.0
 40
0.0
 40
0.0
 40
0.0
 40
0.3429689126
 40
1.0
 40
1.0
 40
1.0
 40
1.0
 10
113.2579317013
 20
263.0721715359
 30
0.0
 10
113.2648217218
 20
263.0844521407
 30
0.0
 10
113.2855011689
 20
263.1181645988
 30
0.0
 10
113.3205440824
 20
263.1534125059
 30
0.0
 10
113.3475200344
 20
263.1534069036
 30
0.0
  0
SPLINE
  5
3B0
100
AcDbEntity
  8
0
100
AcDbSpline
 62
7
  6
CONTINUOUS
 70
0
 71
3
 72
8
 73
4
 74
0
 42
0.0000001
 43
0.0000001
 44
0.0000000001
 40
0.0
 40
0.0
 40
0.0
 40
0.0
 40
1.0
 40
1.0
 40
1.0
 40
1.0
 10
273.1003375902
 20
269.67802482
 30
0.0
 10
273.0752770741
 20
269.5508596242
 30
0.0
 10
273.06391635
 20
269.4199574681
 30
0.0
 10
273.0690867991
 20
269.2904496191
 30
0.0
  0
SPLINE
  5
3B1
100
AcDbEntity
  8
0
100
AcDbSpline
 62
7
  6
CONTINUOUS
 70
0
 71
3
 72
13
 73
9
 74
0
 42
0.0000001
 43
0.0000001
 44
0.0000000001
 40
0.0
 40
0.0
 40
0.0
 40
0.0
 40
0.2483852697
 40
0.4980143674
 40
0.6232159804
 40
0.7486364966
 40
0.8742423817
 40
1.0
 40
1.0
 40
1.0
 40
1.0
 10
235.0637629924
 20
286.6848599714
 30
0.0
 10
235.0922358327
 20
284.7125473503
 30
0.0
 10
235.0727532258
 20
280.7572892623
 30
0.0
 10
235.0177472124
 20
275.8083696822
 30
0.0
 10
235.0548625209
 20
271.8356388833
 30
0.0
 10
235.1237851273
 20
268.8487250876
 30
0.0
 10
235.1853738061
 20
265.8569031649
 30
0.0
 10
235.1257871997
 20
263.8601611584
 30
0.0
 10
235.0639347367
 20
262.8633912064
 30
0.0
  0
SPLINE
  5
3B2
100
AcDbEntity
  8
0
100
AcDbSpline
 62
7
  6
CONTINUOUS
 70
0
 71
3
 72
9
 73
5
 74
0
 42
0.0000001
 43
0.0000001
 44
0.0000000001
 40
0.0
 40
0.0
 40
0.0
 40
0.0
 40
0.2478227055
 40
1.0
 40
1.0
 40
1.0
 40
1.0
 10
253.6767761765
 20
279.6923176447
 30
0.0
 10
252.7996933818
 20
280.1730711133
 30
0.0
 10
249.2613161959
 20
282.1143781307
 30
0.0
 10
245.7298188479
 20
284.0683792195
 30
0.0
 10
243.0839729683
 20
285.5567537805
 30
0.0
  0
SPLINE
  5
3B3
100
AcDbEntity
  8
0
100
AcDbSpline
 62
7
  6
CONTINUOUS
 70
0
 71
3
 72
14
 73
10
 74
0
 42
0.0000001
 43
0.0000001
 44
0.0000000001
 40
0.0
 40
0.0
 40
0.0
 40
0.0
 40
0.1190172598
 40
0.2422462609
 40
0.4935045001
 40
0.6200556412
 40
0.7467755129
 40
0.8733641664
 40
1.0
 40
1.0
 40
1.0
 40
1.0
 10
252.2574478924
 20
282.5212479327
 30
0.0
 10
251.8721057527
 20
282.5123462004
 30
0.0
 10
251.0865549615
 20
282.6254025415
 30
0.0
 10
249.5558231454
 20
283.0915412226
 30
0.0
 10
248.0860705198
 20
283.7908072205
 30
0.0
 10
246.6034560619
 20
284.4754159943
 30
0.0
 10
245.4679335483
 20
284.9517232801
 30
0.0
 10
244.2906691698
 20
285.3168317154
 30
0.0
 10
243.4871840946
 20
285.4858623673
 30
0.0
 10
243.083342598
 20
285.557339403
 30
0.0
  0
SPLINE
  5
3B4
100
AcDbEntity
  8
0
100
AcDbSpline
 62
7
  6
CONTINUOUS
 70
0
 71
3
 72
9
 73
5
 74
0
 42
0.0000001
 43
0.0000001
 44
0.0000000001
 40
0.0
 40
0.0
 40
0.0
 40
0.0
 40
0.1538868108
 40
1.0
 40
1.0
 40
1.0
 40
1.0
 10
252.6609845597
 20
282.7896747796
 30
0.0
 10
252.6395321591
 20
282.7771076346
 30
0.0
 10
252.5028521637
 20
282.6908782831
 30
0.0
 10
252.3697757567
 20
282.5991881154
 30
0.0
 10
252.2574628731
 20
282.521259722
 30
0.0
  0
SPLINE
  5
3B5
100
AcDbEntity
  8
0
100
AcDbSpline
 62
7
  6
CONTINUOUS
 70
0
 71
3
 72
9
 73
5
 74
0
 42
0.0000001
 43
0.0000001
 44
0.0000000001
 40
0.0
 40
0.0
 40
0.0
 40
0.0
 40
0.4998272233
 40
1.0
 40
1.0
 40
1.0
 40
1.0
 10
252.2574628731
 20
282.521259722
 30
0.0
 10
252.5024476078
 20
282.1488919088
 30
0.0
 10
252.9738060659
 20
281.3915808893
 30
0.0
 10
253.4217130203
 20
280.6202250163
 30
0.0
 10
253.6369463713
 20
280.2295528843
 30
0.0
  0
SPLINE
  5
3B6
100
AcDbEntity
  8
0
100
AcDbSpline
 62
7
  6
CONTINUOUS
 70
0
 71
3
 72
10
 73
6
 74
0
 42
0.0000001
 43
0.0000001
 44
0.0000000001
 40
0.0
 40
0.0
 40
0.0
 40
0.0
 40
0.499714871
 40
0.75000223
 40
1.0
 40
1.0
 40
1.0
 40
1.0
 10
273.0690867991
 20
269.290449619
 30
0.0
 10
273.1205535341
 20
268.2073683664
 30
0.0
 10
273.2671315582
 20
266.583587563
 30
0.0
 10
273.6171144466
 20
264.4415973067
 30
0.0
 10
273.8669607388
 20
263.3831847497
 30
0.0
 10
274.0222412079
 20
262.8634283649
 30
0.0
  0
SPLINE
  5
3B7
100
AcDbEntity
  8
0
100
AcDbSpline
 62
7
  6
CONTINUOUS
 70
0
 71
3
 72
9
 73
5
 74
0
 42
0.0000001
 43
0.0000001
 44
0.0000000001
 40
0.0
 40
0.0
 40
0.0
 40
0.0
 40
0.5066619547
 40
1.0
 40
1.0
 40
1.0
 40
1.0
 10
274.8382397601
 20
269.2244720773
 30
0.0
 10
274.807921711
 20
268.1401164337
 30
0.0
 10
274.6732882706
 20
265.9986562405
 30
0.0
 10
274.2680319359
 20
263.8906757085
 30
0.0
 10
274.0216039429
 20
262.863571743
 30
0.0
  0
SPLINE
  5
3B8
100
AcDbEntity
  8
0
100
AcDbSpline
 62
7
  6
CONTINUOUS
 70
0
 71
3
 72
8
 73
4
 74
0
 42
0.0000001
 43
0.0000001
 44
0.0000000001
 40
0.0
 40
0.0
 40
0.0
 40
0.0
 40
1.0
 40
1.0
 40
1.0
 40
1.0
 10
343.8438083441
 20
269.224454664
 30
0.0
 10
343.853073219
 20
269.2202381224
 30
0.0
 10
343.8623063984
 20
269.2159298352
 30
0.0
 10
343.871762332
 20
269.2121612214
 30
0.0
  0
SPLINE
  5
3B9
100
AcDbEntity
  8
0
100
AcDbSpline
 62
7
  6
CONTINUOUS
 70
0
 71
3
 72
10
 73
6
 74
0
 42
0.0000001
 43
0.0000001
 44
0.0000000001
 40
0.0
 40
0.0
 40
0.0
 40
0.0
 40
0.5736976492
 40
0.8114300183
 40
1.0
 40
1.0
 40
1.0
 40
1.0
 10
218.1231867853
 20
237.7388789841
 30
0.0
 10
218.3619385283
 20
237.3356598049
 30
0.0
 10
218.7142110272
 20
236.7732209049
 30
0.0
 10
219.1935870868
 20
236.1116692241
 30
0.0
 10
219.4141856976
 20
235.8416425623
 30
0.0
 10
219.5182719552
 20
235.7281082343
 30
0.0
  0
SPLINE
  5
3BA
100
AcDbEntity
  8
0
100
AcDbSpline
 62
7
  6
CONTINUOUS
 70
0
 71
3
 72
11
 73
7
 74
0
 42
0.0000001
 43
0.0000001
 44
0.0000000001
 40
0.0
 40
0.0
 40
0.0
 40
0.0
 40
0.2604982185
 40
0.518584129
 40
0.7659055892
 40
1.0
 40
1.0
 40
1.0
 40
1.0
 10
343.8719208978
 20
269.2121761695
 30
0.0
 10
343.9907785674
 20
269.1265658152
 30
0.0
 10
344.277131396
 20
269.0242701176
 30
0.0
 10
344.7109629632
 20
269.0264062317
 30
0.0
 10
345.1213228869
 20
269.0954191474
 30
0.0
 10
345.3887524559
 20
269.1382946837
 30
0.0
 10
345.519692567
 20
269.1517791451
 30
0.0
  0
SPLINE
  5
3BB
100
AcDbEntity
  8
0
100
AcDbSpline
 62
7
  6
CONTINUOUS
 70
0
 71
3
 72
20
 73
16
 74
0
 42
0.0000001
 43
0.0000001
 44
0.0000000001
 40
0.0
 40
0.0
 40
0.0
 40
0.0
 40
0.1963966187
 40
0.3750821603
 40
0.5316354959
 40
0.6653046764
 40
0.7787440618
 40
0.8270173247
 40
0.8663470587
 40
0.8939859403
 40
0.9038284926
 40
0.9133642394
 40
0.9259574122
 40
0.9440195893
 40
1.0
 40
1.0
 40
1.0
 40
1.0
 10
345.519692567
 20
269.1517791451
 30
0.0
 10
345.6452507998
 20
269.1647093704
 30
0.0
 10
345.8863588641
 20
269.1766632472
 30
0.0
 10
346.2280945066
 20
269.1737454674
 30
0.0
 10
346.5292004468
 20
269.1765119849
 30
0.0
 10
346.7893990349
 20
269.1642738949
 30
0.0
 10
346.9741943903
 20
269.1151033157
 30
0.0
 10
347.0937618311
 20
269.0654712092
 30
0.0
 10
347.1622373071
 20
269.0386919478
 30
0.0
 10
347.2109171361
 20
269.0245870113
 30
0.0
 10
347.2416920956
 20
269.0315621244
 30
0.0
 10
347.2557030433
 20
269.0483240159
 30
0.0
 10
347.2602109732
 20
269.0743840994
 30
0.0
 10
347.257072003
 20
269.1300429802
 30
0.0
 10
347.2454541301
 20
269.1765655299
 30
0.0
 10
347.2364522624
 20
269.2113992636
 30
0.0
  0
SPLINE
  5
3BC
100
AcDbEntity
  8
0
100
AcDbSpline
 62
7
  6
CONTINUOUS
 70
0
 71
3
 72
12
 73
8
 74
0
 42
0.0000001
 43
0.0000001
 44
0.0000000001
 40
0.0
 40
0.0
 40
0.0
 40
0.0
 40
0.0829350225
 40
0.1637168066
 40
0.2747001855
 40
0.589313651
 40
1.0
 40
1.0
 40
1.0
 40
1.0
 10
113.3281957863
 20
260.0534029763
 30
0.0
 10
113.2839383108
 20
260.0534006976
 30
0.0
 10
113.2302173536
 20
260.154852907
 30
0.0
 10
113.1896318906
 20
260.2845286194
 30
0.0
 10
113.1329159882
 20
260.5548892824
 30
0.0
 10
113.0898565255
 20
260.9958254547
 30
0.0
 10
113.0774573176
 20
261.3842480056
 30
0.0
 10
113.0774573176
 20
261.6034068187
 30
0.0
  0
SPLINE
  5
3BD
100
AcDbEntity
  8
0
100
AcDbSpline
 62
7
  6
CONTINUOUS
 70
0
 71
3
 72
9
 73
5
 74
0
 42
0.0000001
 43
0.0000001
 44
0.0000000001
 40
0.0
 40
0.0
 40
0.0
 40
0.0
 40
0.4286347062
 40
1.0
 40
1.0
 40
1.0
 40
1.0
 10
269.9553310896
 20
275.6464872178
 30
0.0
 10
270.0294170335
 20
275.6410059758
 30
0.0
 10
270.1932262533
 20
275.5442917797
 30
0.0
 10
270.2745976896
 20
275.3865436947
 30
0.0
 10
270.3119326938
 20
275.2948257716
 30
0.0
  0
SPLINE
  5
3BE
100
AcDbEntity
  8
0
100
AcDbSpline
 62
7
  6
CONTINUOUS
 70
0
 71
3
 72
9
 73
5
 74
0
 42
0.0000001
 43
0.0000001
 44
0.0000000001
 40
0.0
 40
0.0
 40
0.0
 40
0.0
 40
0.2489149815
 40
1.0
 40
1.0
 40
1.0
 40
1.0
 10
218.1231875179
 20
237.7388791265
 30
0.0
 10
218.5059738815
 20
238.0027044729
 30
0.0
 10
220.0736767862
 20
239.0170314601
 30
0.0
 10
221.7753257903
 20
239.8370529308
 30
0.0
 10
223.1069854204
 20
240.2780991786
 30
0.0
  0
SPLINE
  5
3BF
100
AcDbEntity
  8
0
100
AcDbSpline
 62
7
  6
CONTINUOUS
 70
0
 71
3
 72
17
 73
13
 74
0
 42
0.0000001
 43
0.0000001
 44
0.0000000001
 40
0.0
 40
0.0
 40
0.0
 40
0.0
 40
0.09075226
 40
0.14631767
 40
0.1705688449
 40
0.1997341891
 40
0.2373484768
 40
0.2848687993
 40
0.4104688731
 40
0.5743934301
 40
0.7726890271
 40
1.0
 40
1.0
 40
1.0
 40
1.0
 10
198.9704713863
 20
224.6034068187
 30
0.0
 10
198.8964440905
 20
224.6034252355
 30
0.0
 10
198.7792668318
 20
224.605710948
 30
0.0
 10
198.6386407718
 20
224.6743403745
 30
0.0
 10
198.6163950028
 20
224.7655579826
 30
0.0
 10
198.633515595
 20
224.8392668989
 30
0.0
 10
198.6764418402
 20
224.9225674301
 30
0.0
 10
198.7783459813
 20
225.0615702919
 30
0.0
 10
198.9727615832
 20
225.2573437236
 30
0.0
 10
199.2743916724
 20
225.5169244449
 30
0.0
 10
199.6559479851
 20
225.8099919036
 30
0.0
 10
199.9374578692
 20
226.0131755058
 30
0.0
 10
200.088895712
 20
226.120165612
 30
0.0
  0
SPLINE
  5
3C0
100
AcDbEntity
  8
0
100
AcDbSpline
 62
7
  6
CONTINUOUS
 70
0
 71
3
 72
13
 73
9
 74
0
 42
0.0000001
 43
0.0000001
 44
0.0000000001
 40
0.0
 40
0.0
 40
0.0
 40
0.0
 40
0.096045271
 40
0.207911521
 40
0.3293294152
 40
0.4569332201
 40
0.7237429736
 40
1.0
 40
1.0
 40
1.0
 40
1.0
 10
200.088895712
 20
226.120165612
 30
0.0
 10
200.6498927112
 20
226.5165072882
 30
0.0
 10
201.8927505477
 20
227.3337082644
 30
0.0
 10
203.884688102
 20
228.5901907937
 30
0.0
 10
206.0772784231
 20
229.9518295845
 30
0.0
 10
209.2099759959
 20
231.8999098349
 30
0.0
 10
213.2628993071
 20
234.4652369797
 30
0.0
 10
216.496452204
 20
236.6176857699
 30
0.0
 10
218.1231875179
 20
237.7388791265
 30
0.0
  0
SPLINE
  5
3C1
100
AcDbEntity
  8
0
100
AcDbSpline
 62
7
  6
CONTINUOUS
 70
0
 71
3
 72
22
 73
18
 74
0
 42
0.0000001
 43
0.0000001
 44
0.0000000001
 40
0.0
 40
0.0
 40
0.0
 40
0.0
 40
0.0012164401
 40
0.0048373587
 40
0.0108504568
 40
0.0192410045
 40
0.0299940014
 40
0.0430923349
 40
0.0761741233
 40
0.1181365038
 40
0.16860723
 40
0.2270836228
 40
0.2929856538
 40
0.4445227879
 40
0.6174301813
 40
0.8050278787
 40
1.0
 40
1.0
 40
1.0
 40
1.0
 10
348.8722463664
 20
260.2034065424
 30
0.0
 10
348.8722463664
 20
260.2054363718
 30
0.0
 10
348.8593447234
 20
260.2020716041
 30
0.0
 10
348.8459148726
 20
260.2066521015
 30
0.0
 10
348.8132140277
 20
260.2056128539
 30
0.0
 10
348.7724212835
 20
260.2079031566
 30
0.0
 10
348.7181955179
 20
260.2091432681
 30
0.0
 10
348.6234439507
 20
260.2120098212
 30
0.0
 10
348.4762770586
 20
260.2157808611
 30
0.0
 10
348.266955007
 20
260.2208877559
 30
0.0
 10
348.0151768047
 20
260.226363511
 30
0.0
 10
347.7234804121
 20
260.2323760531
 30
0.0
 10
347.2631712537
 20
260.2419276639
 30
0.0
 10
346.6119034662
 20
260.2551130851
 30
0.0
 10
345.758316501
 20
260.2923477889
 30
0.0
 10
344.8306483642
 20
260.2952258373
 30
0.0
 10
344.1937728417
 20
260.240645388
 30
0.0
 10
343.8705401521
 20
260.2036504495
 30
0.0
  0
SPLINE
  5
3C2
100
AcDbEntity
  8
0
100
AcDbSpline
 62
7
  6
CONTINUOUS
 70
0
 71
3
 72
13
 73
9
 74
0
 42
0.0000001
 43
0.0000001
 44
0.0000000001
 40
0.0
 40
0.0
 40
0.0
 40
0.0
 40
0.322286145
 40
0.6069767755
 40
0.7272547125
 40
0.8309573177
 40
0.9200277884
 40
1.0
 40
1.0
 40
1.0
 40
1.0
 10
343.1594047621
 20
238.9157292282
 30
0.0
 10
343.7910542498
 20
238.8974462298
 30
0.0
 10
344.9856730311
 20
238.9686257271
 30
0.0
 10
346.3807660661
 20
239.334125572
 30
0.0
 10
347.2674189798
 20
239.800745345
 30
0.0
 10
347.748503448
 20
240.1904258399
 30
0.0
 10
348.0649355027
 20
240.6321281371
 30
0.0
 10
348.1499143373
 20
240.9631552735
 30
0.0
 10
348.1558016452
 20
241.1198481107
 30
0.0
  0
SPLINE
  5
3C3
100
AcDbEntity
  8
0
100
AcDbSpline
 62
7
  6
CONTINUOUS
 70
0
 71
3
 72
13
 73
9
 74
0
 42
0.0000001
 43
0.0000001
 44
0.0000000001
 40
0.0
 40
0.0
 40
0.0
 40
0.0
 40
0.2483614928
 40
0.496945913
 40
0.6217843265
 40
0.7470943026
 40
0.8730808677
 40
1.0
 40
1.0
 40
1.0
 40
1.0
 10
259.9252626074
 20
276.3478591099
 30
0.0
 10
259.3926539035
 20
276.4979372959
 30
0.0
 10
258.3275012708
 20
276.8030029967
 30
0.0
 10
257.0403924744
 20
277.3257975176
 30
0.0
 10
256.0541987669
 20
277.8387237777
 30
0.0
 10
255.3424547476
 20
278.2852654055
 30
0.0
 10
254.6888134654
 20
278.8166799443
 30
0.0
 10
254.283716001
 20
279.2170635797
 30
0.0
 10
254.1220839117
 20
279.4490920633
 30
0.0
  0
SPLINE
  5
3C4
100
AcDbEntity
  8
0
100
AcDbSpline
 62
7
  6
CONTINUOUS
 70
0
 71
3
 72
9
 73
5
 74
0
 42
0.0000001
 43
0.0000001
 44
0.0000000001
 40
0.0
 40
0.0
 40
0.0
 40
0.0
 40
0.2501544385
 40
1.0
 40
1.0
 40
1.0
 40
1.0
 10
273.1003527377
 20
269.6780905266
 30
0.0
 10
271.9957297377
 20
270.222227346
 30
0.0
 10
267.5844076854
 20
272.4063690029
 30
0.0
 10
263.1949145294
 20
274.6351388689
 30
0.0
 10
259.9252626074
 20
276.3478591099
 30
0.0
  0
SPLINE
  5
3C5
100
AcDbEntity
  8
0
100
AcDbSpline
 62
7
  6
CONTINUOUS
 70
0
 71
3
 72
9
 73
5
 74
0
 42
0.0000001
 43
0.0000001
 44
0.0000000001
 40
0.0
 40
0.0
 40
0.0
 40
0.0
 40
0.457818067
 40
1.0
 40
1.0
 40
1.0
 40
1.0
 10
253.6767512346
 20
279.6927452793
 30
0.0
 10
253.8621296127
 20
277.1276847866
 30
0.0
 10
254.2144614912
 20
271.5209291055
 30
0.0
 10
254.4451675398
 20
265.907775324
 30
0.0
 10
254.5432216306
 20
262.8636974954
 30
0.0
  0
LINE
  5
3C6
100
AcDbEntity
  8
0
100
AcDbLine
 62
7
  6
CONTINUOUS
 10
254.1220839117
 20
279.4490920633
 11
253.6767512346
 21
279.6927452793
  0
SPLINE
  5
3C7
100
AcDbEntity
  8
0
100
AcDbSpline
 62
7
  6
CONTINUOUS
 70
0
 71
3
 72
8
 73
4
 74
0
 42
0.0000001
 43
0.0000001
 44
0.0000000001
 40
0.0
 40
0.0
 40
0.0
 40
0.0
 40
1.0
 40
1.0
 40
1.0
 40
1.0
 10
253.8713304746
 20
279.8231958251
 30
0.0
 10
253.9465716519
 20
279.6933687494
 30
0.0
 10
254.0310809297
 20
279.5686585812
 30
0.0
 10
254.1219662183
 20
279.4492593824
 30
0.0
  0
SPLINE
  5
3C8
100
AcDbEntity
  8
0
100
AcDbSpline
 62
7
  6
CONTINUOUS
 70
0
 71
3
 72
9
 73
5
 74
0
 42
0.0000001
 43
0.0000001
 44
0.0000000001
 40
0.0
 40
0.0
 40
0.0
 40
0.0
 40
0.2442410541
 40
1.0
 40
1.0
 40
1.0
 40
1.0
 10
252.6609704754
 20
282.7896644909
 30
0.0
 10
252.7723009422
 20
282.5958829171
 30
0.0
 10
253.1865822106
 20
281.7782217803
 30
0.0
 10
253.4593400923
 20
280.897874191
 30
0.0
 10
253.6368948888
 20
280.2295220615
 30
0.0
  0
SPLINE
  5
3C9
100
AcDbEntity
  8
0
100
AcDbSpline
 62
7
  6
CONTINUOUS
 70
0
 71
3
 72
16
 73
12
 74
0
 42
0.0000001
 43
0.0000001
 44
0.0000000001
 40
0.0
 40
0.0
 40
0.0
 40
0.0
 40
0.0630254511
 40
0.1257940217
 40
0.1879391598
 40
0.2500158686
 40
0.3741892106
 40
0.4982614429
 40
0.6227365125
 40
0.7478587395
 40
1.0
 40
1.0
 40
1.0
 40
1.0
 10
251.4109347207
 20
283.7569963213
 30
0.0
 10
251.4377837465
 20
283.740271251
 30
0.0
 10
251.4815500419
 20
283.6932978928
 30
0.0
 10
251.5458307008
 20
283.6248587615
 30
0.0
 10
251.6095229039
 20
283.5557386256
 30
0.0
 10
251.6883260205
 20
283.4591024875
 30
0.0
 10
251.7802177165
 20
283.333245327
 30
0.0
 10
251.8846130832
 20
283.1779439479
 30
0.0
 10
251.9812439178
 20
283.0171721898
 30
0.0
 10
252.1112412029
 20
282.801494968
 30
0.0
 10
252.1872021182
 20
282.6265072957
 30
0.0
 10
252.257424926
 20
282.521229855
 30
0.0
  0
SPLINE
  5
3CA
100
AcDbEntity
  8
0
100
AcDbSpline
 62
7
  6
CONTINUOUS
 70
0
 71
3
 72
16
 73
12
 74
0
 42
0.0000001
 43
0.0000001
 44
0.0000000001
 40
0.0
 40
0.0
 40
0.0
 40
0.0
 40
0.0046279667
 40
0.0183917447
 40
0.0411565589
 40
0.0727852855
 40
0.1617316618
 40
0.2823669646
 40
0.4312550563
 40
0.6040778008
 40
1.0
 40
1.0
 40
1.0
 40
1.0
 10
235.1833683312
 20
287.4872605697
 30
0.0
 10
235.1821246969
 20
287.4873967738
 30
0.0
 10
235.1835926979
 20
287.4792144271
 30
0.0
 10
235.1796480309
 20
287.4713698433
 30
0.0
 10
235.1780778612
 20
287.4513955985
 30
0.0
 10
235.1714998549
 20
287.4141452825
 30
0.0
 10
235.1623046447
 20
287.3489010334
 30
0.0
 10
235.1477517711
 20
287.2534144809
 30
0.0
 10
235.1303927679
 20
287.1349851248
 30
0.0
 10
235.1018323698
 20
286.9431541112
 30
0.0
 10
235.0787717726
 20
286.7911199443
 30
0.0
 10
235.063808964
 20
286.6851420138
 30
0.0
  0
SPLINE
  5
3CB
100
AcDbEntity
  8
0
100
AcDbSpline
 62
7
  6
CONTINUOUS
 70
0
 71
3
 72
11
 73
7
 74
0
 42
0.0000001
 43
0.0000001
 44
0.0000000001
 40
0.0
 40
0.0
 40
0.0
 40
0.0
 40
0.3822060581
 40
0.6927234427
 40
0.9011752516
 40
1.0
 40
1.0
 40
1.0
 40
1.0
 10
243.0834310574
 20
285.55728745
 30
0.0
 10
243.0938622129
 20
285.65841732
 30
0.0
 10
243.1086109225
 20
285.8404774607
 30
0.0
 10
243.1058132209
 20
286.086745601
 30
0.0
 10
243.0927972379
 20
286.2378224005
 30
0.0
 10
243.0531913328
 20
286.3321294011
 30
0.0
 10
243.0271879219
 20
286.3359821555
 30
0.0
  0
SPLINE
  5
3CC
100
AcDbEntity
  8
0
100
AcDbSpline
 62
7
  6
CONTINUOUS
 70
0
 71
3
 72
9
 73
5
 74
0
 42
0.0000001
 43
0.0000001
 44
0.0000000001
 40
0.0
 40
0.0
 40
0.0
 40
0.0
 40
0.2512416573
 40
1.0
 40
1.0
 40
1.0
 40
1.0
 10
235.063808964
 20
286.6851420138
 30
0.0
 10
235.7354751614
 20
286.5910088155
 30
0.0
 10
238.4088151858
 20
286.2160012894
 30
0.0
 10
241.0819775833
 20
285.8397275563
 30
0.0
 10
243.0834310574
 20
285.55728745
 30
0.0
  0
SPLINE
  5
3CD
100
AcDbEntity
  8
0
100
AcDbSpline
 62
7
  6
CONTINUOUS
 70
0
 71
3
 72
14
 73
10
 74
0
 42
0.0000001
 43
0.0000001
 44
0.0000000001
 40
0.0
 40
0.0
 40
0.0
 40
0.0
 40
0.0192534664
 40
0.0725830475
 40
0.16014761
 40
0.2814725458
 40
0.4345572149
 40
0.6115548099
 40
1.0
 40
1.0
 40
1.0
 40
1.0
 10
162.4100320919
 20
298.1686019849
 30
0.0
 10
162.4051995223
 20
298.1693212888
 30
0.0
 10
162.3999419467
 20
298.14269072
 30
0.0
 10
162.3877071613
 20
298.1121936534
 30
0.0
 10
162.3736450044
 20
298.042474736
 30
0.0
 10
162.3550841053
 20
297.9545442534
 30
0.0
 10
162.3343703575
 20
297.8411119334
 30
0.0
 10
162.3029916941
 20
297.6618252559
 30
0.0
 10
162.2800135289
 20
297.5200461351
 30
0.0
 10
162.2648179375
 20
297.4226515795
 30
0.0
  0
SPLINE
  5
3CE
100
AcDbEntity
  8
0
100
AcDbSpline
 62
7
  6
CONTINUOUS
 70
0
 71
3
 72
9
 73
5
 74
0
 42
0.0000001
 43
0.0000001
 44
0.0000000001
 40
0.0
 40
0.0
 40
0.0
 40
0.0
 40
0.2499725704
 40
1.0
 40
1.0
 40
1.0
 40
1.0
 10
162.2648139214
 20
297.4226258387
 30
0.0
 10
168.3306425
 20
296.5273347593
 30
0.0
 10
192.5966260117
 20
292.9458235288
 30
0.0
 10
216.8629771174
 20
289.3668019023
 30
0.0
 10
235.0637629924
 20
286.6848599714
 30
0.0
  0
SPLINE
  5
3CF
100
AcDbEntity
  8
0
100
AcDbSpline
 62
7
  6
CONTINUOUS
 70
0
 71
3
 72
9
 73
5
 74
0
 42
0.0000001
 43
0.0000001
 44
0.0000000001
 40
0.0
 40
0.0
 40
0.0
 40
0.0
 40
0.2515162929
 40
1.0
 40
1.0
 40
1.0
 40
1.0
 10
223.740917007
 20
238.033900219
 30
0.0
 10
223.3679931465
 20
237.8790853396
 30
0.0
 10
221.9039496963
 20
237.2187341506
 30
0.0
 10
220.5139093365
 20
236.4005327833
 30
0.0
 10
219.5179360403
 20
235.7282969632
 30
0.0
  0
SPLINE
  5
3D0
100
AcDbEntity
  8
0
100
AcDbSpline
 62
7
  6
CONTINUOUS
 70
0
 71
3
 72
12
 73
8
 74
0
 42
0.0000001
 43
0.0000001
 44
0.0000000001
 40
0.0
 40
0.0
 40
0.0
 40
0.0
 40
0.4034229186
 40
0.697485631
 40
0.8047647494
 40
0.8880772269
 40
1.0
 40
1.0
 40
1.0
 40
1.0
 10
124.7054939678
 20
234.2198595708
 30
0.0
 10
124.5275135399
 20
234.1040729644
 30
0.0
 10
124.2140976617
 20
233.9123773337
 30
0.0
 10
123.8345730974
 20
233.7222626784
 30
0.0
 10
123.5895794723
 20
233.6448439742
 30
0.0
 10
123.4350203009
 20
233.6178856722
 30
0.0
 10
123.3197976998
 20
233.6383991774
 30
0.0
 10
123.2781439327
 20
233.6800525161
 30
0.0
  0
SPLINE
  5
3D1
100
AcDbEntity
  8
0
100
AcDbSpline
 62
7
  6
CONTINUOUS
 70
0
 71
3
 72
21
 73
17
 74
0
 42
0.0000001
 43
0.0000001
 44
0.0000000001
 40
0.0
 40
0.0
 40
0.0
 40
0.0
 40
0.0512321808
 40
0.0988985663
 40
0.1452686039
 40
0.194681091
 40
0.2516311554
 40
0.2840413101
 40
0.3184555916
 40
0.4671452188
 40
0.6187517765
 40
0.7611430416
 40
0.8270191633
 40
0.8886711933
 40
0.9455468751
 40
1.0
 40
1.0
 40
1.0
 40
1.0
 10
133.5531653124
 20
230.3323684075
 30
0.0
 10
133.5382359053
 20
230.1147839098
 30
0.0
 10
133.5004590818
 20
229.6949004771
 30
0.0
 10
133.321778411
 20
229.0935569681
 30
0.0
 10
132.934911658
 20
228.5986449775
 30
0.0
 10
132.3448317085
 20
228.2866121443
 30
0.0
 10
131.7460884741
 20
228.2166367215
 30
0.0
 10
131.2213559913
 20
228.2733965115
 30
0.0
 10
130.3236315648
 20
228.4717580832
 30
0.0
 10
129.0287374935
 20
229.1236734579
 30
0.0
 10
127.5311837163
 20
230.2711681365
 30
0.0
 10
126.4377665159
 20
231.3522653475
 30
0.0
 10
125.7109508085
 20
232.2431239603
 30
0.0
 10
125.2652038707
 20
232.8912838893
 30
0.0
 10
124.9311903658
 20
233.5502050601
 30
0.0
 10
124.7732271082
 20
233.998167076
 30
0.0
 10
124.7054904492
 20
234.2198572817
 30
0.0
  0
SPLINE
  5
3D2
100
AcDbEntity
  8
0
100
AcDbSpline
 62
7
  6
CONTINUOUS
 70
0
 71
3
 72
14
 73
10
 74
0
 42
0.0000001
 43
0.0000001
 44
0.0000000001
 40
0.0
 40
0.0
 40
0.0
 40
0.0
 40
0.020963987
 40
0.0748455334
 40
0.1625751513
 40
0.283809326
 40
0.4365931142
 40
0.6131001531
 40
1.0
 40
1.0
 40
1.0
 40
1.0
 10
158.2189990364
 20
298.0601317683
 30
0.0
 10
158.22423458
 20
298.0613015267
 30
0.0
 10
158.2358871119
 20
298.0376756275
 30
0.0
 10
158.2510762414
 20
298.0058144349
 30
0.0
 10
158.2740791755
 20
297.9388237278
 30
0.0
 10
158.3012217637
 20
297.851921132
 30
0.0
 10
158.332725867
 20
297.7404112512
 30
0.0
 10
158.3798631164
 20
297.563558962
 30
0.0
 10
158.4145658232
 20
297.4235028207
 30
0.0
 10
158.4374827815
 20
297.3271849497
 30
0.0
  0
SPLINE
  5
3D3
100
AcDbEntity
  8
0
100
AcDbSpline
 62
7
  6
CONTINUOUS
 70
0
 71
3
 72
14
 73
10
 74
0
 42
0.0000001
 43
0.0000001
 44
0.0000000001
 40
0.0
 40
0.0
 40
0.0
 40
0.0
 40
0.0187562
 40
0.0711292421
 40
0.1604416506
 40
0.2846048687
 40
0.4393073314
 40
0.6162784237
 40
1.0
 40
1.0
 40
1.0
 40
1.0
 10
122.7212486145
 20
290.1124332901
 30
0.0
 10
122.726173021
 20
290.1135350514
 30
0.0
 10
122.7362330524
 20
290.0884785781
 30
0.0
 10
122.7511333092
 20
290.0559055374
 30
0.0
 10
122.7734676044
 20
289.9833767509
 30
0.0
 10
122.8010061946
 20
289.8902118265
 30
0.0
 10
122.8331000666
 20
289.7711051868
 30
0.0
 10
122.8809784369
 20
289.5849931185
 30
0.0
 10
122.91627519
 20
289.4381952953
 30
0.0
 10
122.9397328
 20
289.3376595245
 30
0.0
  0
SPLINE
  5
3D4
100
AcDbEntity
  8
0
100
AcDbSpline
 62
7
  6
CONTINUOUS
 70
0
 71
3
 72
9
 73
5
 74
0
 42
0.0000001
 43
0.0000001
 44
0.0000000001
 40
0.0
 40
0.0
 40
0.0
 40
0.0
 40
0.5042757649
 40
1.0
 40
1.0
 40
1.0
 40
1.0
 10
117.6160075167
 20
288.6624856692
 30
0.0
 10
117.3387747615
 20
288.4403749037
 30
0.0
 10
116.8659020578
 20
287.8946498785
 30
0.0
 10
116.6148078078
 20
287.2190853313
 30
0.0
 10
116.5513343104
 20
286.8756924279
 30
0.0
  0
SPLINE
  5
3D5
100
AcDbEntity
  8
0
100
AcDbSpline
 62
7
  6
CONTINUOUS
 70
0
 71
3
 72
14
 73
10
 74
0
 42
0.0000001
 43
0.0000001
 44
0.0000000001
 40
0.0
 40
0.0
 40
0.0
 40
0.0
 40
0.0454776065
 40
0.1184106126
 40
0.2165598172
 40
0.337884807
 40
0.4801793933
 40
0.6401798002
 40
1.0
 40
1.0
 40
1.0
 40
1.0
 10
116.5509251731
 20
286.8734729295
 30
0.0
 10
116.6044237506
 20
286.8775666138
 30
0.0
 10
116.739971184
 20
286.9170029506
 30
0.0
 10
116.9811701382
 20
286.9987971242
 30
0.0
 10
117.3047483493
 20
287.1195868606
 30
0.0
 10
117.7004375309
 20
287.279398197
 30
0.0
 10
118.1585548919
 20
287.4794137438
 30
0.0
 10
118.8702305354
 20
287.8014681772
 30
0.0
 10
119.42699277
 20
288.0586836737
 30
0.0
 10
119.8135341303
 20
288.2341909603
 30
0.0
  0
SPLINE
  5
3D6
100
AcDbEntity
  8
0
100
AcDbSpline
 62
7
  6
CONTINUOUS
 70
0
 71
3
 72
9
 73
5
 74
0
 42
0.0000001
 43
0.0000001
 44
0.0000000001
 40
0.0
 40
0.0
 40
0.0
 40
0.0
 40
0.2445272441
 40
1.0
 40
1.0
 40
1.0
 40
1.0
 10
120.0758726377
 20
288.352842467
 30
0.0
 10
120.1878433002
 20
288.4032692507
 30
0.0
 10
120.6461333283
 20
288.6084481201
 30
0.0
 10
121.1106822998
 20
288.8011911927
 30
0.0
 10
121.4689298375
 20
288.9261009438
 30
0.0
  0
SPLINE
  5
3D7
100
AcDbEntity
  8
0
100
AcDbSpline
 62
7
  6
CONTINUOUS
 70
0
 71
3
 72
8
 73
4
 74
0
 42
0.0000001
 43
0.0000001
 44
0.0000000001
 40
0.0
 40
0.0
 40
0.0
 40
0.0
 40
1.0
 40
1.0
 40
1.0
 40
1.0
 10
121.4689298375
 20
288.9261009438
 30
0.0
 10
121.7289957519
 20
289.0167778228
 30
0.0
 10
121.9928570236
 20
289.0969129511
 30
0.0
 10
122.2586322388
 20
289.1691632883
 30
0.0
  0
SPLINE
  5
3D8
100
AcDbEntity
  8
0
100
AcDbSpline
 62
7
  6
CONTINUOUS
 70
0
 71
3
 72
10
 73
6
 74
0
 42
0.0000001
 43
0.0000001
 44
0.0000000001
 40
0.0
 40
0.0
 40
0.0
 40
0.0
 40
0.4830561779
 40
0.7393270144
 40
1.0
 40
1.0
 40
1.0
 40
1.0
 10
229.4928591182
 20
238.8444650503
 30
0.0
 10
228.5986864959
 20
239.1640220034
 30
0.0
 10
227.056482079
 20
239.0961134804
 30
0.0
 10
225.1686495857
 20
238.5906279998
 30
0.0
 10
224.2142870393
 20
238.2301805601
 30
0.0
 10
223.7410147902
 20
238.0337615673
 30
0.0
  0
SPLINE
  5
3D9
100
AcDbEntity
  8
0
100
AcDbSpline
 62
7
  6
CONTINUOUS
 70
0
 71
3
 72
11
 73
7
 74
0
 42
0.0000001
 43
0.0000001
 44
0.0000000001
 40
0.0
 40
0.0
 40
0.0
 40
0.0
 40
0.2143551089
 40
0.457187643
 40
0.7210319152
 40
1.0
 40
1.0
 40
1.0
 40
1.0
 10
124.5842597467
 20
235.2108677466
 30
0.0
 10
124.5916858237
 20
235.774851129
 30
0.0
 10
124.6195924697
 20
236.9775495535
 30
0.0
 10
124.6533451261
 20
238.8744955847
 30
0.0
 10
124.6929315001
 20
240.9413791819
 30
0.0
 10
124.7207174654
 20
242.3694247189
 30
0.0
 10
124.7301505783
 20
243.1034123999
 30
0.0
  0
SPLINE
  5
3DA
100
AcDbEntity
  8
0
100
AcDbSpline
 62
7
  6
CONTINUOUS
 70
0
 71
3
 72
9
 73
5
 74
0
 42
0.0000001
 43
0.0000001
 44
0.0000000001
 40
0.0
 40
0.0
 40
0.0
 40
0.0
 40
0.255934373
 40
1.0
 40
1.0
 40
1.0
 40
1.0
 10
124.7054942235
 20
234.2198598412
 30
0.0
 10
124.6841799962
 20
234.3024762648
 30
0.0
 10
124.6103269704
 20
234.6275698165
 30
0.0
 10
124.5790756991
 20
234.9628706584
 30
0.0
 10
124.5842597467
 20
235.2108677466
 30
0.0
  0
SPLINE
  5
3DB
100
AcDbEntity
  8
0
100
AcDbSpline
 62
7
  6
CONTINUOUS
 70
0
 71
3
 72
11
 73
7
 74
0
 42
0.0000001
 43
0.0000001
 44
0.0000000001
 40
0.0
 40
0.0
 40
0.0
 40
0.0
 40
0.2910446599
 40
0.5622046344
 40
0.8020058105
 40
1.0
 40
1.0
 40
1.0
 40
1.0
 10
122.7830840522
 20
249.2582698872
 30
0.0
 10
122.3217089493
 20
248.5768558274
 30
0.0
 10
121.4079555832
 20
247.2757856406
 30
0.0
 10
120.0549838782
 20
245.4555666633
 30
0.0
 10
118.8053898238
 20
243.8877378357
 30
0.0
 10
117.9909520364
 20
242.9543978619
 30
0.0
 10
117.6064634278
 20
242.5474980728
 30
0.0
  0
SPLINE
  5
3DC
100
AcDbEntity
  8
0
100
AcDbSpline
 62
7
  6
CONTINUOUS
 70
0
 71
3
 72
9
 73
5
 74
0
 42
0.0000001
 43
0.0000001
 44
0.0000000001
 40
0.0
 40
0.0
 40
0.0
 40
0.0
 40
0.264317056
 40
1.0
 40
1.0
 40
1.0
 40
1.0
 10
117.6064634278
 20
242.5474980728
 30
0.0
 10
117.5670730923
 20
242.5058117423
 30
0.0
 10
117.4173506262
 20
242.3487602412
 30
0.0
 10
117.2647579321
 20
242.1944216285
 30
0.0
 10
117.1503874596
 20
242.0830581283
 30
0.0
  0
SPLINE
  5
3DD
100
AcDbEntity
  8
0
100
AcDbSpline
 62
7
  6
CONTINUOUS
 70
0
 71
3
 72
14
 73
10
 74
0
 42
0.0000001
 43
0.0000001
 44
0.0000000001
 40
0.0
 40
0.0
 40
0.0
 40
0.0
 40
0.3975870934
 40
0.5572913663
 40
0.6907109061
 40
0.7983285525
 40
0.881825194
 40
0.9457064646
 40
1.0
 40
1.0
 40
1.0
 40
1.0
 10
117.1503874596
 20
242.0830581283
 30
0.0
 10
116.9845303606
 20
241.9215616626
 30
0.0
 10
116.7461628317
 20
241.7006356792
 30
0.0
 10
116.4296752492
 20
241.4521047588
 30
0.0
 10
116.2359841926
 20
241.321551808
 30
0.0
 10
116.068467074
 20
241.2328098444
 30
0.0
 10
115.9266746935
 20
241.1860062795
 30
0.0
 10
115.8061146635
 20
241.1818904512
 30
0.0
 10
115.7418009129
 20
241.2163955488
 30
0.0
 10
115.7194476165
 20
241.2387488323
 30
0.0
  0
SPLINE
  5
3DE
100
AcDbEntity
  8
0
100
AcDbSpline
 62
7
  6
CONTINUOUS
 70
0
 71
3
 72
13
 73
9
 74
0
 42
0.0000001
 43
0.0000001
 44
0.0000000001
 40
0.0
 40
0.0
 40
0.0
 40
0.0
 40
0.229050136
 40
0.4790236565
 40
0.6096471983
 40
0.7413469078
 40
0.8722824492
 40
1.0
 40
1.0
 40
1.0
 40
1.0
 10
230.3619813425
 20
230.4294548005
 30
0.0
 10
230.5637297858
 20
230.986172144
 30
0.0
 10
230.9391394253
 20
232.1677372964
 30
0.0
 10
231.2734327763
 20
233.7121004803
 30
0.0
 10
231.4112172268
 20
235.0311091654
 30
0.0
 10
231.399159707
 20
236.0508375424
 30
0.0
 10
231.2251183458
 20
237.0508564064
 30
0.0
 10
230.9342496477
 20
237.6691500916
 30
0.0
 10
230.738678308
 20
237.9351757179
 30
0.0
  0
SPLINE
  5
3DF
100
AcDbEntity
  8
0
100
AcDbSpline
 62
7
  6
CONTINUOUS
 70
0
 71
3
 72
9
 73
5
 74
0
 42
0.0000001
 43
0.0000001
 44
0.0000000001
 40
0.0
 40
0.0
 40
0.0
 40
0.0
 40
0.4858917214
 40
1.0
 40
1.0
 40
1.0
 40
1.0
 10
232.7545172371
 20
227.4084755671
 30
0.0
 10
232.1534596512
 20
227.3842048683
 30
0.0
 10
230.8932419083
 20
227.6630717923
 30
0.0
 10
229.8781994467
 20
228.4328655173
 30
0.0
 10
229.4483800727
 20
228.902293325
 30
0.0
  0
ENDSEC
  0
SECTION
  2
OBJECTS
  0
DICTIONARY
  5
C
100
AcDbDictionary
280
0
281
1
  3
ACAD_GROUP
350
D
  3
ACAD_MLINESTYLE
350
17
  3
ACAD_LAYOUT
350
1A
  3
ACAD_PLOTSETTINGS
350
19
  3
ACAD_PLOTSTYLENAME
350
E
  0
DICTIONARY
  5
D
102
{ACAD_REACTORS
330
C
102
}
100
AcDbDictionary
280
0
281
1
  0
ACDBDICTIONARYWDFLT
  5
E
102
{ACAD_REACTORS
330
C
102
}
100
AcDbDictionary
281
1
  3
Normal
350
F
100
AcDbDictionaryWithDefault
340
F
  0
DICTIONARY
  5
17
102
{ACAD_REACTORS
330
C
102
}
100
AcDbDictionary
280
0
281
1
  3
Standard
350
18
  0
DICTIONARY
  5
19
102
{ACAD_REACTORS
330
C
102
}
100
AcDbDictionary
281
1
  0
DICTIONARY
  5
1A
102
{ACAD_REACTORS
330
C
102
}
100
AcDbDictionary
281
1
  3
Model
350
3E0
  3
Layout1
350
3E1
  0
ACDBPLACEHOLDER
  5
F
102
{ACAD_REACTORS
330
E
102
}
  0
MLINESTYLE
  5
18
102
{ACAD_REACTORS
330
17
102
}
100
AcDbMlineStyle
  2
STANDARD
 70
0
  3

 62
256
 51
90.0
 52
90.0
 71
2
 49
0.5
 62
256
  6
BYLAYER
 49
-0.5
 62
256
  6
BYLAYER
  0
LAYOUT
  5
3E0
102
{ACAD_REACTORS
330
1A
102
}
100
AcDbPlotSettings
  1

  2
none_device
  4

  6

 40
0.0
 41
0.0
 42
0.0
 43
0.0
 44
210.0
 45
297.0
 46
0.0
 47
0.0
 48
0.0
 49
0.0
140
0.0
141
0.0
142
1.0
143
1.0
 70
1024
 72
1
 73
0
 74
0
  7

 75
0
147
1.0
148
0.0
149
0.0
100
AcDbLayout
  1
Model
 70
0
 71
0
 10
0.0
 20
0.0
 11
210.0
 21
297.0
 12
0.0
 22
0.0
 32
0.0
 14
0.0
 24
0.0
 34
0.0
 15
0.0
 25
0.0
 35
0.0
146
0.0
 13
0.0
 23
0.0
 33
0.0
 16
1.0
 26
0.0
 36
0.0
 17
0.0
 27
1.0
 37
0.0
 76
0
330
210
345
0
346
0
  0
LAYOUT
  5
3E1
102
{ACAD_REACTORS
330
1A
102
}
100
AcDbPlotSettings
  1

  2
none_device
  4

  6

 40
0.0
 41
0.0
 42
0.0
 43
0.0
 44
210.0
 45
297.0
 46
0.0
 47
0.0
 48
0.0
 49
0.0
140
0.0
141
0.0
142
1.0
143
1.0
 70
0
 72
1
 73
0
 74
0
  7

 75
0
147
1.0
148
0.0
149
0.0
100
AcDbLayout
  1
Layout1
 70
0
 71
1
 10
0.0
 20
0.0
 11
210.0
 21
297.0
 12
0.0
 22
0.0
 32
0.0
 14
0.0
 24
0.0
 34
0.0
 15
0.0
 25
0.0
 35
0.0
146
0.0
 13
0.0
 23
0.0
 33
0.0
 16
1.0
 26
0.0
 36
0.0
 17
0.0
 27
1.0
 37
0.0
 76
0
330
211
345
0
346
0
  0
ENDSEC
  0
EOF
