999
DXF file: C:\Users\sesa63760\Dev\_Creo\CAD\MCADID0005460_3D-CAD\drw0001_1.dxf
999
Pro/ENGINEER 2019471 by Parametric Technology Corporation
  0
SECTION
  2
HEADER
  9
$ACADVER
  1
AC1024
  9
$DWGCODEPAGE
  3
ANSI_1252
  9
$EXTMAX
 10
102.1522009809
 20
144.4723985301
 30
0.0
  9
$EXTMIN
 10
0.0
 20
0.0
 30
0.0
  9
$LIMMIN
 10
0.0
 20
0.0
  9
$LIMMAX
 10
102.1522009809
 20
144.4723985301
  9
$VIEWCTR
 10
51.0761004904
 20
72.2361992651
  9
$VIEWSIZE
 40
144.4723985301
  9
$CLAYER
  8
0
  9
$LTSCALE
 40
9.4174600523
  9
$CELTYPE
  6
BYLAYER
  9
$DIMSCALE
 40
1.0
  9
$DIMASZ
 40
1.2160976307
  9
$DIMEXO
 40
1.0
  9
$DIMDLI
 40
6.5066087634
  9
$DIMEXE
 40
1.0
  9
$DIMCEN
 40
1.5410389177
  9
$DIMLFAC
 40
1.0
  9
$DIMBLK
  1
_FILLED
  9
$DIMALT
 70
0
  9
$DIMALTF
 40
0.0393700787
  9
$DIMTXT
 40
1.702536683
  9
$DIMTOL
 70
1
  9
$DIMLIM
 70
0
  9
$DIMTFAC
 40
1.0
  9
$DIMTP
 40
0.01
  9
$DIMTM
 40
0.01
  9
$DIMGAP
 40
0.625
  9
$DIMDSEP
 70
46
  9
$AUNITS
 70
0
  9
$PDMODE
 70
3
  9
$PDSIZE
 40
0.3125
  9
$HANDSEED
  5
3A2
  9
$TILEMODE
 70
1
  9
$MEASUREMENT
 70
1
  9
$INSUNITS
 70
4
  0
ENDSEC
  0
SECTION
  2
CLASSES
  0
CLASS
  1
ACDBDICTIONARYWDFLT
  2
AcDbDictionaryWithDefault
  3
AutoCAD 2000
 90
0
 91
1
280
0
281
0
  0
CLASS
  1
ACDBPLACEHOLDER
  2
AcDbPlaceHolder
  3
AutoCAD 2000
 90
0
 91
1
280
0
281
0
  0
CLASS
  1
LAYOUT
  2
AcDbLayout
  3
AutoCAD 2000
 90
0
 91
0
280
0
281
0
  0
ENDSEC
  0
SECTION
  2
TABLES
  0
TABLE
  2
VPORT
  5
8
100
AcDbSymbolTable
 70
2
  0
VPORT
  5
1F4
100
AcDbSymbolTableRecord
100
AcDbViewportTableRecord
  2
*ACTIVE
 70
0
 10
0.0
 20
0.0
 11
1.0
 21
1.0
 12
51.0761004904
 22
72.2361992651
 13
0.0
 23
0.0
 14
1.0
 24
1.0
 15
0.0
 25
0.0
 16
0.0
 26
0.0
 36
1.0
 17
0.0
 27
0.0
 37
0.0
 40
144.4723985301
 41
0.7070707071
 42
50.0
 43
0.0
 44
0.0
 50
0.0
 51
0.0
 71
0
 72
100
 73
1
 74
1
 75
0
 76
0
 77
0
 78
0
  0
ENDTAB
  0
TABLE
  2
LTYPE
  5
5
100
AcDbSymbolTable
 70
6
  0
LTYPE
  5
14
100
AcDbSymbolTableRecord
100
AcDbLinetypeTableRecord
  2
BYBLOCK
 70
0
  3

 72
65
 73
0
 40
0.0
  0
LTYPE
  5
15
100
AcDbSymbolTableRecord
100
AcDbLinetypeTableRecord
  2
BYLAYER
 70
0
  3

 72
65
 73
0
 40
0.0
  0
LTYPE
  5
16
100
AcDbSymbolTableRecord
100
AcDbLinetypeTableRecord
  2
CONTINUOUS
 70
64
  3
Solid line
 72
65
 73
0
 40
0.0
  0
LTYPE
  5
1F5
100
AcDbSymbolTableRecord
100
AcDbLinetypeTableRecord
  2
CENTER
 70
64
  3
____ _ ____ _ ____ _ ____ _ ____ _ ____ _ ____
 72
65
 73
4
 40
0.6
 49
0.375
 74
0
 49
-0.075
 74
0
 49
0.075
 74
0
 49
-0.075
 74
0
  0
LTYPE
  5
1F6
100
AcDbSymbolTableRecord
100
AcDbLinetypeTableRecord
  2
HIDDEN
 70
64
  3
- - - - - - - - - - - - - - - - - - - -
 72
65
 73
2
 40
0.2
 49
0.1
 74
0
 49
-0.1
 74
0
  0
LTYPE
  5
1F7
100
AcDbSymbolTableRecord
100
AcDbLinetypeTableRecord
  2
PHANTOM
 70
64
  3
_____ _ _ _____ _ _ _____ _ _ _____
 72
65
 73
6
 40
0.8
 49
0.45
 74
0
 49
-0.05
 74
0
 49
0.1
 74
0
 49
-0.05
 74
0
 49
0.1
 74
0
 49
-0.05
 74
0
  0
LTYPE
  5
1F8
100
AcDbSymbolTableRecord
100
AcDbLinetypeTableRecord
  2
DOT
 70
64
  3
. . . . . . . . . . . . . . . . . . . .
 72
65
 73
2
 40
0.2
 49
0.1
 74
0
 49
-0.1
 74
0
  0
LTYPE
  5
1F9
100
AcDbSymbolTableRecord
100
AcDbLinetypeTableRecord
  2
DASHED
 70
64
  3
- - - - - - - - - - - - - - - - - - - -
 72
65
 73
2
 40
0.2
 49
0.1
 74
0
 49
-0.1
 74
0
  0
ENDTAB
  0
TABLE
  2
LAYER
  5
2
100
AcDbSymbolTable
 70
36
  0
LAYER
  5
10
100
AcDbSymbolTableRecord
100
AcDbLayerTableRecord
  2
0
 70
0
 62
7
  6
CONTINUOUS
370
-3
390
F
  0
LAYER
  5
1FA
100
AcDbSymbolTableRecord
100
AcDbLayerTableRecord
  2
DEFAULT_1
 70
0
 62
7
  6
CENTER
370
-3
390
F
  0
LAYER
  5
1FB
100
AcDbSymbolTableRecord
100
AcDbLayerTableRecord
  2
DEFAULT_2
 70
0
 62
7
  6
HIDDEN
370
-3
390
F
  0
LAYER
  5
1FC
100
AcDbSymbolTableRecord
100
AcDbLayerTableRecord
  2
DEFAULT_3
 70
0
 62
7
  6
PHANTOM
370
-3
390
F
  0
LAYER
  5
1FD
100
AcDbSymbolTableRecord
100
AcDbLayerTableRecord
  2
00_COMPONENTS
 70
0
 62
7
  6
CONTINUOUS
370
-3
390
F
  0
LAYER
  5
1FE
100
AcDbSymbolTableRecord
100
AcDbLayerTableRecord
  2
01_1_DEFAULT_DATUMS
 70
0
 62
7
  6
CONTINUOUS
370
-3
390
F
  0
LAYER
  5
1FF
100
AcDbSymbolTableRecord
100
AcDbLayerTableRecord
  2
01_PLANES
 70
0
 62
7
  6
CONTINUOUS
370
-3
390
F
  0
LAYER
  5
200
100
AcDbSymbolTableRecord
100
AcDbLayerTableRecord
  2
02_COORD_SYS
 70
0
 62
7
  6
CONTINUOUS
370
-3
390
F
  0
LAYER
  5
201
100
AcDbSymbolTableRecord
100
AcDbLayerTableRecord
  2
03_AXES
 70
0
 62
7
  6
CONTINUOUS
370
-3
390
F
  0
LAYER
  5
202
100
AcDbSymbolTableRecord
100
AcDbLayerTableRecord
  2
04_POINTS
 70
0
 62
7
  6
CONTINUOUS
370
-3
390
F
  0
LAYER
  5
203
100
AcDbSymbolTableRecord
100
AcDbLayerTableRecord
  2
05_CURVES
 70
0
 62
7
  6
CONTINUOUS
370
-3
390
F
  0
LAYER
  5
204
100
AcDbSymbolTableRecord
100
AcDbLayerTableRecord
  2
06_SURFS
 70
0
 62
7
  6
CONTINUOUS
370
-3
390
F
  0
LAYER
  5
205
100
AcDbSymbolTableRecord
100
AcDbLayerTableRecord
  2
07_COSMETICS
 70
0
 62
7
  6
CONTINUOUS
370
-3
390
F
  0
LAYER
  5
206
100
AcDbSymbolTableRecord
100
AcDbLayerTableRecord
  2
10_NOTES
 70
0
 62
7
  6
CONTINUOUS
370
-3
390
F
  0
LAYER
  5
207
100
AcDbSymbolTableRecord
100
AcDbLayerTableRecord
  2
11_NOTES_PUB
 70
0
 62
7
  6
CONTINUOUS
370
-3
390
F
  0
LAYER
  5
208
100
AcDbSymbolTableRecord
100
AcDbLayerTableRecord
  2
13_REF_GTOL
 70
0
 62
7
  6
CONTINUOUS
370
-3
390
F
  0
LAYER
  5
209
100
AcDbSymbolTableRecord
100
AcDbLayerTableRecord
  2
16_MISC
 70
0
 62
7
  6
CONTINUOUS
370
-3
390
F
  0
LAYER
  5
20A
100
AcDbSymbolTableRecord
100
AcDbLayerTableRecord
  2
17_NO_PRINT
 70
0
 62
7
  6
CONTINUOUS
370
-3
390
F
  0
LAYER
  5
20B
100
AcDbSymbolTableRecord
100
AcDbLayerTableRecord
  2
18_DATUM_CAMS_JOINTS
 70
0
 62
7
  6
CONTINUOUS
370
-3
390
F
  0
LAYER
  5
20C
100
AcDbSymbolTableRecord
100
AcDbLayerTableRecord
  2
19_DATUM_FUNCTIONAL
 70
0
 62
7
  6
CONTINUOUS
370
-3
390
F
  0
LAYER
  5
20D
100
AcDbSymbolTableRecord
100
AcDbLayerTableRecord
  2
20_DATUM_KINEMATIC_SCHEME
 70
0
 62
7
  6
CONTINUOUS
370
-3
390
F
  0
ENDTAB
  0
TABLE
  2
STYLE
  5
3
100
AcDbSymbolTable
 70
1
  0
STYLE
  5
11
100
AcDbSymbolTableRecord
100
AcDbTextStyleTableRecord
  2
STANDARD
 70
0
 40
0.0
 41
1.0
 50
0.0
 71
0
 42
0.2
  3
ARIAL.TTF
  4

  0
STYLE
  5
20E
100
AcDbSymbolTableRecord
100
AcDbTextStyleTableRecord
  2
TEXTSTYLE_1
 70
0
 40
0.0
 41
0.8
 50
0.0
 71
0
 42
0.2
  3
gdt
  4

  0
ENDTAB
  0
TABLE
  2
VIEW
  5
6
100
AcDbSymbolTable
 70
0
  0
ENDTAB
  0
TABLE
  2
UCS
  5
7
100
AcDbSymbolTable
 70
0
  0
ENDTAB
  0
TABLE
  2
APPID
  5
9
100
AcDbSymbolTable
 70
1
  0
APPID
  5
20F
100
AcDbSymbolTableRecord
100
AcDbRegAppTableRecord
  2
ACAD
 70
0
  0
ENDTAB
  0
TABLE
  2
BLOCK_RECORD
  5
1
100
AcDbSymbolTable
 70
0
  0
BLOCK_RECORD
  5
210
100
AcDbSymbolTableRecord
100
AcDbBlockTableRecord
  2
*Model_Space
  0
BLOCK_RECORD
  5
211
100
AcDbSymbolTableRecord
100
AcDbBlockTableRecord
  2
*Paper_Space
  0
BLOCK_RECORD
  5
212
100
AcDbSymbolTableRecord
100
AcDbBlockTableRecord
  2
_FILLED
  0
ENDTAB
  0
TABLE
  2
DIMSTYLE
  5
A
100
AcDbSymbolTable
 70
1
100
AcDbDimStyleTable
 71
0
  0
DIMSTYLE
105
213
100
AcDbSymbolTableRecord
100
AcDbDimStyleTableRecord
  2
STANDARD
 70
0
  3

  4

 40
1.0
 41
1.2160976307
 42
1.0
 43
0.38
 44
1.0
 45
0.0
 46
0.0
 47
0.01
 48
0.01
140
1.702536683
141
0.09
142
0.0
143
25.4
144
1.0
145
0.0
146
1.0
147
0.625
 71
1
 72
0
 73
0
 74
0
 75
0
 76
0
 77
1
 78
8
 79
2
170
0
171
1
172
0
173
0
174
0
175
0
176
0
177
0
178
0
270
2
179
2
271
2
272
2
273
2
274
2
275
0
280
0
281
0
282
0
283
1
284
8
285
0
286
0
287
3
288
0
340
11
278
46
341
212
342
212
343
212
344
212
  0
ENDTAB
  0
ENDSEC
  0
SECTION
  2
BLOCKS
  0
BLOCK
  5
20
100
AcDbEntity
  8
0
100
AcDbBlockBegin
  2
*Model_Space
 70
0
 10
0.0
 20
0.0
 30
0.0
  3
*Model_Space
  1

  0
ENDBLK
  5
21
100
AcDbEntity
  8
0
100
AcDbBlockEnd
  0
BLOCK
  5
1C
100
AcDbEntity
  8
0
100
AcDbBlockBegin
  2
*Paper_Space
 70
0
 10
0.0
 20
0.0
 30
0.0
  3
*Paper_Space
  1

  0
ENDBLK
  5
1D
100
AcDbEntity
  8
0
100
AcDbBlockEnd
  0
BLOCK
  5
214
100
AcDbEntity
  8
0
100
AcDbBlockBegin
  2
_FILLED
 70
64
 10
0.0
 20
0.0
  3
_FILLED
  1

  0
SOLID
  5
215
100
AcDbEntity
  8
0
  6
BYBLOCK
 62
0
100
AcDbTrace
 10
0.0
 20
0.0
 11
-1.0
 21
0.25
 12
-1.0
 22
-0.25
 13
-1.0
 23
-0.25
  0
ENDBLK
  5
216
100
AcDbEntity
  8
0
  6
BYBLOCK
 62
0
100
AcDbBlockEnd
  0
ENDSEC
  0
SECTION
  2
ENTITIES
  0
LINE
  5
217
100
AcDbEntity
  8
0
100
AcDbLine
 62
7
  6
BYLAYER
 10
12.5802240214
 20
41.0855430337
 11
12.6794749715
 21
40.9188324774
  0
LINE
  5
218
100
AcDbEntity
  8
0
100
AcDbLine
 62
7
  6
BYLAYER
 10
15.1543590095
 20
39.4899898366
 11
15.0551080595
 21
39.6567003929
  0
LINE
  5
219
100
AcDbEntity
  8
0
100
AcDbLine
 62
7
  6
BYLAYER
 10
12.6794492537
 20
40.918788045
 11
15.1543332917
 21
39.4899454042
  0
LINE
  5
21A
100
AcDbEntity
  8
0
100
AcDbLine
 62
7
  6
BYLAYER
 10
12.5802240214
 20
41.0855430338
 11
15.0551080594
 21
39.656700393
  0
LINE
  5
21B
100
AcDbEntity
  8
0
100
AcDbLine
 62
7
  6
BYLAYER
 10
12.5762548477
 20
57.559799721
 11
15.0511388857
 21
56.1309570801
  0
LINE
  5
21C
100
AcDbEntity
  8
0
100
AcDbLine
 62
7
  6
BYLAYER
 10
12.9111286042
 20
58.1179460937
 11
15.3860126422
 21
56.6891034528
  0
LINE
  5
21D
100
AcDbEntity
  8
0
100
AcDbLine
 62
7
  6
BYLAYER
 10
28.0691686966
 20
49.1200841272
 11
28.0850197711
 21
49.1076434472
  0
LINE
  5
21E
100
AcDbEntity
  8
0
100
AcDbLine
 62
7
  6
BYLAYER
 10
28.0493952458
 20
49.140010922
 11
28.0840370148
 21
49.1051396355
  0
LINE
  5
21F
100
AcDbEntity
  8
0
100
AcDbLine
 62
7
  6
BYLAYER
 10
28.050714624
 20
49.1433221085
 11
28.0691686966
 21
49.1200841272
  0
LINE
  5
220
100
AcDbEntity
  8
0
100
AcDbLine
 62
7
  6
BYLAYER
 10
15.395706377
 20
39.50963926
 11
15.1543590095
 21
39.4899898366
  0
LINE
  5
221
100
AcDbEntity
  8
0
100
AcDbLine
 62
7
  6
BYLAYER
 10
46.7281865128
 20
96.8555402957
 11
45.6821363839
 21
96.2516065772
  0
LWPOLYLINE
  5
222
100
AcDbEntity
  8
0
100
AcDbPolyline
 62
7
  6
BYLAYER
 90
3
 70
0
 10
34.6281220254
 20
45.4142304554
 10
37.3312343672
 20
45.6997258118
 10
39.3922311275
 20
47.449108955
  0
LINE
  5
223
100
AcDbEntity
  8
0
100
AcDbLine
 62
7
  6
BYLAYER
 10
28.2556589661
 20
49.5568289623
 11
28.2556589661
 21
61.4816334767
  0
LINE
  5
224
100
AcDbEntity
  8
0
100
AcDbLine
 62
7
  6
BYLAYER
 10
29.5721353705
 20
64.0366668167
 11
29.5721353705
 21
63.994768262
  0
LINE
  5
225
100
AcDbEntity
  8
0
100
AcDbLine
 62
7
  6
BYLAYER
 10
29.642846343
 20
64.0112296015
 11
29.642846343
 21
63.9539441865
  0
LINE
  5
226
100
AcDbEntity
  8
0
100
AcDbLine
 62
7
  6
BYLAYER
 10
31.1101010835
 20
54.5744004899
 11
31.1101010835
 21
61.1880700687
  0
LINE
  5
227
100
AcDbEntity
  8
0
100
AcDbLine
 62
7
  6
BYLAYER
 10
30.1926868792
 20
68.5056997652
 11
30.1897369743
 21
68.4845211662
  0
LINE
  5
228
100
AcDbEntity
  8
0
100
AcDbLine
 62
7
  6
BYLAYER
 10
52.0920424716
 20
98.6745427013
 11
51.0313867158
 21
98.0621764705
  0
LINE
  5
229
100
AcDbEntity
  8
0
100
AcDbLine
 62
7
  6
BYLAYER
 10
48.4959608257
 20
95.8349384094
 11
47.4499106967
 21
95.2310046909
  0
LINE
  5
22A
100
AcDbEntity
  8
0
100
AcDbLine
 62
7
  6
BYLAYER
 10
25.3580417107
 20
62.7479490601
 11
22.8831576727
 21
64.1767917009
  0
LINE
  5
22B
100
AcDbEntity
  8
0
100
AcDbLine
 62
7
  6
BYLAYER
 10
23.7127703625
 20
64.2735765763
 11
28.1521060067
 21
61.7105247025
  0
LINE
  5
22C
100
AcDbEntity
  8
0
100
AcDbLine
 62
7
  6
BYLAYER
 10
31.6581090597
 20
62.8550394777
 11
31.6581090597
 21
62.7904580361
  0
LINE
  5
22D
100
AcDbEntity
  8
0
100
AcDbLine
 62
7
  6
BYLAYER
 10
31.7288200322
 20
62.7993587216
 11
31.7288200322
 21
62.7496339607
  0
LINE
  5
22E
100
AcDbEntity
  8
0
100
AcDbLine
 62
7
  6
BYLAYER
 10
32.7541026877
 20
70.1883507833
 11
32.7541026877
 21
70.0338104882
  0
LINE
  5
22F
100
AcDbEntity
  8
0
100
AcDbLine
 62
7
  6
BYLAYER
 10
32.2786607378
 20
67.3152940286
 11
32.2731781235
 21
67.2759865063
  0
LWPOLYLINE
  5
230
100
AcDbEntity
  8
0
100
AcDbPolyline
 62
7
  6
BYLAYER
 90
3
 70
0
 10
25.1750985703
 20
69.1274054882
 10
26.3652016096
 20
70.8192828119
 10
26.9586535251
 20
71.2240578189
  0
LINE
  5
231
100
AcDbEntity
  8
0
100
AcDbLine
 62
7
  6
BYLAYER
 10
70.816140699
 20
105.3566766643
 11
55.667189048
 21
96.6104775584
  0
LINE
  5
232
100
AcDbEntity
  8
0
100
AcDbLine
 62
7
  6
BYLAYER
 10
51.0636384896
 20
93.6890706748
 11
53.6326802863
 21
95.172298794
  0
LINE
  5
233
100
AcDbEntity
  8
0
100
AcDbLine
 62
7
  6
BYLAYER
 10
56.3347008225
 20
96.2250981742
 11
55.2740450667
 21
95.6127319434
  0
LINE
  5
234
100
AcDbEntity
  8
0
100
AcDbLine
 62
7
  6
BYLAYER
 10
51.325451068
 20
93.3329327623
 11
53.8205477088
 21
94.773468858
  0
LINE
  5
235
100
AcDbEntity
  8
0
100
AcDbLine
 62
7
  6
BYLAYER
 10
62.1453861112
 20
55.2031664971
 11
62.7092892984
 21
55.2917362013
  0
LINE
  5
236
100
AcDbEntity
  8
0
100
AcDbLine
 62
7
  6
BYLAYER
 10
58.6328515887
 20
53.0118730388
 11
58.8828450463
 21
52.9871202926
  0
LINE
  5
237
100
AcDbEntity
  8
0
100
AcDbLine
 62
7
  6
BYLAYER
 10
31.1101010835
 20
61.1880700687
 11
29.7312371194
 21
61.98413954
  0
LINE
  5
238
100
AcDbEntity
  8
0
100
AcDbLine
 62
7
  6
BYLAYER
 10
31.7288200322
 20
62.7496339607
 11
31.6581090597
 21
62.7904580361
  0
LINE
  5
239
100
AcDbEntity
  8
0
100
AcDbLine
 62
7
  6
BYLAYER
 10
29.642846343
 20
63.9539441865
 11
29.5721353705
 21
63.994768262
  0
LINE
  5
23A
100
AcDbEntity
  8
0
100
AcDbLine
 62
7
  6
BYLAYER
 10
56.3347008225
 20
92.9706025085
 11
55.2740450667
 21
92.3582362777
  0
LINE
  5
23B
100
AcDbEntity
  8
0
100
AcDbLine
 62
7
  6
BYLAYER
 10
51.9852918719
 20
90.2846388371
 11
53.4002066502
 21
91.101535389
  0
LINE
  5
23C
100
AcDbEntity
  8
0
100
AcDbLine
 62
7
  6
BYLAYER
 10
57.8196083532
 20
93.2856431828
 11
56.5065928217
 21
92.5275778373
  0
LINE
  5
23D
100
AcDbEntity
  8
0
100
AcDbLine
 62
7
  6
BYLAYER
 10
54.1426695064
 20
91.1627742217
 11
54.0012475614
 21
91.081124711
  0
LINE
  5
23E
100
AcDbEntity
  8
0
100
AcDbLine
 62
7
  6
BYLAYER
 10
52.5156241658
 20
89.9784582712
 11
49.5464951533
 21
88.2642410691
  0
LINE
  5
23F
100
AcDbEntity
  8
0
100
AcDbLine
 62
7
  6
BYLAYER
 10
60.8248940918
 20
57.78845159
 11
60.5749006343
 21
57.8132043362
  0
LINE
  5
240
100
AcDbEntity
  8
0
100
AcDbLine
 62
7
  6
BYLAYER
 10
59.6368272217
 20
50.9754283424
 11
54.2615817128
 21
54.0787575772
  0
LINE
  5
241
100
AcDbEntity
  8
0
100
AcDbLine
 62
7
  6
BYLAYER
 10
58.6328515887
 20
53.0118730388
 11
55.5232361294
 21
54.8071697462
  0
LINE
  5
242
100
AcDbEntity
  8
0
100
AcDbLine
 62
7
  6
BYLAYER
 10
59.6934490636
 20
92.1629800225
 11
60.400552689
 21
92.5712240566
  0
LINE
  5
243
100
AcDbEntity
  8
0
100
AcDbLine
 62
7
  6
BYLAYER
 10
57.3406702826
 20
90.3778739842
 11
56.2800145268
 21
89.7655077533
  0
LINE
  5
244
100
AcDbEntity
  8
0
100
AcDbLine
 62
7
  6
BYLAYER
 10
46.9832223997
 20
84.1626776549
 11
49.3393875099
 21
85.5230491094
  0
LINE
  5
245
100
AcDbEntity
  8
0
100
AcDbLine
 62
7
  6
BYLAYER
 10
77.7458160055
 20
101.35591727
 11
61.4117174543
 21
91.9254773667
  0
LINE
  5
246
100
AcDbEntity
  8
0
100
AcDbLine
 62
7
  6
BYLAYER
 10
58.5267392041
 20
89.9380567172
 11
58.5974496033
 21
89.9788811415
  0
LINE
  5
247
100
AcDbEntity
  8
0
100
AcDbLine
 62
7
  6
BYLAYER
 10
43.1993911746
 20
80.60095325
 11
26.958498876
 21
71.2243256804
  0
LINE
  5
248
100
AcDbEntity
  8
0
100
AcDbLine
 62
7
  6
BYLAYER
 10
60.0116596174
 20
90.2646498727
 11
61.0016049895
 21
90.8361916881
  0
LINE
  5
249
100
AcDbEntity
  8
0
100
AcDbLine
 62
7
  6
BYLAYER
 10
61.3551569081
 20
91.040313765
 11
62.0622605863
 21
91.4485578271
  0
LINE
  5
24A
100
AcDbEntity
  8
0
100
AcDbLine
 62
7
  6
BYLAYER
 10
27.187652498
 20
70.2893471042
 11
24.8351453621
 21
68.9311345835
  0
LINE
  5
24B
100
AcDbEntity
  8
0
100
AcDbLine
 62
7
  6
BYLAYER
 10
61.4965853299
 20
90.0605322149
 11
61.9208476323
 21
90.3054787073
  0
LINE
  5
24C
100
AcDbEntity
  8
0
100
AcDbLine
 62
7
  6
BYLAYER
 10
62.2743995508
 20
90.5096007842
 11
62.9815032295
 21
90.9178448465
  0
LINE
  5
24D
100
AcDbEntity
  8
0
100
AcDbLine
 62
7
  6
BYLAYER
 10
84.8261473038
 20
62.9858793055
 11
77.4416171118
 21
62.16747402
  0
LINE
  5
24E
100
AcDbEntity
  8
0
100
AcDbLine
 62
7
  6
BYLAYER
 10
58.7035649164
 20
53.4609574171
 11
60.462952473
 21
52.4451975172
  0
LINE
  5
24F
100
AcDbEntity
  8
0
100
AcDbLine
 62
7
  6
BYLAYER
 10
56.5697426428
 20
55.4113669568
 11
58.7035649164
 21
54.1794319628
  0
LINE
  5
250
100
AcDbEntity
  8
0
100
AcDbLine
 62
7
  6
BYLAYER
 10
45.3285844653
 20
95.6392332917
 11
45.3285844653
 21
81.0454616962
  0
LINE
  5
251
100
AcDbEntity
  8
0
100
AcDbLine
 62
7
  6
BYLAYER
 10
28.1521055624
 20
49.2238401065
 11
26.1876572133
 21
45.8212964175
  0
LINE
  5
252
100
AcDbEntity
  8
0
100
AcDbLine
 62
7
  6
BYLAYER
 10
22.883157671
 20
64.1767916998
 11
12.9111286042
 21
58.1179460937
  0
LINE
  5
253
100
AcDbEntity
  8
0
100
AcDbLine
 62
7
  6
BYLAYER
 10
49.3546691656
 20
80.2575749407
 11
50.1194521601
 21
80.6991199727
  0
LINE
  5
254
100
AcDbEntity
  8
0
100
AcDbLine
 62
7
  6
BYLAYER
 10
32.7541026877
 20
70.1883507833
 11
30.4015955518
 21
68.8301382625
  0
LINE
  5
255
100
AcDbEntity
  8
0
100
AcDbLine
 62
7
  6
BYLAYER
 10
62.8754141609
 20
87.5089347496
 11
62.9815032671
 21
87.570184958
  0
LINE
  5
256
100
AcDbEntity
  8
0
100
AcDbLine
 62
7
  6
BYLAYER
 10
32.8248136602
 20
70.0746352434
 11
30.3141932419
 21
68.6251365268
  0
LINE
  5
257
100
AcDbEntity
  8
0
100
AcDbLine
 62
7
  6
BYLAYER
 10
65.0321339556
 20
88.0193284423
 11
65.4563962579
 21
88.2642749346
  0
LINE
  5
258
100
AcDbEntity
  8
0
100
AcDbLine
 62
7
  6
BYLAYER
 10
65.8099481765
 20
88.4683970115
 11
66.5170518553
 21
88.8766410739
  0
LINE
  5
259
100
AcDbEntity
  8
0
100
AcDbLine
 62
7
  6
BYLAYER
 10
62.1453861112
 20
55.2031664971
 11
61.3936491512
 21
55.6371722148
  0
LINE
  5
25A
100
AcDbEntity
  8
0
100
AcDbLine
 62
7
  6
BYLAYER
 10
62.7092974418
 20
55.2917374804
 11
61.4618154017
 21
56.0119552792
  0
LINE
  5
25B
100
AcDbEntity
  8
0
100
AcDbLine
 62
7
  6
BYLAYER
 10
60.8248940918
 20
57.78845159
 11
63.3810957483
 21
56.3126612624
  0
LINE
  5
25C
100
AcDbEntity
  8
0
100
AcDbLine
 62
7
  6
BYLAYER
 10
46.9832223997
 20
81.143709939
 11
46.9832223997
 21
84.1626776549
  0
LINE
  5
25D
100
AcDbEntity
  8
0
100
AcDbLine
 62
7
  6
BYLAYER
 10
47.0963587781
 20
84.227998841
 11
47.0963587781
 21
94.6186314054
  0
LWPOLYLINE
  5
25E
100
AcDbEntity
  8
0
100
AcDbPolyline
 62
7
  6
BYLAYER
 90
7
 70
0
 10
39.3922311275
 20
47.449108955
 10
40.4365983182
 20
50.4306641592
 10
40.5310486114
 20
52.27147984
 10
39.8496473893
 20
56.364052454
 10
38.0942313308
 20
60.5703707535
 10
35.4850265785
 20
64.3627300667
 10
32.3493715409
 20
67.2653590463
  0
LINE
  5
25F
100
AcDbEntity
  8
0
100
AcDbLine
 62
7
  6
BYLAYER
 10
59.8359312902
 20
90.01970542
 11
60.0116596174
 21
90.2646498727
  0
LINE
  5
260
100
AcDbEntity
  8
0
100
AcDbLine
 62
7
  6
BYLAYER
 10
15.3860126422
 20
56.6891034528
 11
25.3580417095
 21
62.7479490593
  0
LINE
  5
261
100
AcDbEntity
  8
0
100
AcDbLine
 62
7
  6
BYLAYER
 10
65.3856935285
 20
87.1620201383
 11
66.3756389007
 21
87.7335619538
  0
LINE
  5
262
100
AcDbEntity
  8
0
100
AcDbLine
 62
7
  6
BYLAYER
 10
66.7291908192
 20
87.9376840307
 11
67.4362944974
 21
88.3459280927
  0
LINE
  5
263
100
AcDbEntity
  8
0
100
AcDbLine
 62
7
  6
BYLAYER
 10
68.390898675
 20
88.7738070738
 11
69.0980022703
 21
89.182051088
  0
LINE
  5
264
100
AcDbEntity
  8
0
100
AcDbLine
 62
7
  6
BYLAYER
 10
32.3294522518
 20
67.4660729304
 11
32.55460877
 21
67.5960663304
  0
LINE
  5
265
100
AcDbEntity
  8
0
100
AcDbLine
 62
7
  6
BYLAYER
 10
32.5582802135
 20
67.5897071658
 11
34.9107873494
 21
68.9479196866
  0
LINE
  5
266
100
AcDbEntity
  8
0
100
AcDbLine
 62
7
  6
BYLAYER
 10
65.3856935285
 20
86.3455177212
 11
66.3756389006
 21
86.9170595366
  0
LINE
  5
267
100
AcDbEntity
  8
0
100
AcDbLine
 62
7
  6
BYLAYER
 10
63.5793808874
 20
85.0635480518
 11
69.0954979215
 21
88.2474441937
  0
LINE
  5
268
100
AcDbEntity
  8
0
100
AcDbLine
 62
7
  6
BYLAYER
 10
84.958335202
 20
97.1918615739
 11
70.0914362372
 21
88.6085046903
  0
LINE
  5
269
100
AcDbEntity
  8
0
100
AcDbLine
 62
7
  6
BYLAYER
 10
65.6999404385
 20
85.902440852
 11
64.6538903096
 21
85.2985071334
  0
LINE
  5
26A
100
AcDbEntity
  8
0
100
AcDbLine
 62
7
  6
BYLAYER
 10
63.4758279445
 20
84.0589723254
 11
63.1222701916
 21
83.8548468676
  0
LINE
  5
26B
100
AcDbEntity
  8
0
100
AcDbLine
 62
7
  6
BYLAYER
 10
63.4758249056
 20
83.6507265761
 11
60.5066958931
 21
81.936509374
  0
LINE
  5
26C
100
AcDbEntity
  8
0
100
AcDbLine
 62
7
  6
BYLAYER
 10
29.632296706
 20
64.0295022179
 11
29.5721353705
 21
63.994768262
  0
LINE
  5
26D
100
AcDbEntity
  8
0
100
AcDbLine
 62
7
  6
BYLAYER
 10
67.4677147514
 20
84.8818389657
 11
66.4216646224
 21
84.2779052471
  0
LINE
  5
26E
100
AcDbEntity
  8
0
100
AcDbLine
 62
7
  6
BYLAYER
 10
63.8289051342
 20
85.0382434337
 11
69.3460947337
 21
88.2223368466
  0
LINE
  5
26F
100
AcDbEntity
  8
0
100
AcDbLine
 62
7
  6
BYLAYER
 10
63.5932286658
 20
58.2314450789
 11
61.390581872
 21
59.5031150292
  0
LINE
  5
270
100
AcDbEntity
  8
0
100
AcDbLine
 62
7
  6
BYLAYER
 10
60.3506781672
 20
60.4171683176
 11
60.2337781638
 21
60.4846590392
  0
LINE
  5
271
100
AcDbEntity
  8
0
100
AcDbLine
 62
7
  6
BYLAYER
 10
68.5316317574
 20
57.2572671047
 11
67.8873919256
 21
57.6292107306
  0
LINE
  5
272
100
AcDbEntity
  8
0
100
AcDbLine
 62
7
  6
BYLAYER
 10
64.1306332345
 20
59.7991411666
 11
61.5939223897
 21
61.2636787234
  0
LINE
  5
273
100
AcDbEntity
  8
0
100
AcDbLine
 62
7
  6
BYLAYER
 10
72.9045326767
 20
56.6793087468
 11
69.5678893673
 21
58.6056770794
  0
LINE
  5
274
100
AcDbEntity
  8
0
100
AcDbLine
 62
7
  6
BYLAYER
 10
49.5464951533
 20
85.9808325568
 11
49.5464951533
 21
88.2642410691
  0
LINE
  5
275
100
AcDbEntity
  8
0
100
AcDbLine
 62
7
  6
BYLAYER
 10
51.0313867158
 20
98.0621764705
 11
51.0313867158
 21
96.6741223614
  0
LINE
  5
276
100
AcDbEntity
  8
0
100
AcDbLine
 62
7
  6
BYLAYER
 10
51.3389819485
 20
93.1364562832
 11
51.3389818702
 21
89.2991275801
  0
LINE
  5
277
100
AcDbEntity
  8
0
100
AcDbLine
 62
7
  6
BYLAYER
 10
51.9852918719
 20
89.6722726063
 11
51.9852918719
 21
90.2846388371
  0
LINE
  5
278
100
AcDbEntity
  8
0
100
AcDbLine
 62
7
  6
BYLAYER
 10
52.2154553621
 20
90.9534633153
 11
52.2154553746
 21
90.4175230041
  0
LINE
  5
279
100
AcDbEntity
  8
0
100
AcDbLine
 62
7
  6
BYLAYER
 10
28.2556589661
 20
61.1322191813
 11
29.7312371194
 21
61.98413954
  0
LINE
  5
27A
100
AcDbEntity
  8
0
100
AcDbLine
 62
7
  6
BYLAYER
 10
31.7336249769
 20
62.834056911
 11
31.6581090597
 21
62.7904580361
  0
LINE
  5
27B
100
AcDbEntity
  8
0
100
AcDbLine
 62
7
  6
BYLAYER
 10
74.2605990356
 20
86.20149186
 11
69.452250604
 21
83.4254563598
  0
LINE
  5
27C
100
AcDbEntity
  8
0
100
AcDbLine
 62
7
  6
BYLAYER
 10
28.2556589661
 20
59.5400669811
 11
31.1101010835
 21
61.1880700687
  0
LINE
  5
27D
100
AcDbEntity
  8
0
100
AcDbLine
 62
7
  6
BYLAYER
 10
73.6116385783
 20
58.8022276324
 11
70.3107357764
 21
60.7079616524
  0
LINE
  5
27E
100
AcDbEntity
  8
0
100
AcDbLine
 62
7
  6
BYLAYER
 10
70.3107357792
 20
61.2512732019
 11
71.6779815924
 21
60.4619113213
  0
LINE
  5
27F
100
AcDbEntity
  8
0
100
AcDbLine
 62
7
  6
BYLAYER
 10
54.1426695064
 20
91.6118533729
 11
54.1426695064
 21
90.9994765601
  0
LINE
  5
280
100
AcDbEntity
  8
0
100
AcDbLine
 62
7
  6
BYLAYER
 10
55.2740450667
 20
92.3582362777
 11
55.2740450667
 21
95.6127319434
  0
LINE
  5
281
100
AcDbEntity
  8
0
100
AcDbLine
 62
7
  6
BYLAYER
 10
70.5122619988
 20
81.5896815934
 11
75.3205678803
 21
84.3656929578
  0
LINE
  5
282
100
AcDbEntity
  8
0
100
AcDbLine
 62
7
  6
BYLAYER
 10
91.8880105084
 20
93.1911021796
 11
75.5539119573
 21
83.7606622763
  0
LINE
  5
283
100
AcDbEntity
  8
0
100
AcDbLine
 62
7
  6
BYLAYER
 10
64.3003383909
 20
75.7150515623
 11
64.1306332345
 21
75.6170728294
  0
LINE
  5
284
100
AcDbEntity
  8
0
100
AcDbLine
 62
7
  6
BYLAYER
 10
74.3983520079
 20
66.7681738095
 11
77.1650000345
 21
65.9162299478
  0
LINE
  5
285
100
AcDbEntity
  8
0
100
AcDbLine
 62
7
  6
BYLAYER
 10
74.9316553992
 20
66.7811148446
 11
74.2530862038
 21
66.9900690936
  0
LINE
  5
286
100
AcDbEntity
  8
0
100
AcDbLine
 62
7
  6
BYLAYER
 10
74.3500035178
 20
66.7859093478
 11
74.3983520079
 21
66.7681738095
  0
LINE
  5
287
100
AcDbEntity
  8
0
100
AcDbLine
 62
7
  6
BYLAYER
 10
70.7079477057
 20
63.2495252489
 11
70.3107357903
 21
63.4788504672
  0
LINE
  5
288
100
AcDbEntity
  8
0
100
AcDbLine
 62
7
  6
BYLAYER
 10
54.1426695064
 20
91.6118533729
 11
53.7891146439
 21
95.0819834187
  0
LINE
  5
289
100
AcDbEntity
  8
0
100
AcDbLine
 62
7
  6
BYLAYER
 10
56.3347008225
 20
92.9706025085
 11
56.3347008225
 21
96.2250981742
  0
LINE
  5
28A
100
AcDbEntity
  8
0
100
AcDbLine
 62
7
  6
BYLAYER
 10
57.8196082984
 20
90.3463097
 11
57.8196083743
 21
93.2853710275
  0
LINE
  5
28B
100
AcDbEntity
  8
0
100
AcDbLine
 62
7
  6
BYLAYER
 10
58.7035649164
 20
57.0851861382
 11
58.7035649164
 21
53.4609574171
  0
LINE
  5
28C
100
AcDbEntity
  8
0
100
AcDbLine
 62
7
  6
BYLAYER
 10
58.9864064513
 20
53.2160038701
 11
58.9864064513
 21
53.297662475
  0
LINE
  5
28D
100
AcDbEntity
  8
0
100
AcDbLine
 62
7
  6
BYLAYER
 10
63.4758249178
 20
84.8342702818
 11
63.5793659106
 21
85.0635740063
  0
LINE
  5
28E
100
AcDbEntity
  8
0
100
AcDbLine
 62
7
  6
BYLAYER
 10
63.3722635006
 20
83.8300942072
 11
63.4758248769
 21
84.0589776386
  0
LINE
  5
28F
100
AcDbEntity
  8
0
100
AcDbLine
 62
7
  6
BYLAYER
 10
31.1101010835
 20
54.5744004899
 11
28.2556589661
 21
52.9263974024
  0
LINE
  5
290
100
AcDbEntity
  8
0
100
AcDbLine
 62
7
  6
BYLAYER
 10
77.1650000345
 20
65.9162299478
 11
77.2346493476
 21
65.8856854876
  0
LINE
  5
291
100
AcDbEntity
  8
0
100
AcDbLine
 62
7
  6
BYLAYER
 10
70.3107369181
 20
67.8253419341
 11
70.5122619991
 21
67.7089941259
  0
LINE
  5
292
100
AcDbEntity
  8
0
100
AcDbLine
 62
7
  6
BYLAYER
 10
74.9316553992
 20
66.7811148446
 11
75.5539119573
 21
66.4218629806
  0
LINE
  5
293
100
AcDbEntity
  8
0
100
AcDbLine
 62
7
  6
BYLAYER
 10
77.1650000345
 20
65.9162299478
 11
77.1296445482
 21
65.9366419855
  0
LINE
  5
294
100
AcDbEntity
  8
0
100
AcDbLine
 62
7
  6
BYLAYER
 10
77.1994117893
 20
65.906302153
 11
77.2347672756
 21
65.8858901153
  0
LINE
  5
295
100
AcDbEntity
  8
0
100
AcDbLine
 62
7
  6
BYLAYER
 10
74.6629560474
 20
67.4925632914
 11
74.2599123699
 21
67.7252554029
  0
LINE
  5
296
100
AcDbEntity
  8
0
100
AcDbLine
 62
7
  6
BYLAYER
 10
61.331114414
 20
88.400542776
 11
61.3310128222
 21
88.4269466194
  0
LINE
  5
297
100
AcDbEntity
  8
0
100
AcDbLine
 62
7
  6
BYLAYER
 10
62.248931255
 20
88.240397451
 11
62.2503571171
 21
87.869814092
  0
LINE
  5
298
100
AcDbEntity
  8
0
100
AcDbLine
 62
7
  6
BYLAYER
 10
59.6934490564
 20
89.3460558349
 11
59.6934490636
 21
92.1629800225
  0
LINE
  5
299
100
AcDbEntity
  8
0
100
AcDbLine
 62
7
  6
BYLAYER
 10
59.8359254525
 20
89.2637964817
 11
59.8359254525
 21
90.01970542
  0
LINE
  5
29A
100
AcDbEntity
  8
0
100
AcDbLine
 62
7
  6
BYLAYER
 10
60.0116631502
 20
89.7747589276
 11
60.0116631502
 21
89.1623335746
  0
LINE
  5
29B
100
AcDbEntity
  8
0
100
AcDbLine
 62
7
  6
BYLAYER
 10
60.4005526985
 20
90.4891760575
 11
60.40055265
 21
92.5712240341
  0
LINE
  5
29C
100
AcDbEntity
  8
0
100
AcDbLine
 62
7
  6
BYLAYER
 10
60.4713392293
 20
52.6853062559
 11
60.4713392293
 21
57.5843207587
  0
LINE
  5
29D
100
AcDbEntity
  8
0
100
AcDbLine
 62
7
  6
BYLAYER
 10
60.8601948203
 20
88.6724302062
 11
60.8601948203
 21
89.2848700222
  0
LINE
  5
29E
100
AcDbEntity
  8
0
100
AcDbLine
 62
7
  6
BYLAYER
 10
61.3551569081
 20
90.9702689313
 11
61.3551569081
 21
91.040313765
  0
LINE
  5
29F
100
AcDbEntity
  8
0
100
AcDbLine
 62
7
  6
BYLAYER
 10
61.4117174543
 20
91.9254773667
 11
61.4117174543
 21
91.0729688167
  0
LINE
  5
2A0
100
AcDbEntity
  8
0
100
AcDbLine
 62
7
  6
BYLAYER
 10
62.2743995508
 20
90.5096007842
 11
62.2743995508
 21
90.4395559505
  0
LINE
  5
2A1
100
AcDbEntity
  8
0
100
AcDbLine
 62
7
  6
BYLAYER
 10
55.2740450667
 20
92.3582362777
 11
56.2800145268
 21
89.7655077533
  0
LINE
  5
2A2
100
AcDbEntity
  8
0
100
AcDbLine
 62
7
  6
BYLAYER
 10
65.7839521549
 20
86.336350269
 11
65.7830342261
 21
86.5749211106
  0
LINE
  5
2A3
100
AcDbEntity
  8
0
100
AcDbLine
 62
7
  6
BYLAYER
 10
62.9815032295
 20
90.9178448465
 11
62.9815032428
 21
89.7339416517
  0
LINE
  5
2A4
100
AcDbEntity
  8
0
100
AcDbLine
 62
7
  6
BYLAYER
 10
62.9815032637
 20
87.8729776976
 11
62.9815032671
 21
87.570184958
  0
LINE
  5
2A5
100
AcDbEntity
  8
0
100
AcDbLine
 62
7
  6
BYLAYER
 10
63.4758248769
 20
84.0589776386
 11
63.4758249178
 21
84.8342702818
  0
LINE
  5
2A6
100
AcDbEntity
  8
0
100
AcDbLine
 62
7
  6
BYLAYER
 10
63.6886337209
 20
87.6519070041
 11
63.6886337209
 21
87.0394189781
  0
LINE
  5
2A7
100
AcDbEntity
  8
0
100
AcDbLine
 62
7
  6
BYLAYER
 10
64.1306332345
 20
75.6170728294
 11
64.1306332345
 21
59.7991411666
  0
LINE
  5
2A8
100
AcDbEntity
  8
0
100
AcDbLine
 62
7
  6
BYLAYER
 10
64.3003383909
 20
84.6861338479
 11
64.3003383909
 21
58.6397067415
  0
LINE
  5
2A9
100
AcDbEntity
  8
0
100
AcDbLine
 62
7
  6
BYLAYER
 10
64.5371653911
 20
86.5495156096
 11
64.5371653911
 21
87.1620180987
  0
LINE
  5
2AA
100
AcDbEntity
  8
0
100
AcDbLine
 62
7
  6
BYLAYER
 10
64.7139622579
 20
55.1347711822
 11
64.7139622623
 21
56.0295952623
  0
LINE
  5
2AB
100
AcDbEntity
  8
0
100
AcDbLine
 62
7
  6
BYLAYER
 10
65.3856935285
 20
87.1620201383
 11
65.3856935285
 21
86.3455177212
  0
LINE
  5
2AC
100
AcDbEntity
  8
0
100
AcDbLine
 62
7
  6
BYLAYER
 10
65.8099481765
 20
88.4683970115
 11
65.8099481765
 21
88.3983521779
  0
LINE
  5
2AD
100
AcDbEntity
  8
0
100
AcDbLine
 62
7
  6
BYLAYER
 10
66.0681127038
 20
57.8640555803
 11
66.0681127038
 21
83.6655319616
  0
LINE
  5
2AE
100
AcDbEntity
  8
0
100
AcDbLine
 62
7
  6
BYLAYER
 10
62.5050804255
 20
56.6690524353
 11
62.5244699491
 21
56.8072232097
  0
LINE
  5
2AF
100
AcDbEntity
  8
0
100
AcDbLine
 62
7
  6
BYLAYER
 10
60.3506781672
 20
60.4171683176
 11
60.2928903242
 21
60.1545126144
  0
LINE
  5
2B0
100
AcDbEntity
  8
0
100
AcDbLine
 62
7
  6
BYLAYER
 10
60.5749006343
 20
57.8132043362
 11
60.4713392293
 21
57.5843207587
  0
LINE
  5
2B1
100
AcDbEntity
  8
0
100
AcDbLine
 62
7
  6
BYLAYER
 10
75.5539119573
 20
72.2936039614
 11
74.2599123699
 21
71.5465174109
  0
LINE
  5
2B2
100
AcDbEntity
  8
0
100
AcDbLine
 62
7
  6
BYLAYER
 10
60.2496108755
 20
61.4330356911
 11
60.9944034741
 21
61.8630393316
  0
LINE
  5
2B3
100
AcDbEntity
  8
0
100
AcDbLine
 62
7
  6
BYLAYER
 10
25.3580416511
 20
44.9601277459
 11
15.395706377
 21
39.50963926
  0
LINE
  5
2B4
100
AcDbEntity
  8
0
100
AcDbLine
 62
7
  6
BYLAYER
 10
61.4768275262
 20
60.8380549965
 11
60.3506781672
 21
60.4171683176
  0
LINE
  5
2B5
100
AcDbEntity
  8
0
100
AcDbLine
 62
7
  6
BYLAYER
 10
63.5793659106
 20
85.0635740063
 11
63.8283427355
 21
85.039023016
  0
LINE
  5
2B6
100
AcDbEntity
  8
0
100
AcDbLine
 62
7
  6
BYLAYER
 10
63.122270266
 20
83.8548468247
 11
63.3722635006
 21
83.8300942072
  0
LINE
  5
2B7
100
AcDbEntity
  8
0
100
AcDbLine
 62
7
  6
BYLAYER
 10
74.62826545
 20
72.8280141316
 11
75.5539119573
 21
72.2936039614
  0
LINE
  5
2B8
100
AcDbEntity
  8
0
100
AcDbLine
 62
7
  6
BYLAYER
 10
49.5464951533
 20
88.2642410691
 11
60.5066958931
 21
81.936509374
  0
LINE
  5
2B9
100
AcDbEntity
  8
0
100
AcDbLine
 62
7
  6
BYLAYER
 10
49.0752428602
 20
95.8211160249
 11
51.2111604064
 21
93.5308911797
  0
LINE
  5
2BA
100
AcDbEntity
  8
0
100
AcDbLine
 62
7
  6
BYLAYER
 10
60.5066958931
 20
81.936509374
 11
64.1306332345
 21
75.6170728294
  0
LINE
  5
2BB
100
AcDbEntity
  8
0
100
AcDbLine
 62
7
  6
BYLAYER
 10
57.3406702826
 20
90.3778739842
 11
56.3347008225
 21
92.9706025085
  0
LINE
  5
2BC
100
AcDbEntity
  8
0
100
AcDbLine
 62
7
  6
BYLAYER
 10
66.7291908192
 20
87.867639197
 11
66.7291908192
 21
87.9376840307
  0
LINE
  5
2BD
100
AcDbEntity
  8
0
100
AcDbLine
 62
7
  6
BYLAYER
 10
67.4362944974
 20
88.3459280927
 11
67.4362945074
 21
87.289508374
  0
LINE
  5
2BE
100
AcDbEntity
  8
0
100
AcDbLine
 62
7
  6
BYLAYER
 10
68.390898675
 20
88.774170024
 11
68.3908986755
 21
87.8406460577
  0
LINE
  5
2BF
100
AcDbEntity
  8
0
100
AcDbLine
 62
7
  6
BYLAYER
 10
68.5316306042
 20
58.0011598849
 11
68.5316317574
 21
57.2572671047
  0
LINE
  5
2C0
100
AcDbEntity
  8
0
100
AcDbLine
 62
7
  6
BYLAYER
 10
58.8828450463
 20
52.9871202926
 11
58.9864064513
 21
53.2160038701
  0
LINE
  5
2C1
100
AcDbEntity
  8
0
100
AcDbLine
 62
7
  6
BYLAYER
 10
61.5939223897
 20
61.2636787234
 11
61.4066939972
 21
61.1489272023
  0
LINE
  5
2C2
100
AcDbEntity
  8
0
100
AcDbLine
 62
7
  6
BYLAYER
 10
74.2599123699
 20
68.2805077424
 11
75.5539119573
 21
69.0275942929
  0
LINE
  5
2C3
100
AcDbEntity
  8
0
100
AcDbLine
 62
7
  6
BYLAYER
 10
61.9039807
 20
61.0846705242
 11
60.0545591484
 21
60.0169128673
  0
LINE
  5
2C4
100
AcDbEntity
  8
0
100
AcDbLine
 62
7
  6
BYLAYER
 10
74.2599123699
 20
67.2598673047
 11
74.6629560474
 21
67.4925632914
  0
LINE
  5
2C5
100
AcDbEntity
  8
0
100
AcDbLine
 62
7
  6
BYLAYER
 10
63.0169659655
 20
60.4421027184
 11
61.390581872
 21
59.5031150292
  0
LINE
  5
2C6
100
AcDbEntity
  8
0
100
AcDbLine
 62
7
  6
BYLAYER
 10
40.5125930254
 20
47.2097353371
 11
38.1600858894
 21
45.8515228164
  0
LINE
  5
2C7
100
AcDbEntity
  8
0
100
AcDbLine
 62
7
  6
BYLAYER
 10
64.3003383909
 20
59.8971198995
 11
64.1306332345
 21
59.7991411666
  0
LINE
  5
2C8
100
AcDbEntity
  8
0
100
AcDbLine
 62
7
  6
BYLAYER
 10
57.4493273791
 20
55.9191924098
 11
41.2084350805
 21
46.5425648403
  0
LINE
  5
2C9
100
AcDbEntity
  8
0
100
AcDbLine
 62
7
  6
BYLAYER
 10
60.8248971466
 20
57.788446299
 11
60.4713392293
 21
57.5843207587
  0
LINE
  5
2CA
100
AcDbEntity
  8
0
100
AcDbLine
 62
7
  6
BYLAYER
 10
69.3464734654
 20
88.2221587007
 11
69.0955033984
 21
88.2474347098
  0
LINE
  5
2CB
100
AcDbEntity
  8
0
100
AcDbLine
 62
7
  6
BYLAYER
 10
63.4758249056
 20
83.6507265761
 11
63.122270266
 21
83.8548468247
  0
LINE
  5
2CC
100
AcDbEntity
  8
0
100
AcDbLine
 62
7
  6
BYLAYER
 10
51.9852918719
 20
90.2846388371
 11
52.5156241658
 21
89.9784582712
  0
LINE
  5
2CD
100
AcDbEntity
  8
0
100
AcDbLine
 62
7
  6
BYLAYER
 10
66.0681127038
 20
83.6655319616
 11
64.3003383909
 21
84.6861338479
  0
LINE
  5
2CE
100
AcDbEntity
  8
0
100
AcDbLine
 62
7
  6
BYLAYER
 10
47.0963587781
 20
94.6186314054
 11
45.3285844653
 21
95.6392332917
  0
LINE
  5
2CF
100
AcDbEntity
  8
0
100
AcDbLine
 62
7
  6
BYLAYER
 10
63.8283427355
 20
85.039023016
 11
64.3207210752
 21
84.754718841
  0
LINE
  5
2D0
100
AcDbEntity
  8
0
100
AcDbLine
 62
7
  6
BYLAYER
 10
53.4002066502
 20
91.101535389
 11
51.3389818777
 21
92.2915572324
  0
LINE
  5
2D1
100
AcDbEntity
  8
0
100
AcDbLine
 62
7
  6
BYLAYER
 10
54.0012475614
 20
91.081124711
 11
56.2800145268
 21
89.7655077533
  0
LINE
  5
2D2
100
AcDbEntity
  8
0
100
AcDbLine
 62
7
  6
BYLAYER
 10
45.6821363839
 20
96.2516065772
 11
47.4499106967
 21
95.2310046909
  0
LINE
  5
2D3
100
AcDbEntity
  8
0
100
AcDbLine
 62
7
  6
BYLAYER
 10
64.6538903096
 20
85.2985071334
 11
66.4216646224
 21
84.2779052471
  0
LINE
  5
2D4
100
AcDbEntity
  8
0
100
AcDbLine
 62
7
  6
BYLAYER
 10
48.9958450563
 20
95.8842809878
 11
49.0752428602
 21
95.8211160249
  0
LINE
  5
2D5
100
AcDbEntity
  8
0
100
AcDbLine
 62
7
  6
BYLAYER
 10
60.0116631501
 20
89.7747589276
 11
59.8359312902
 21
90.01970542
  0
LINE
  5
2D6
100
AcDbEntity
  8
0
100
AcDbLine
 62
7
  6
BYLAYER
 10
64.3003383909
 20
82.2129366366
 11
63.4758249056
 21
83.6507265761
  0
LINE
  5
2D7
100
AcDbEntity
  8
0
100
AcDbLine
 62
7
  6
BYLAYER
 10
70.7079477057
 20
63.2495252489
 11
71.6779815924
 21
60.4619113213
  0
LINE
  5
2D8
100
AcDbEntity
  8
0
100
AcDbLine
 62
7
  6
BYLAYER
 10
73.6116385828
 20
58.8022276367
 11
70.5122619988
 21
67.7089941261
  0
LINE
  5
2D9
100
AcDbEntity
  8
0
100
AcDbLine
 62
7
  6
BYLAYER
 10
64.4664426427
 20
88.8358119909
 11
64.678579093
 21
88.2234488196
  0
LINE
  5
2DA
100
AcDbEntity
  8
0
100
AcDbLine
 62
7
  6
BYLAYER
 10
70.3107357745
 20
60.3135205309
 11
70.3107357793
 21
82.183358738
  0
LINE
  5
2DB
100
AcDbEntity
  8
0
100
AcDbLine
 62
7
  6
BYLAYER
 10
70.5122619988
 20
67.7089941261
 11
70.5122619988
 21
81.5896815934
  0
LINE
  5
2DC
100
AcDbEntity
  8
0
100
AcDbLine
 62
7
  6
BYLAYER
 10
63.5932286658
 20
58.2314450789
 11
64.3003445005
 21
58.6396961594
  0
LINE
  5
2DD
100
AcDbEntity
  8
0
100
AcDbLine
 62
7
  6
BYLAYER
 10
66.0681127038
 20
57.8640555803
 11
70.3107357894
 21
60.3135205395
  0
LINE
  5
2DE
100
AcDbEntity
  8
0
100
AcDbLine
 62
7
  6
BYLAYER
 10
62.1453861112
 20
55.2031664971
 11
61.6761394178
 21
54.9322484095
  0
LINE
  5
2DF
100
AcDbEntity
  8
0
100
AcDbLine
 62
7
  6
BYLAYER
 10
58.6328515887
 20
53.0118730388
 11
58.986409506
 21
53.215998579
  0
LINE
  5
2E0
100
AcDbEntity
  8
0
100
AcDbLine
 62
7
  6
BYLAYER
 10
69.5237103019
 20
58.5739339464
 11
65.2810872422
 21
56.1244690022
  0
LWPOLYLINE
  5
2E1
100
AcDbEntity
  8
0
100
AcDbPolyline
 62
7
  6
BYLAYER
 90
3
 70
0
 10
41.2082804314
 20
46.5428327018
 10
40.5612276483
 20
46.2313653935
 10
38.4973592668
 20
46.0462465292
  0
LINE
  5
2E2
100
AcDbEntity
  8
0
100
AcDbLine
 62
7
  6
BYLAYER
 10
62.5050804255
 20
56.6690524353
 11
61.5213364783
 21
56.3013883067
  0
LINE
  5
2E3
100
AcDbEntity
  8
0
100
AcDbLine
 62
7
  6
BYLAYER
 10
61.8501401924
 20
89.8564118376
 11
62.9108012474
 21
89.7339416509
  0
LINE
  5
2E4
100
AcDbEntity
  8
0
100
AcDbLine
 62
7
  6
BYLAYER
 10
69.452250604
 20
83.4254563598
 11
69.3224993104
 21
83.5003666094
  0
LINE
  5
2E5
100
AcDbEntity
  8
0
100
AcDbLine
 62
7
  6
BYLAYER
 10
57.2181984218
 20
90.6935259991
 11
58.5267392041
 21
89.9380567172
  0
LINE
  5
2E6
100
AcDbEntity
  8
0
100
AcDbLine
 62
7
  6
BYLAYER
 10
65.3451612761
 20
86.0830157492
 11
58.5974496033
 21
89.9788357803
  0
LINE
  5
2E7
100
AcDbEntity
  8
0
100
AcDbLine
 62
7
  6
BYLAYER
 10
67.4677147514
 20
84.8818389657
 11
65.6999404385
 21
85.902440852
  0
LINE
  5
2E8
100
AcDbEntity
  8
0
100
AcDbLine
 62
7
  6
BYLAYER
 10
48.4959608257
 20
95.8349384094
 11
46.7281865128
 21
96.8555402957
  0
LINE
  5
2E9
100
AcDbEntity
  8
0
100
AcDbLine
 62
7
  6
BYLAYER
 10
65.4512868007
 20
86.1442869836
 11
65.1856148341
 21
86.2976692951
  0
LINE
  5
2EA
100
AcDbEntity
  8
0
100
AcDbLine
 62
7
  6
BYLAYER
 10
63.5869506
 20
87.2206376406
 11
62.9815032285
 21
87.5701849357
  0
LINE
  5
2EB
100
AcDbEntity
  8
0
100
AcDbLine
 62
7
  6
BYLAYER
 10
67.9677062679
 20
84.9313668502
 11
66.199931955
 21
85.9519687365
  0
LINE
  5
2EC
100
AcDbEntity
  8
0
100
AcDbLine
 62
7
  6
BYLAYER
 10
48.9959523422
 20
95.884466294
 11
47.2281780293
 21
96.9050681803
  0
LINE
  5
2ED
100
AcDbEntity
  8
0
100
AcDbLine
 62
7
  6
BYLAYER
 10
60.0116631502
 20
89.7747589276
 11
60.8601948203
 21
89.2848700222
  0
LINE
  5
2EE
100
AcDbEntity
  8
0
100
AcDbLine
 62
7
  6
BYLAYER
 10
63.6886337209
 20
87.6519070041
 11
64.5371653911
 21
87.1620180987
  0
LINE
  5
2EF
100
AcDbEntity
  8
0
100
AcDbLine
 62
7
  6
BYLAYER
 10
66.6991368819
 20
86.8602946781
 11
66.5250865333
 21
86.9607804204
  0
LINE
  5
2F0
100
AcDbEntity
  8
0
100
AcDbLine
 62
7
  6
BYLAYER
 10
65.0321339556
 20
88.0193284423
 11
64.678579093
 21
88.2234488196
  0
LINE
  5
2F1
100
AcDbEntity
  8
0
100
AcDbLine
 62
7
  6
BYLAYER
 10
61.8501401924
 20
89.8564118376
 11
61.4965853299
 21
90.0605322149
  0
LINE
  5
2F2
100
AcDbEntity
  8
0
100
AcDbLine
 62
7
  6
BYLAYER
 10
66.3756389006
 20
87.7335619538
 11
65.4563962579
 21
88.2642749346
  0
LINE
  5
2F3
100
AcDbEntity
  8
0
100
AcDbLine
 62
7
  6
BYLAYER
 10
64.4664426427
 20
88.8358119909
 11
62.9108012474
 21
89.7339416509
  0
LINE
  5
2F4
100
AcDbEntity
  8
0
100
AcDbLine
 62
7
  6
BYLAYER
 10
61.9208476322
 20
90.3054787072
 11
61.0016049895
 21
90.8361916881
  0
LINE
  5
2F5
100
AcDbEntity
  8
0
100
AcDbLine
 62
7
  6
BYLAYER
 10
51.0313867158
 20
96.6741223614
 11
53.7891146439
 21
95.0819834187
  0
LINE
  5
2F6
100
AcDbEntity
  8
0
100
AcDbLine
 62
7
  6
BYLAYER
 10
63.6179086174
 20
89.6079450853
 11
64.3250183425
 21
89.1997043308
  0
LINE
  5
2F7
100
AcDbEntity
  8
0
100
AcDbLine
 62
7
  6
BYLAYER
 10
61.3551569081
 20
90.9702689313
 11
62.2743995508
 21
90.4395559505
  0
LINE
  5
2F8
100
AcDbEntity
  8
0
100
AcDbLine
 62
7
  6
BYLAYER
 10
65.8099481765
 20
88.3983521779
 11
66.7291908192
 21
87.867639197
  0
LINE
  5
2F9
100
AcDbEntity
  8
0
100
AcDbLine
 62
7
  6
BYLAYER
 10
61.3551569081
 20
91.040313765
 11
62.2743995508
 21
90.5096007842
  0
LINE
  5
2FA
100
AcDbEntity
  8
0
100
AcDbLine
 62
7
  6
BYLAYER
 10
65.8099481765
 20
88.4683970115
 11
66.7291908192
 21
87.9376840307
  0
LINE
  5
2FB
100
AcDbEntity
  8
0
100
AcDbLine
 62
7
  6
BYLAYER
 10
59.6934490636
 20
92.1629800271
 11
57.8196083259
 21
93.2448180462
  0
LINE
  5
2FC
100
AcDbEntity
  8
0
100
AcDbLine
 62
7
  6
BYLAYER
 10
57.8196083743
 20
93.2853710275
 11
56.3347008225
 21
94.1426148748
  0
LINE
  5
2FD
100
AcDbEntity
  8
0
100
AcDbLine
 62
7
  6
BYLAYER
 10
67.967598982
 20
84.931181544
 11
68.0469967859
 21
84.8680165811
  0
LINE
  5
2FE
100
AcDbEntity
  8
0
100
AcDbLine
 62
7
  6
BYLAYER
 10
68.0469967859
 20
84.8680165811
 11
70.1829143321
 21
82.5777917359
  0
LINE
  5
2FF
100
AcDbEntity
  8
0
100
AcDbLine
 62
7
  6
BYLAYER
 10
73.611638587
 20
58.8022276391
 11
73.611638587
 21
57.0875726119
  0
LINE
  5
300
100
AcDbEntity
  8
0
100
AcDbLine
 62
7
  6
BYLAYER
 10
74.2599123699
 20
71.7096086034
 11
74.2599123699
 21
67.0122367504
  0
LINE
  5
301
100
AcDbEntity
  8
0
100
AcDbLine
 62
7
  6
BYLAYER
 10
74.6629560474
 20
67.4925632914
 11
74.6629560474
 21
66.8638564008
  0
LINE
  5
302
100
AcDbEntity
  8
0
100
AcDbLine
 62
7
  6
BYLAYER
 10
75.3205678803
 20
84.3656929578
 11
75.3205680427
 21
73.9033345583
  0
LINE
  5
303
100
AcDbEntity
  8
0
100
AcDbLine
 62
7
  6
BYLAYER
 10
75.5539119573
 20
83.7606622763
 11
75.5539119573
 21
72.2936039614
  0
LINE
  5
304
100
AcDbEntity
  8
0
100
AcDbLine
 62
7
  6
BYLAYER
 10
75.5539119573
 20
69.0275942929
 11
75.5539119573
 21
66.4218629806
  0
LINE
  5
305
100
AcDbEntity
  8
0
100
AcDbLine
 62
7
  6
BYLAYER
 10
60.4713392293
 20
52.6853062559
 11
64.7139622588
 21
55.1347711828
  0
LINE
  5
306
100
AcDbEntity
  8
0
100
AcDbLine
 62
7
  6
BYLAYER
 10
68.5316314568
 20
57.2572669311
 11
70.2175302351
 21
58.2306152345
  0
LINE
  5
307
100
AcDbEntity
  8
0
100
AcDbLine
 62
7
  6
BYLAYER
 10
60.7457940079
 20
52.6084951787
 11
60.462952473
 21
52.4451975172
  0
LINE
  5
308
100
AcDbEntity
  8
0
100
AcDbLine
 62
7
  6
BYLAYER
 10
63.9269367853
 20
53.3951845977
 11
59.9671553025
 21
51.1090173393
  0
LINE
  5
309
100
AcDbEntity
  8
0
100
AcDbLine
 62
7
  6
BYLAYER
 10
73.6116385865
 20
57.0875726116
 11
76.7478603966
 21
58.8982603096
  0
LINE
  5
30A
100
AcDbEntity
  8
0
100
AcDbLine
 62
7
  6
BYLAYER
 10
73.4045266234
 20
56.6297866703
 11
76.2520719884
 21
58.2738079398
  0
LINE
  5
30B
100
AcDbEntity
  8
0
100
AcDbLine
 62
7
  6
BYLAYER
 10
84.8261473038
 20
62.9858793055
 11
91.8880105084
 21
67.0630235904
  0
LINE
  5
30C
100
AcDbEntity
  8
0
100
AcDbLine
 62
7
  6
BYLAYER
 10
59.9671227382
 20
51.1090737844
 11
59.6368272217
 21
50.9754283424
  0
LINE
  5
30D
100
AcDbEntity
  8
0
100
AcDbLine
 62
7
  6
BYLAYER
 10
62.0622605863
 20
91.4485578271
 11
62.9815032295
 21
90.9178448465
  0
LINE
  5
30E
100
AcDbEntity
  8
0
100
AcDbLine
 62
7
  6
BYLAYER
 10
66.5170518553
 20
88.8766410739
 11
67.4362944974
 21
88.3459280927
  0
LINE
  5
30F
100
AcDbEntity
  8
0
100
AcDbLine
 62
7
  6
BYLAYER
 10
60.4005526514
 20
92.5092604309
 11
61.4117174543
 21
91.9254773667
  0
LINE
  5
310
100
AcDbEntity
  8
0
100
AcDbLine
 62
7
  6
BYLAYER
 10
75.3205678876
 20
83.89538049
 11
75.5539119573
 21
83.7606622763
  0
LINE
  5
311
100
AcDbEntity
  8
0
100
AcDbLine
 62
7
  6
BYLAYER
 10
60.40055265
 20
92.5712240341
 11
56.3347008225
 21
94.9185915813
  0
LINE
  5
312
100
AcDbEntity
  8
0
100
AcDbLine
 62
7
  6
BYLAYER
 10
55.2740450667
 20
95.6127319434
 11
51.0313867158
 21
98.0621764705
  0
LINE
  5
313
100
AcDbEntity
  8
0
100
AcDbLine
 62
7
  6
BYLAYER
 10
69.3460947337
 20
88.2223368466
 11
68.390898675
 21
88.7738070738
  0
LINE
  5
314
100
AcDbEntity
  8
0
100
AcDbLine
 62
7
  6
BYLAYER
 10
56.3347008225
 20
96.2250981742
 11
52.0920424716
 21
98.6745427013
  0
LINE
  5
315
100
AcDbEntity
  8
0
100
AcDbLine
 62
7
  6
BYLAYER
 10
69.0980022703
 20
89.182051088
 11
74.2605990356
 21
86.20149186
  0
LINE
  5
316
100
AcDbEntity
  8
0
100
AcDbLine
 62
7
  6
BYLAYER
 10
77.4416439228
 20
65.4297354941
 11
77.4416049422
 21
60.6867116746
  0
LINE
  5
317
100
AcDbEntity
  8
0
100
AcDbLine
 62
7
  6
BYLAYER
 10
77.7458160055
 20
93.0277365307
 11
77.7458160055
 21
101.35591727
  0
LINE
  5
318
100
AcDbEntity
  8
0
100
AcDbLine
 62
7
  6
BYLAYER
 10
77.4416049422
 20
60.6867116746
 11
76.7478603966
 21
58.8982603096
  0
LINE
  5
319
100
AcDbEntity
  8
0
100
AcDbLine
 62
7
  6
BYLAYER
 10
70.816140699
 20
105.3566766643
 11
77.7458160055
 21
101.35591727
  0
LINE
  5
31A
100
AcDbEntity
  8
0
100
AcDbLine
 62
7
  6
BYLAYER
 10
84.958335202
 20
97.1918615739
 11
91.8880105084
 21
93.1911021796
  0
LINE
  5
31B
100
AcDbEntity
  8
0
100
AcDbLine
 62
7
  6
BYLAYER
 10
91.8880105084
 20
67.0630235904
 11
91.8880105084
 21
93.1911021796
  0
ARC
  5
31C
100
AcDbEntity
  8
0
100
AcDbCircle
 62
7
  6
BYLAYER
 10
41.2377143233
 20
62.2058733669
 40
18.5647098291
100
AcDbArc
 50
224.8844598187
 51
226.0860388657
  0
ARC
  5
31D
100
AcDbEntity
  8
0
100
AcDbCircle
 62
7
  6
BYLAYER
 10
37.8574764887
 20
57.948230622
 40
13.1181026593
100
AcDbArc
 50
236.5051694796
 51
239.9509753603
  0
ARC
  5
31E
100
AcDbEntity
  8
0
100
AcDbCircle
 62
7
  6
BYLAYER
 10
37.3257828067
 20
57.0490790129
 40
12.0735628857
100
AcDbArc
 50
239.9983867051
 51
241.3851348351
  0
ARC
  5
31F
100
AcDbEntity
  8
0
100
AcDbCircle
 62
7
  6
BYLAYER
 10
36.4938637555
 20
59.9424453125
 40
11.1798644097
100
AcDbArc
 50
222.541231836
 51
224.13634978
  0
ARC
  5
320
100
AcDbEntity
  8
0
100
AcDbCircle
 62
7
  6
BYLAYER
 10
34.5408560475
 20
57.0058303023
 40
7.7448325341
100
AcDbArc
 50
238.5396112919
 51
239.9975710583
  0
ARC
  5
321
100
AcDbEntity
  8
0
100
AcDbCircle
 62
7
  6
BYLAYER
 10
35.5378880674
 20
52.3381778565
 40
7.0115737972
100
AcDbArc
 50
258.6398093553
 51
262.6130610639
  0
ARC
  5
322
100
AcDbEntity
  8
0
100
AcDbCircle
 62
7
  6
BYLAYER
 10
33.8988164515
 20
56.6285924719
 40
6.9556891398
100
AcDbArc
 50
239.9971200462
 51
241.2373096165
  0
ARC
  5
323
100
AcDbEntity
  8
0
100
AcDbCircle
 62
7
  6
BYLAYER
 10
28.699472656
 20
63.5964553592
 40
6.5343757401
100
AcDbArc
 50
156.0101778263
 51
157.2972722832
  0
ARC
  5
324
100
AcDbEntity
  8
0
100
AcDbCircle
 62
7
  6
BYLAYER
 10
33.2982066561
 20
53.84252984
 40
4.3282217547
100
AcDbArc
 50
258.6236362271
 51
261.8255615117
  0
ARC
  5
325
100
AcDbEntity
  8
0
100
AcDbCircle
 62
7
  6
BYLAYER
 10
55.0110038613
 20
91.5441192779
 40
3.4241496345
100
AcDbArc
 50
206.2254071549
 51
207.7216457108
  0
ARC
  5
326
100
AcDbEntity
  8
0
100
AcDbCircle
 62
7
  6
BYLAYER
 10
57.0646548496
 20
52.6840974677
 40
3.4066845942
100
AcDbArc
 50
355.9787287454
 51
0.0203301618
  0
ARC
  5
327
100
AcDbEntity
  8
0
100
AcDbCircle
 62
7
  6
BYLAYER
 10
54.9542442653
 20
91.5163078258
 40
3.3609427488
100
AcDbArc
 50
202.2011085528
 51
206.2276857969
  0
ARC
  5
328
100
AcDbEntity
  8
0
100
AcDbCircle
 62
7
  6
BYLAYER
 10
67.9886345026
 20
81.3560755188
 40
2.555934609
100
AcDbArc
 50
21.2931502048
 51
29.0919479145
  0
ARC
  5
329
100
AcDbEntity
  8
0
100
AcDbCircle
 62
7
  6
BYLAYER
 10
68.1524923826
 20
81.4231818763
 40
2.3788954722
100
AcDbArc
 50
19.0347046789
 51
21.2203653643
  0
ARC
  5
32A
100
AcDbEntity
  8
0
100
AcDbCircle
 62
7
  6
BYLAYER
 10
23.6819294823
 20
62.8623356969
 40
1.5381258044
100
AcDbArc
 50
120.0040127444
 51
121.2863146624
  0
ARC
  5
32B
100
AcDbEntity
  8
0
100
AcDbCircle
 62
7
  6
BYLAYER
 10
26.1568135063
 20
61.4334930798
 40
1.5381257768
100
AcDbArc
 50
120.0040127368
 51
121.2863146548
  0
ARC
  5
32C
100
AcDbEntity
  8
0
100
AcDbCircle
 62
7
  6
BYLAYER
 10
24.6481133824
 20
46.2574900155
 40
1.478900607
100
AcDbArc
 50
298.6878741264
 51
300.0041935226
  0
ARC
  5
32D
100
AcDbEntity
  8
0
100
AcDbCircle
 62
7
  6
BYLAYER
 10
30.7028674499
 20
68.4119931066
 40
0.5204646079
100
AcDbArc
 50
147.1941715712
 51
152.369408318
  0
ARC
  5
32E
100
AcDbEntity
  8
0
100
AcDbCircle
 62
7
  6
BYLAYER
 10
32.7790178708
 20
67.2262043095
 40
0.5095549049
100
AcDbArc
 50
151.9175627955
 51
158.1350601746
  0
ARC
  5
32F
100
AcDbEntity
  8
0
100
AcDbCircle
 62
7
  6
BYLAYER
 10
74.6944908617
 20
66.9863590264
 40
0.4353482768
100
AcDbArc
 50
176.5922481766
 51
179.9709503235
  0
ARC
  5
330
100
AcDbEntity
  8
0
100
AcDbCircle
 62
7
  6
BYLAYER
 10
66.5015883927
 20
86.7637012009
 40
0.2198993074
100
AcDbArc
 50
26.0568229327
 51
32.0287530164
  0
SPLINE
  5
331
100
AcDbEntity
  8
0
100
AcDbSpline
 62
7
  6
BYLAYER
 70
0
 71
3
 72
9
 73
5
 74
0
 42
0.0000001
 43
0.0000001
 44
0.0000000001
 40
0.0
 40
0.0
 40
0.0
 40
0.0
 40
0.2605154349
 40
1.0
 40
1.0
 40
1.0
 40
1.0
 10
30.3141932419
 20
68.6251365268
 30
0.0
 10
30.3076730305
 20
68.6129034059
 30
0.0
 10
30.2845562275
 20
68.5649880862
 30
0.0
 10
30.268829858
 20
68.5132330679
 30
0.0
 10
30.2633920437
 20
68.4742619677
 30
0.0
  0
SPLINE
  5
332
100
AcDbEntity
  8
0
100
AcDbSpline
 62
7
  6
BYLAYER
 70
0
 71
3
 72
9
 73
5
 74
0
 42
0.0000001
 43
0.0000001
 44
0.0000000001
 40
0.0
 40
0.0
 40
0.0
 40
0.0
 40
0.2601623999
 40
1.0
 40
1.0
 40
1.0
 40
1.0
 10
34.8400763769
 20
68.9155737878
 30
0.0
 10
34.6748000867
 20
69.0313109935
 30
0.0
 10
34.0303830306
 20
69.4627903219
 30
0.0
 10
33.3480676134
 20
69.8391884283
 30
0.0
 10
32.8248136602
 20
70.0746352434
 30
0.0
  0
SPLINE
  5
333
100
AcDbEntity
  8
0
100
AcDbSpline
 62
7
  6
BYLAYER
 70
0
 71
3
 72
13
 73
9
 74
0
 42
0.0000001
 43
0.0000001
 44
0.0000000001
 40
0.0
 40
0.0
 40
0.0
 40
0.0
 40
0.2823859533
 40
0.5390038479
 40
0.659272581
 40
0.7753402818
 40
0.8884383715
 40
1.0
 40
1.0
 40
1.0
 40
1.0
 10
32.7541026877
 20
70.1883507833
 30
0.0
 10
32.257070163
 20
70.4080892935
 30
0.0
 10
31.2733012735
 20
70.7553650336
 30
0.0
 10
30.0064109067
 20
70.9367535236
 30
0.0
 10
29.0562259876
 20
70.8984004715
 30
0.0
 10
28.3913483883
 20
70.7847161323
 30
0.0
 10
27.7643556961
 20
70.5858281475
 30
0.0
 10
27.373601972
 20
70.3966640417
 30
0.0
 10
27.1876632524
 20
70.2893284432
 30
0.0
  0
SPLINE
  5
334
100
AcDbEntity
  8
0
100
AcDbSpline
 62
7
  6
BYLAYER
 70
0
 71
3
 72
17
 73
13
 74
0
 42
0.0000001
 43
0.0000001
 44
0.0000000001
 40
0.0
 40
0.0
 40
0.0
 40
0.0
 40
0.0428576877
 40
0.0874849505
 40
0.1353173333
 40
0.1872806034
 40
0.3045412648
 40
0.4382087218
 40
0.5825511809
 40
0.7297102049
 40
0.8713097134
 40
1.0
 40
1.0
 40
1.0
 40
1.0
 10
19.5683014904
 20
51.6660532873
 30
0.0
 10
19.5190082372
 20
51.6945385272
 30
0.0
 10
19.4103117947
 20
51.7396913458
 30
0.0
 10
19.2309115881
 20
51.7660020387
 30
0.0
 10
19.0382439481
 20
51.7518025246
 30
0.0
 10
18.7582963401
 20
51.6773598823
 30
0.0
 10
18.4004264937
 20
51.4816712061
 30
0.0
 10
18.0050396791
 20
51.1315129069
 30
0.0
 10
17.6555337989
 20
50.6841556104
 30
0.0
 10
17.3804585256
 20
50.1757363633
 30
0.0
 10
17.2019573957
 20
49.6479465492
 30
0.0
 10
17.1541287219
 20
49.2884865402
 30
0.0
 10
17.1541287219
 20
49.1175353199
 30
0.0
  0
SPLINE
  5
335
100
AcDbEntity
  8
0
100
AcDbSpline
 62
7
  6
BYLAYER
 70
0
 71
3
 72
9
 73
5
 74
0
 42
0.0000001
 43
0.0000001
 44
0.0000000001
 40
0.0
 40
0.0
 40
0.0
 40
0.0
 40
0.2499259838
 40
1.0
 40
1.0
 40
1.0
 40
1.0
 10
31.7288200322
 20
62.7993587216
 30
0.0
 10
31.780205684
 20
63.1714584214
 30
0.0
 10
31.9863092298
 20
64.6602289552
 30
0.0
 10
32.1936396412
 20
66.1488292885
 30
0.0
 10
32.3493715409
 20
67.2653590463
 30
0.0
  0
SPLINE
  5
336
100
AcDbEntity
  8
0
100
AcDbSpline
 62
7
  6
BYLAYER
 70
0
 71
3
 72
11
 73
7
 74
0
 42
0.0000001
 43
0.0000001
 44
0.0000000001
 40
0.0
 40
0.0
 40
0.0
 40
0.0
 40
0.2328312476
 40
0.4903813801
 40
0.7529868386
 40
1.0
 40
1.0
 40
1.0
 40
1.0
 10
32.5582802135
 20
67.5897071658
 30
0.0
 10
32.5316126606
 20
67.5743107389
 30
0.0
 10
32.4805767344
 20
67.5328803626
 30
0.0
 10
32.4185026521
 20
67.4542225847
 30
0.0
 10
32.3720339221
 20
67.3633393882
 30
0.0
 10
32.3538844243
 20
67.2977144515
 30
0.0
 10
32.3493715409
 20
67.2653590463
 30
0.0
  0
SPLINE
  5
337
100
AcDbEntity
  8
0
100
AcDbSpline
 62
7
  6
BYLAYER
 70
0
 71
3
 72
15
 73
11
 74
0
 42
0.0000001
 43
0.0000001
 44
0.0000000001
 40
0.0
 40
0.0
 40
0.0
 40
0.0
 40
0.1485533595
 40
0.2895064403
 40
0.4227295673
 40
0.5486374946
 40
0.6679987958
 40
0.7819374306
 40
0.8919861453
 40
1.0
 40
1.0
 40
1.0
 40
1.0
 10
50.3243592768
 20
79.895232274
 30
0.0
 10
50.0030387174
 20
80.0807425887
 30
0.0
 10
49.3614155954
 20
80.4165475455
 30
0.0
 10
48.3827884083
 20
80.8172113786
 30
0.0
 10
47.4214803803
 20
81.097423897
 30
0.0
 10
46.4867851073
 20
81.2541753154
 30
0.0
 10
45.5873121984
 20
81.2854946429
 30
0.0
 10
44.7317018311
 20
81.1900308066
 30
0.0
 10
43.929062103
 20
80.9681467341
 30
0.0
 10
43.4330480309
 20
80.7357984311
 30
0.0
 10
43.1994153727
 20
80.6009111801
 30
0.0
  0
SPLINE
  5
338
100
AcDbEntity
  8
0
100
AcDbSpline
 62
7
  6
BYLAYER
 70
0
 71
3
 72
11
 73
7
 74
0
 42
0.0000001
 43
0.0000001
 44
0.0000000001
 40
0.0
 40
0.0
 40
0.0
 40
0.0
 40
0.2177176097
 40
0.4509430028
 40
0.710295904
 40
1.0
 40
1.0
 40
1.0
 40
1.0
 10
49.3393875099
 20
85.5230491094
 30
0.0
 10
49.372363516
 20
85.5420883754
 30
0.0
 10
49.4340639948
 20
85.5939943442
 30
0.0
 10
49.4998105095
 20
85.7013969026
 30
0.0
 10
49.5387999991
 20
85.8338155759
 30
0.0
 10
49.5464951533
 20
85.9301647979
 30
0.0
 10
49.5464951533
 20
85.9808325568
 30
0.0
  0
SPLINE
  5
339
100
AcDbEntity
  8
0
100
AcDbSpline
 62
7
  6
BYLAYER
 70
0
 71
3
 72
9
 73
5
 74
0
 42
0.0000001
 43
0.0000001
 44
0.0000000001
 40
0.0
 40
0.0
 40
0.0
 40
0.0
 40
0.4573140655
 40
1.0
 40
1.0
 40
1.0
 40
1.0
 10
51.2111604064
 20
93.5308911797
 30
0.0
 10
51.2550205863
 20
93.4838623635
 30
0.0
 10
51.3228990904
 20
93.3546753364
 30
0.0
 10
51.3389819361
 20
93.2127685013
 30
0.0
 10
51.3389819485
 20
93.1364562832
 30
0.0
  0
SPLINE
  5
33A
100
AcDbEntity
  8
0
100
AcDbSpline
 62
7
  6
BYLAYER
 70
0
 71
3
 72
9
 73
5
 74
0
 42
0.0000001
 43
0.0000001
 44
0.0000000001
 40
0.0
 40
0.0
 40
0.0
 40
0.0
 40
0.2667980324
 40
1.0
 40
1.0
 40
1.0
 40
1.0
 10
51.7738542824
 20
91.305636949
 30
0.0
 10
51.7377550023
 20
91.3264784065
 30
0.0
 10
51.5999958437
 20
91.4000491994
 30
0.0
 10
51.4512189999
 20
91.4546655488
 30
0.0
 10
51.3389818014
 20
91.4775827947
 30
0.0
  0
SPLINE
  5
33B
100
AcDbEntity
  8
0
100
AcDbSpline
 62
7
  6
BYLAYER
 70
0
 71
3
 72
9
 73
5
 74
0
 42
0.0000001
 43
0.0000001
 44
0.0000000001
 40
0.0
 40
0.0
 40
0.0
 40
0.0
 40
0.4805259612
 40
1.0
 40
1.0
 40
1.0
 40
1.0
 10
76.2520611082
 20
58.2738411251
 30
0.0
 10
76.3641973846
 20
58.3385767538
 30
0.0
 10
76.5666219176
 20
58.5278442045
 30
0.0
 10
76.6972284314
 20
58.7677630358
 30
0.0
 10
76.7478603966
 20
58.8982603096
 30
0.0
  0
SPLINE
  5
33C
100
AcDbEntity
  8
0
100
AcDbSpline
 62
7
  6
BYLAYER
 70
0
 71
3
 72
11
 73
7
 74
0
 42
0.0000001
 43
0.0000001
 44
0.0000000001
 40
0.0
 40
0.0
 40
0.0
 40
0.0
 40
0.2177463164
 40
0.4508847891
 40
0.7104610667
 40
1.0
 40
1.0
 40
1.0
 40
1.0
 10
73.4044986483
 20
56.6298351255
 30
0.0
 10
73.3715194627
 20
56.6107947035
 30
0.0
 10
73.2957695741
 20
56.5832073753
 30
0.0
 10
73.1698391907
 20
56.5800436118
 30
0.0
 10
73.0356960482
 20
56.612511724
 30
0.0
 10
72.9483856375
 20
56.6539910497
 30
0.0
 10
72.9045326767
 20
56.6793087468
 30
0.0
  0
SPLINE
  5
33D
100
AcDbEntity
  8
0
100
AcDbSpline
 62
7
  6
BYLAYER
 70
0
 71
3
 72
13
 73
9
 74
0
 42
0.0000001
 43
0.0000001
 44
0.0000000001
 40
0.0
 40
0.0
 40
0.0
 40
0.0
 40
0.1141856368
 40
0.2374609954
 40
0.4997943305
 40
0.7622595842
 40
0.885694493
 40
1.0
 40
1.0
 40
1.0
 40
1.0
 10
75.320567843
 20
84.3657417591
 30
0.0
 10
75.3205692801
 20
84.4493346416
 30
0.0
 10
75.305271728
 20
84.6233475516
 30
0.0
 10
75.2223285049
 20
84.9806073305
 30
0.0
 10
75.0294847545
 20
85.4189815316
 30
0.0
 10
74.7470402491
 20
85.8058756093
 30
0.0
 10
74.4795810678
 20
86.0572526965
 30
0.0
 10
74.3366101356
 20
86.1580182814
 30
0.0
 10
74.2641588912
 20
86.199890303
 30
0.0
  0
SPLINE
  5
33E
100
AcDbEntity
  8
0
100
AcDbSpline
 62
7
  6
BYLAYER
 70
0
 71
3
 72
11
 73
7
 74
0
 42
0.0000001
 43
0.0000001
 44
0.0000000001
 40
0.0
 40
0.0
 40
0.0
 40
0.0
 40
0.2179398931
 40
0.4510331295
 40
0.7105498857
 40
1.0
 40
1.0
 40
1.0
 40
1.0
 10
47.2281409646
 20
96.905004506
 30
0.0
 10
47.1951318655
 20
96.9240606847
 30
0.0
 10
47.1193664565
 20
96.9516883716
 30
0.0
 10
46.9934121835
 20
96.9548068662
 30
0.0
 10
46.8593191845
 20
96.92230173
 30
0.0
 10
46.7720256508
 20
96.8808506827
 30
0.0
 10
46.7281865128
 20
96.8555402957
 30
0.0
  0
SPLINE
  5
33F
100
AcDbEntity
  8
0
100
AcDbSpline
 62
7
  6
BYLAYER
 70
0
 71
3
 72
11
 73
7
 74
0
 42
0.0000001
 43
0.0000001
 44
0.0000000001
 40
0.0
 40
0.0
 40
0.0
 40
0.0
 40
0.2179398931
 40
0.4510331295
 40
0.7105498857
 40
1.0
 40
1.0
 40
1.0
 40
1.0
 10
66.1998948903
 20
85.9519050623
 30
0.0
 10
66.1668857912
 20
85.9709612409
 30
0.0
 10
66.0911203822
 20
85.9985889279
 30
0.0
 10
65.9651661092
 20
86.0017074224
 30
0.0
 10
65.8310731102
 20
85.9692022862
 30
0.0
 10
65.7437795765
 20
85.927751239
 30
0.0
 10
65.6999404385
 20
85.902440852
 30
0.0
  0
SPLINE
  5
340
100
AcDbEntity
  8
0
100
AcDbSpline
 62
7
  6
BYLAYER
 70
0
 71
3
 72
11
 73
7
 74
0
 42
0.0000001
 43
0.0000001
 44
0.0000000001
 40
0.0
 40
0.0
 40
0.0
 40
0.0
 40
0.217745073
 40
0.4508830113
 40
0.7104597664
 40
1.0
 40
1.0
 40
1.0
 40
1.0
 10
64.0931984506
 20
58.1819692564
 30
0.0
 10
64.1261785953
 20
58.2010102539
 30
0.0
 10
64.1879468598
 20
58.2528195956
 30
0.0
 10
64.2536532705
 20
58.3603008133
 30
0.0
 10
64.2926064015
 20
58.4927116097
 30
0.0
 10
64.3003383909
 20
58.5890681112
 30
0.0
 10
64.3003383909
 20
58.6397067415
 30
0.0
  0
SPLINE
  5
341
100
AcDbEntity
  8
0
100
AcDbSpline
 62
7
  6
BYLAYER
 70
0
 71
3
 72
12
 73
8
 74
0
 42
0.0000001
 43
0.0000001
 44
0.0000000001
 40
0.0
 40
0.0
 40
0.0
 40
0.0
 40
0.1081673355
 40
0.2183772621
 40
0.4513439585
 40
0.7104673446
 40
1.0
 40
1.0
 40
1.0
 40
1.0
 10
63.9269167371
 20
53.3952194688
 30
0.0
 10
63.9892290951
 20
53.4311785439
 30
0.0
 10
64.1090366798
 20
53.5147717241
 30
0.0
 10
64.3238489612
 20
53.7261767022
 30
0.0
 10
64.5367458791
 20
54.0730897153
 30
0.0
 10
64.6847260285
 20
54.5759868134
 30
0.0
 10
64.7139622569
 20
54.9421989198
 30
0.0
 10
64.7139622579
 20
55.1347711822
 30
0.0
  0
SPLINE
  5
342
100
AcDbEntity
  8
0
100
AcDbSpline
 62
7
  6
BYLAYER
 70
0
 71
3
 72
12
 73
8
 74
0
 42
0.0000001
 43
0.0000001
 44
0.0000000001
 40
0.0
 40
0.0
 40
0.0
 40
0.0
 40
0.1081614689
 40
0.2183687405
 40
0.4513480154
 40
0.7104447573
 40
1.0
 40
1.0
 40
1.0
 40
1.0
 10
65.2810732757
 20
56.1244931929
 30
0.0
 10
65.218772957
 20
56.0885242996
 30
0.0
 10
65.0864916538
 20
56.0265559721
 30
0.0
 10
64.7960054764
 20
55.9462238647
 30
0.0
 10
64.3891437761
 20
55.935313584
 30
0.0
 10
63.879630896
 20
56.058575321
 30
0.0
 10
63.5478784247
 20
56.2163714176
 30
0.0
 10
63.3810957483
 20
56.3126612624
 30
0.0
  0
SPLINE
  5
343
100
AcDbEntity
  8
0
100
AcDbSpline
 62
7
  6
BYLAYER
 70
0
 71
3
 72
12
 73
8
 74
0
 42
0.0000001
 43
0.0000001
 44
0.0000000001
 40
0.0
 40
0.0
 40
0.0
 40
0.0
 40
0.1081609637
 40
0.2183678071
 40
0.4513466783
 40
0.7104437715
 40
1.0
 40
1.0
 40
1.0
 40
1.0
 10
69.5236963354
 20
58.5739581371
 30
0.0
 10
69.5859980307
 20
58.6099278251
 30
0.0
 10
69.7058078248
 20
58.693504139
 30
0.0
 10
69.920625645
 20
58.9049116327
 30
0.0
 10
70.1335089287
 20
59.2518193412
 30
0.0
 10
70.2815175922
 20
59.7547166489
 30
0.0
 10
70.3107357735
 20
60.1209317631
 30
0.0
 10
70.3107357745
 20
60.3135205309
 30
0.0
  0
SPLINE
  5
344
100
AcDbEntity
  8
0
100
AcDbSpline
 62
7
  6
BYLAYER
 70
0
 71
3
 72
9
 73
5
 74
0
 42
0.0000001
 43
0.0000001
 44
0.0000000001
 40
0.0
 40
0.0
 40
0.0
 40
0.0
 40
0.4823892207
 40
1.0
 40
1.0
 40
1.0
 40
1.0
 10
66.625627354
 20
86.9418108589
 30
0.0
 10
66.6088669048
 20
86.9515275522
 30
0.0
 10
66.5702180738
 20
86.9654286141
 30
0.0
 10
66.5294101938
 20
86.9661221316
 30
0.0
 10
66.5087452874
 20
86.9638642144
 30
0.0
  0
SPLINE
  5
345
100
AcDbEntity
  8
0
100
AcDbSpline
 62
7
  6
BYLAYER
 70
0
 71
3
 72
9
 73
5
 74
0
 42
0.0000001
 43
0.0000001
 44
0.0000000001
 40
0.0
 40
0.0
 40
0.0
 40
0.0
 40
0.2309730304
 40
1.0
 40
1.0
 40
1.0
 40
1.0
 10
66.5087452874
 20
86.9638642144
 30
0.0
 10
66.4979014687
 20
86.9626793823
 30
0.0
 10
66.4512972936
 20
86.9544082467
 30
0.0
 10
66.4070925384
 20
86.9352191944
 30
0.0
 10
66.3756389006
 20
86.9170595366
 30
0.0
  0
SPLINE
  5
346
100
AcDbEntity
  8
0
100
AcDbSpline
 62
7
  6
BYLAYER
 70
0
 71
3
 72
11
 73
7
 74
0
 42
0.0000001
 43
0.0000001
 44
0.0000000001
 40
0.0
 40
0.0
 40
0.0
 40
0.0
 40
0.2180009803
 40
0.4510897025
 40
0.7104795125
 40
1.0
 40
1.0
 40
1.0
 40
1.0
 10
77.2347386393
 20
65.8858400815
 30
0.0
 10
77.2676434419
 20
65.8668180092
 30
0.0
 10
77.3292784879
 20
65.8152087067
 30
0.0
 10
77.3949178885
 20
65.7081435407
 30
0.0
 10
77.4338892433
 20
65.5762333802
 30
0.0
 10
77.4416439228
 20
65.4802120179
 30
0.0
 10
77.4416439228
 20
65.4297354941
 30
0.0
  0
SPLINE
  5
347
100
AcDbEntity
  8
0
100
AcDbSpline
 62
7
  6
BYLAYER
 70
0
 71
3
 72
9
 73
5
 74
0
 42
0.0000001
 43
0.0000001
 44
0.0000000001
 40
0.0
 40
0.0
 40
0.0
 40
0.0
 40
0.4962774561
 40
1.0
 40
1.0
 40
1.0
 40
1.0
 10
61.4068897774
 20
61.1485880536
 30
0.0
 10
61.23836952
 20
61.0513325447
 30
0.0
 10
60.8835791305
 20
60.8806658208
 30
0.0
 10
60.5076215008
 20
60.7641608472
 30
0.0
 10
60.3153497985
 20
60.7190643247
 30
0.0
  0
SPLINE
  5
348
100
AcDbEntity
  8
0
100
AcDbSpline
 62
7
  6
BYLAYER
 70
0
 71
3
 72
9
 73
5
 74
0
 42
0.0000001
 43
0.0000001
 44
0.0000000001
 40
0.0
 40
0.0
 40
0.0
 40
0.0
 40
0.5234279325
 40
1.0
 40
1.0
 40
1.0
 40
1.0
 10
52.5279057826
 20
90.6187974438
 30
0.0
 10
52.4191671693
 20
90.7607237171
 30
0.0
 10
52.1892375515
 20
91.0157326728
 30
0.0
 10
51.9148340393
 20
91.2242440897
 30
0.0
 10
51.7738542824
 20
91.305636949
 30
0.0
  0
SPLINE
  5
349
100
AcDbEntity
  8
0
100
AcDbSpline
 62
7
  6
BYLAYER
 70
0
 71
3
 72
25
 73
21
 74
0
 42
0.0000001
 43
0.0000001
 44
0.0000000001
 40
0.0
 40
0.0
 40
0.0
 40
0.0
 40
0.0213325828
 40
0.0428936152
 40
0.0648994126
 40
0.0875444156
 40
0.1353201293
 40
0.1872215866
 40
0.2436594735
 40
0.3046070856
 40
0.3696941502
 40
0.4382906421
 40
0.509576508
 40
0.5826005826
 40
0.6563323351
 40
0.729707842
 40
0.8016846265
 40
0.8712740254
 40
0.9376205398
 40
1.0
 40
1.0
 40
1.0
 40
1.0
 10
57.4493031809
 20
55.9192344797
 30
0.0
 10
57.6243796218
 20
56.02031444
 30
0.0
 10
57.963801326
 20
56.2463395089
 30
0.0
 10
58.4295576997
 20
56.6503178653
 30
0.0
 10
58.8507949556
 20
57.1174540314
 30
0.0
 10
59.3586797166
 20
57.8331514429
 30
0.0
 10
59.8671202316
 20
58.8848117954
 30
0.0
 10
60.2546584755
 20
60.3196441224
 30
0.0
 10
60.4273514738
 20
61.9202241476
 30
0.0
 10
60.3832093063
 20
63.6532295119
 30
0.0
 10
60.1242043208
 20
65.4830341524
 30
0.0
 10
59.6560992722
 20
67.3713712588
 30
0.0
 10
58.9889267744
 20
69.2784158811
 30
0.0
 10
58.1368833955
 20
71.1636743018
 30
0.0
 10
57.1181279637
 20
72.9869496202
 30
0.0
 10
55.9544270597
 20
74.7093959768
 30
0.0
 10
54.6705642236
 20
76.2941786951
 30
0.0
 10
53.2937760747
 20
77.7078623342
 30
0.0
 10
51.8534031842
 20
78.9199279105
 30
0.0
 10
50.8363096139
 20
79.5996642957
 30
0.0
 10
50.3243592768
 20
79.895232274
 30
0.0
  0
SPLINE
  5
34A
100
AcDbEntity
  8
0
100
AcDbSpline
 62
7
  6
BYLAYER
 70
0
 71
3
 72
14
 73
10
 74
0
 42
0.0000001
 43
0.0000001
 44
0.0000000001
 40
0.0
 40
0.0
 40
0.0
 40
0.0
 40
0.1125092418
 40
0.2263867576
 40
0.3429755646
 40
0.4634605877
 40
0.588797434
 40
0.7197456795
 40
1.0
 40
1.0
 40
1.0
 40
1.0
 10
24.8351453621
 20
68.9311345835
 30
0.0
 10
24.6336080284
 20
68.8147776442
 30
0.0
 10
24.2452382845
 20
68.5494726927
 30
0.0
 10
23.7233316581
 20
68.0654401638
 30
0.0
 10
23.2652559353
 20
67.499291639
 30
0.0
 10
22.8740403187
 20
66.8575067682
 30
0.0
 10
22.5520643646
 20
66.1457928853
 30
0.0
 10
22.2090719478
 20
65.0885574606
 30
0.0
 10
22.0727014165
 20
64.2425043884
 30
0.0
 10
22.0255643252
 20
63.6647440189
 30
0.0
  0
SPLINE
  5
34B
100
AcDbEntity
  8
0
100
AcDbSpline
 62
7
  6
BYLAYER
 70
0
 71
3
 72
15
 73
11
 74
0
 42
0.0000001
 43
0.0000001
 44
0.0000000001
 40
0.0
 40
0.0
 40
0.0
 40
0.0
 40
0.1540043623
 40
0.3002230091
 40
0.4375268835
 40
0.5653838606
 40
0.6840112348
 40
0.7945099396
 40
0.8988932095
 40
1.0
 40
1.0
 40
1.0
 40
1.0
 10
28.0766312404
 20
49.0632101292
 30
0.0
 10
28.4863943566
 20
48.6508189511
 30
0.0
 10
29.3224756674
 20
47.8826262221
 30
0.0
 10
30.6487038118
 20
46.8930827038
 30
0.0
 10
31.9950500367
 20
46.1113141846
 30
0.0
 10
33.337625529
 20
45.5538764664
 30
0.0
 10
34.6533222245
 20
45.2344166208
 30
0.0
 10
35.918800458
 20
45.1653038004
 30
0.0
 10
37.1062580233
 20
45.3558140151
 30
0.0
 10
37.8295496118
 20
45.6606887466
 30
0.0
 10
38.1600858894
 20
45.8515228163
 30
0.0
  0
SPLINE
  5
34C
100
AcDbEntity
  8
0
100
AcDbSpline
 62
7
  6
BYLAYER
 70
0
 71
3
 72
24
 73
20
 74
0
 42
0.0000001
 43
0.0000001
 44
0.0000000001
 40
0.0
 40
0.0
 40
0.0
 40
0.0
 40
0.0213203576
 40
0.0428478027
 40
0.0872261152
 40
0.1345417839
 40
0.1856905495
 40
0.2411182671
 40
0.300878736
 40
0.364710493
 40
0.432107669
 40
0.5023811415
 40
0.5747113603
 40
0.6481908441
 40
0.7218650966
 40
0.7947762354
 40
0.8659851428
 40
0.9346546089
 40
1.0
 40
1.0
 40
1.0
 40
1.0
 10
40.5125696015
 20
47.2097758218
 30
0.0
 10
40.6684230374
 20
47.2997651906
 30
0.0
 10
40.9709626908
 20
47.4999306262
 30
0.0
 10
41.5327818406
 20
47.978098899
 30
0.0
 10
42.1448464557
 20
48.7237016496
 30
0.0
 10
42.6998385579
 20
49.8025660084
 30
0.0
 10
43.0776158444
 20
51.0518149099
 30
0.0
 10
43.2735299232
 20
52.44688369
 30
0.0
 10
43.285755278
 20
53.9617132125
 30
0.0
 10
43.1148186676
 20
55.5678845525
 30
0.0
 10
42.7643467041
 20
57.2349685045
 30
0.0
 10
42.2412317171
 20
58.9310889424
 30
0.0
 10
41.555593567
 20
60.623596626
 30
0.0
 10
40.7207038276
 20
62.2797801857
 30
0.0
 10
39.7526954545
 20
63.8675858582
 30
0.0
 10
38.6703201864
 20
65.3561644369
 30
0.0
 10
37.4945063603
 20
66.7170160596
 30
0.0
 10
36.2480362404
 20
67.9233435192
 30
0.0
 10
35.3609349925
 20
68.6291457651
 30
0.0
 10
34.9107873494
 20
68.9479196866
 30
0.0
  0
SPLINE
  5
34D
100
AcDbEntity
  8
0
100
AcDbSpline
 62
7
  6
BYLAYER
 70
0
 71
3
 72
9
 73
5
 74
0
 42
0.0000001
 43
0.0000001
 44
0.0000000001
 40
0.0
 40
0.0
 40
0.0
 40
0.0
 40
0.2482146287
 40
1.0
 40
1.0
 40
1.0
 40
1.0
 10
26.3565494083
 20
63.5628959929
 30
0.0
 10
26.3149918872
 20
63.529475577
 30
0.0
 10
26.1512127468
 20
63.3903393826
 30
0.0
 10
26.0024272281
 20
63.2337153118
 30
0.0
 10
25.9001691155
 20
63.108686733
 30
0.0
  0
SPLINE
  5
34E
100
AcDbEntity
  8
0
100
AcDbSpline
 62
7
  6
BYLAYER
 70
0
 71
3
 72
9
 73
5
 74
0
 42
0.0000001
 43
0.0000001
 44
0.0000000001
 40
0.0
 40
0.0
 40
0.0
 40
0.0
 40
0.5182399919
 40
1.0
 40
1.0
 40
1.0
 40
1.0
 10
28.2048098706
 20
52.3200945142
 30
0.0
 10
28.5521655015
 20
51.9378402977
 30
0.0
 10
29.2710634177
 20
51.2425622259
 30
0.0
 10
30.0876945419
 20
50.6619173994
 30
0.0
 10
30.5035140298
 20
50.4218493372
 30
0.0
  0
SPLINE
  5
34F
100
AcDbEntity
  8
0
100
AcDbSpline
 62
7
  6
BYLAYER
 70
0
 71
3
 72
12
 73
8
 74
0
 42
0.0000001
 43
0.0000001
 44
0.0000000001
 40
0.0
 40
0.0
 40
0.0
 40
0.0
 40
0.2788776119
 40
0.5357237852
 40
0.773843104
 40
0.8879643433
 40
1.0
 40
1.0
 40
1.0
 40
1.0
 10
30.5035140298
 20
50.4218493372
 30
0.0
 10
30.820237404
 20
50.2389931486
 30
0.0
 10
31.4558149416
 20
49.9309452762
 30
0.0
 10
32.4397561973
 20
49.6582661902
 30
0.0
 10
33.2465963244
 20
49.6196350578
 30
0.0
 10
33.84986065
 20
49.7134026483
 30
0.0
 10
34.1347918921
 20
49.8001211606
 30
0.0
 10
34.2717776061
 20
49.8532367656
 30
0.0
  0
SPLINE
  5
350
100
AcDbEntity
  8
0
100
AcDbSpline
 62
7
  6
BYLAYER
 70
0
 71
3
 72
11
 73
7
 74
0
 42
0.0000001
 43
0.0000001
 44
0.0000000001
 40
0.0
 40
0.0
 40
0.0
 40
0.0
 40
0.2896423581
 40
0.5491120121
 40
0.7822364467
 40
1.0
 40
1.0
 40
1.0
 40
1.0
 10
17.1541287219
 20
49.1175353199
 30
0.0
 10
17.1541287219
 20
49.0162204306
 30
0.0
 10
17.1695285368
 20
48.8234957331
 30
0.0
 10
17.2475313625
 20
48.5586984661
 30
0.0
 10
17.3789269053
 20
48.3437784544
 30
0.0
 10
17.502419191
 20
48.2401059119
 30
0.0
 10
17.5683713022
 20
48.2019939679
 30
0.0
  0
SPLINE
  5
351
100
AcDbEntity
  8
0
100
AcDbSpline
 62
7
  6
BYLAYER
 70
0
 71
3
 72
11
 73
7
 74
0
 42
0.0000001
 43
0.0000001
 44
0.0000000001
 40
0.0
 40
0.0
 40
0.0
 40
0.0
 40
0.2177167293
 40
0.4509418166
 40
0.7102950539
 40
1.0
 40
1.0
 40
1.0
 40
1.0
 10
28.1521060067
 20
61.7105247025
 30
0.0
 10
28.1685938928
 20
61.7010051449
 30
0.0
 10
28.1994439291
 20
61.6750522706
 30
0.0
 10
28.2323169017
 20
61.6213511424
 30
0.0
 10
28.2518114465
 20
61.5551419043
 30
0.0
 10
28.2556589661
 20
61.506967348
 30
0.0
 10
28.2556589661
 20
61.4816334767
 30
0.0
  0
SPLINE
  5
352
100
AcDbEntity
  8
0
100
AcDbSpline
 62
7
  6
BYLAYER
 70
0
 71
3
 72
10
 73
6
 74
0
 42
0.0000001
 43
0.0000001
 44
0.0000000001
 40
0.0
 40
0.0
 40
0.0
 40
0.0
 40
0.5249298044
 40
0.7715438099
 40
1.0
 40
1.0
 40
1.0
 40
1.0
 10
26.1876572133
 20
45.8212964175
 30
0.0
 10
26.0849373707
 20
45.6433785185
 30
0.0
 10
25.9044595889
 20
45.3966381456
 30
0.0
 10
25.6180731958
 20
45.1287784731
 30
0.0
 10
25.4650894854
 20
45.0214837991
 30
0.0
 10
25.3876574241
 20
44.9767786446
 30
0.0
  0
SPLINE
  5
353
100
AcDbEntity
  8
0
100
AcDbSpline
 62
7
  6
BYLAYER
 70
0
 71
3
 72
9
 73
5
 74
0
 42
0.0000001
 43
0.0000001
 44
0.0000000001
 40
0.0
 40
0.0
 40
0.0
 40
0.0
 40
0.4721088883
 40
1.0
 40
1.0
 40
1.0
 40
1.0
 10
28.2556589661
 20
49.5568289623
 30
0.0
 10
28.257558596
 20
49.5014046039
 30
0.0
 10
28.2365819301
 20
49.383249696
 30
0.0
 10
28.1855148969
 20
49.2760798099
 30
0.0
 10
28.1521055624
 20
49.2238401065
 30
0.0
  0
SPLINE
  5
354
100
AcDbEntity
  8
0
100
AcDbSpline
 62
7
  6
BYLAYER
 70
0
 71
3
 72
11
 73
7
 74
0
 42
0.0000001
 43
0.0000001
 44
0.0000000001
 40
0.0
 40
0.0
 40
0.0
 40
0.0
 40
0.2685311064
 40
0.5251982986
 40
0.7691593091
 40
1.0
 40
1.0
 40
1.0
 40
1.0
 10
12.5762548477
 20
57.559799721
 30
0.0
 10
12.3398944081
 20
56.0969337676
 30
0.0
 10
11.9801127553
 20
53.2178534427
 30
0.0
 10
11.7902971664
 20
48.9727904945
 30
0.0
 10
11.9637172944
 20
44.9346809522
 30
0.0
 10
12.3312950244
 20
42.3348344654
 30
0.0
 10
12.5802240214
 20
41.0855430337
 30
0.0
  0
SPLINE
  5
355
100
AcDbEntity
  8
0
100
AcDbSpline
 62
7
  6
BYLAYER
 70
0
 71
3
 72
11
 73
7
 74
0
 42
0.0000001
 43
0.0000001
 44
0.0000000001
 40
0.0
 40
0.0
 40
0.0
 40
0.0
 40
0.2374583733
 40
0.4966966421
 40
0.7576988164
 40
1.0
 40
1.0
 40
1.0
 40
1.0
 10
12.9111286042
 20
58.1179460937
 30
0.0
 10
12.8665870282
 20
58.0892755554
 30
0.0
 10
12.7822540835
 20
58.0153381646
 30
0.0
 10
12.6810632453
 20
57.8786693719
 30
0.0
 10
12.6077473115
 20
57.7240371191
 30
0.0
 10
12.5813683118
 20
57.6136088509
 30
0.0
 10
12.5762548477
 20
57.559799721
 30
0.0
  0
SPLINE
  5
356
100
AcDbEntity
  8
0
100
AcDbSpline
 62
7
  6
BYLAYER
 70
0
 71
3
 72
11
 73
7
 74
0
 42
0.0000001
 43
0.0000001
 44
0.0000000001
 40
0.0
 40
0.0
 40
0.0
 40
0.0
 40
0.2177182218
 40
0.4509432128
 40
0.7102956771
 40
1.0
 40
1.0
 40
1.0
 40
1.0
 10
23.7127703625
 20
64.2735765763
 30
0.0
 10
23.6600093607
 20
64.3040390298
 30
0.0
 10
23.5387286415
 20
64.3480113063
 30
0.0
 10
23.3373129825
 20
64.3531934873
 30
0.0
 10
23.1226394395
 20
64.3012865288
 30
0.0
 10
22.982979738
 20
64.234871322
 30
0.0
 10
22.9127732906
 20
64.1943378527
 30
0.0
  0
SPLINE
  5
357
100
AcDbEntity
  8
0
100
AcDbSpline
 62
7
  6
BYLAYER
 70
0
 71
3
 72
9
 73
5
 74
0
 42
0.0000001
 43
0.0000001
 44
0.0000000001
 40
0.0
 40
0.0
 40
0.0
 40
0.0
 40
0.249930907
 40
1.0
 40
1.0
 40
1.0
 40
1.0
 10
29.642846343
 20
64.0112296015
 30
0.0
 10
29.6942534358
 20
64.3830865051
 30
0.0
 10
29.9004051114
 20
65.8708608302
 30
0.0
 10
30.1077014023
 20
67.358476244
 30
0.0
 10
30.2633920437
 20
68.4742619677
 30
0.0
  0
SPLINE
  5
358
100
AcDbEntity
  8
0
100
AcDbSpline
 62
7
  6
BYLAYER
 70
0
 71
3
 72
11
 73
7
 74
0
 42
0.0000001
 43
0.0000001
 44
0.0000000001
 40
0.0
 40
0.0
 40
0.0
 40
0.0
 40
0.2312269516
 40
0.4866097034
 40
0.7490726212
 40
1.0
 40
1.0
 40
1.0
 40
1.0
 10
75.3205680427
 20
73.9033345583
 30
0.0
 10
75.3205680427
 20
73.8550423022
 30
0.0
 10
75.3053357451
 20
73.7533130894
 30
0.0
 10
75.2499587581
 20
73.6060353392
 30
0.0
 10
75.1659812326
 20
73.4681771983
 30
0.0
 10
75.0934850642
 20
73.3879242411
 30
0.0
 10
75.0539500811
 20
73.3535229209
 30
0.0
  0
SPLINE
  5
359
100
AcDbEntity
  8
0
100
AcDbSpline
 62
7
  6
BYLAYER
 70
0
 71
3
 72
11
 73
7
 74
0
 42
0.0000001
 43
0.0000001
 44
0.0000000001
 40
0.0
 40
0.0
 40
0.0
 40
0.0
 40
0.2511299754
 40
0.5136128037
 40
0.7688763246
 40
1.0
 40
1.0
 40
1.0
 40
1.0
 10
75.0539500811
 20
73.3535229209
 30
0.0
 10
74.9361659247
 20
73.2501935212
 30
0.0
 10
74.7196306234
 20
73.0102775191
 30
0.0
 10
74.4699577519
 20
72.5975924353
 30
0.0
 10
74.3050523407
 20
72.1576066349
 30
0.0
 10
74.259912377
 20
71.8538109306
 30
0.0
 10
74.2599123699
 20
71.7096086034
 30
0.0
  0
SPLINE
  5
35A
100
AcDbEntity
  8
0
100
AcDbSpline
 62
7
  6
BYLAYER
 70
0
 71
3
 72
11
 73
7
 74
0
 42
0.0000001
 43
0.0000001
 44
0.0000000001
 40
0.0
 40
0.0
 40
0.0
 40
0.0
 40
0.289417971
 40
0.5489775473
 40
0.7820707799
 40
1.0
 40
1.0
 40
1.0
 40
1.0
 10
74.2591426409
 20
66.9865797534
 30
0.0
 10
74.2591426409
 20
66.9643838238
 30
0.0
 10
74.2625461058
 20
66.9221437892
 30
0.0
 10
74.2795960517
 20
66.8640890615
 30
0.0
 10
74.3083988696
 20
66.8169377367
 30
0.0
 10
74.3355027779
 20
66.7942200001
 30
0.0
 10
74.3499799905
 20
66.7858685852
 30
0.0
  0
SPLINE
  5
35B
100
AcDbEntity
  8
0
100
AcDbSpline
 62
7
  6
BYLAYER
 70
0
 71
3
 72
11
 73
7
 74
0
 42
0.0000001
 43
0.0000001
 44
0.0000000001
 40
0.0
 40
0.0
 40
0.0
 40
0.0
 40
0.2372423294
 40
0.4999983821
 40
0.7627553152
 40
1.0
 40
1.0
 40
1.0
 40
1.0
 10
45.6821363839
 20
96.2516065772
 30
0.0
 10
45.6319414468
 20
96.2226266898
 30
0.0
 10
45.536958726
 20
96.1426789689
 30
0.0
 10
45.4260984868
 20
95.9911827741
 30
0.0
 10
45.3503297168
 20
95.8194259684
 30
0.0
 10
45.3285844653
 20
95.6971939015
 30
0.0
 10
45.3285844653
 20
95.6392332917
 30
0.0
  0
SPLINE
  5
35C
100
AcDbEntity
  8
0
100
AcDbSpline
 62
7
  6
BYLAYER
 70
0
 71
3
 72
9
 73
5
 74
0
 42
0.0000001
 43
0.0000001
 44
0.0000000001
 40
0.0
 40
0.0
 40
0.0
 40
0.0
 40
0.2326799065
 40
1.0
 40
1.0
 40
1.0
 40
1.0
 10
61.3551569081
 20
90.9702689314
 30
0.0
 10
61.3261511647
 20
90.9653642367
 30
0.0
 10
61.2026510731
 20
90.9374215317
 30
0.0
 10
61.0856195774
 20
90.8846972435
 30
0.0
 10
61.0016049896
 20
90.8361916882
 30
0.0
  0
SPLINE
  5
35D
100
AcDbEntity
  8
0
100
AcDbSpline
 62
7
  6
BYLAYER
 70
0
 71
3
 72
9
 73
5
 74
0
 42
0.0000001
 43
0.0000001
 44
0.0000000001
 40
0.0
 40
0.0
 40
0.0
 40
0.0
 40
0.2326799065
 40
1.0
 40
1.0
 40
1.0
 40
1.0
 10
65.8099481765
 20
88.3983521779
 30
0.0
 10
65.7809424331
 20
88.3934474832
 30
0.0
 10
65.6574423415
 20
88.3655047783
 30
0.0
 10
65.5404108458
 20
88.31278049
 30
0.0
 10
65.456396258
 20
88.2642749347
 30
0.0
  0
SPLINE
  5
35E
100
AcDbEntity
  8
0
100
AcDbSpline
 62
7
  6
BYLAYER
 70
0
 71
3
 72
10
 73
6
 74
0
 42
0.0000001
 43
0.0000001
 44
0.0000000001
 40
0.0
 40
0.0
 40
0.0
 40
0.0
 40
0.5239373036
 40
0.7696503409
 40
1.0
 40
1.0
 40
1.0
 40
1.0
 10
61.2810232714
 20
88.4445912812
 30
0.0
 10
61.5655879785
 20
88.4163416392
 30
0.0
 10
61.9819420968
 20
88.3385252136
 30
0.0
 10
62.4970508279
 20
88.1558396024
 30
0.0
 10
62.7312163852
 20
88.0413424458
 30
0.0
 10
62.8400973404
 20
87.9784814191
 30
0.0
  0
SPLINE
  5
35F
100
AcDbEntity
  8
0
100
AcDbSpline
 62
7
  6
BYLAYER
 70
0
 71
3
 72
11
 73
7
 74
0
 42
0.0000001
 43
0.0000001
 44
0.0000000001
 40
0.0
 40
0.0
 40
0.0
 40
0.0
 40
0.2825402389
 40
0.5421473253
 40
0.7797398135
 40
1.0
 40
1.0
 40
1.0
 40
1.0
 10
62.8400973404
 20
87.9784814191
 30
0.0
 10
62.9409270917
 20
87.920268652
 30
0.0
 10
63.1276173285
 20
87.7959846741
 30
0.0
 10
63.3655832451
 20
87.5778287539
 30
0.0
 10
63.5439040817
 20
87.3395982385
 30
0.0
 10
63.6215575184
 20
87.1653072716
 30
0.0
 10
63.6474619523
 20
87.0783189056
 30
0.0
  0
SPLINE
  5
360
100
AcDbEntity
  8
0
100
AcDbSpline
 62
7
  6
BYLAYER
 70
0
 71
3
 72
9
 73
5
 74
0
 42
0.0000001
 43
0.0000001
 44
0.0000000001
 40
0.0
 40
0.0
 40
0.0
 40
0.0
 40
0.5250322704
 40
1.0
 40
1.0
 40
1.0
 40
1.0
 10
65.0388804411
 20
86.2469679401
 30
0.0
 10
65.1021800584
 20
86.2517307426
 30
0.0
 10
65.2221920725
 20
86.2718707314
 30
0.0
 10
65.3359614789
 20
86.3168050803
 30
0.0
 10
65.3856935285
 20
86.3455177212
 30
0.0
  0
SPLINE
  5
361
100
AcDbEntity
  8
0
100
AcDbSpline
 62
7
  6
BYLAYER
 70
0
 71
3
 72
11
 73
7
 74
0
 42
0.0000001
 43
0.0000001
 44
0.0000000001
 40
0.0
 40
0.0
 40
0.0
 40
0.0
 40
0.2372423294
 40
0.4999983821
 40
0.7627553152
 40
1.0
 40
1.0
 40
1.0
 40
1.0
 10
64.6538903096
 20
85.2985071334
 30
0.0
 10
64.6036953725
 20
85.269527246
 30
0.0
 10
64.5087126517
 20
85.1895795251
 30
0.0
 10
64.3978524125
 20
85.0380833303
 30
0.0
 10
64.3220836424
 20
84.8663265246
 30
0.0
 10
64.3003383909
 20
84.7440944577
 30
0.0
 10
64.3003383909
 20
84.6861338479
 30
0.0
  0
SPLINE
  5
362
100
AcDbEntity
  8
0
100
AcDbSpline
 62
7
  6
BYLAYER
 70
0
 71
3
 72
9
 73
5
 74
0
 42
0.0000001
 43
0.0000001
 44
0.0000000001
 40
0.0
 40
0.0
 40
0.0
 40
0.0
 40
0.4573141873
 40
1.0
 40
1.0
 40
1.0
 40
1.0
 10
70.1829143321
 20
82.5777917359
 30
0.0
 10
70.2267743274
 20
82.5307631177
 30
0.0
 10
70.2946526411
 20
82.4015767811
 30
0.0
 10
70.3107357395
 20
82.2596705976
 30
0.0
 10
70.3107357793
 20
82.183358738
 30
0.0
  0
SPLINE
  5
363
100
AcDbEntity
  8
0
100
AcDbSpline
 62
7
  6
BYLAYER
 70
0
 71
3
 72
11
 73
7
 74
0
 42
0.0000001
 43
0.0000001
 44
0.0000000001
 40
0.0
 40
0.0
 40
0.0
 40
0.0
 40
0.2626378274
 40
0.5234779878
 40
0.7722510994
 40
1.0
 40
1.0
 40
1.0
 40
1.0
 10
61.9408983352
 20
57.1495618188
 30
0.0
 10
61.8560681918
 20
57.037334375
 30
0.0
 10
61.7033230569
 20
56.8008338314
 30
0.0
 10
61.5297770356
 20
56.4237946293
 30
0.0
 10
61.4192891191
 20
56.0430517706
 30
0.0
 10
61.3905742177
 20
55.7875238067
 30
0.0
 10
61.3905742177
 20
55.6655309073
 30
0.0
  0
SPLINE
  5
364
100
AcDbEntity
  8
0
100
AcDbSpline
 62
7
  6
BYLAYER
 70
0
 71
3
 72
11
 73
7
 74
0
 42
0.0000001
 43
0.0000001
 44
0.0000000001
 40
0.0
 40
0.0
 40
0.0
 40
0.0
 40
0.2866766347
 40
0.5464126864
 40
0.7818129339
 40
1.0
 40
1.0
 40
1.0
 40
1.0
 10
61.3905742177
 20
55.6655309073
 30
0.0
 10
61.3905742177
 20
55.5878952666
 30
0.0
 10
61.4012737629
 20
55.4395373613
 30
0.0
 10
61.4547302609
 20
55.2332040325
 30
0.0
 10
61.5444535263
 20
55.0600161505
 30
0.0
 10
61.6296224393
 20
54.9686838215
 30
0.0
 10
61.6761394178
 20
54.9322484095
 30
0.0
  0
SPLINE
  5
365
100
AcDbEntity
  8
0
100
AcDbSpline
 62
7
  6
BYLAYER
 70
0
 71
3
 72
9
 73
5
 74
0
 42
0.0000001
 43
0.0000001
 44
0.0000000001
 40
0.0
 40
0.0
 40
0.0
 40
0.0
 40
0.2446109344
 40
1.0
 40
1.0
 40
1.0
 40
1.0
 10
30.314193198
 20
68.6251364742
 30
0.0
 10
30.3999279179
 20
68.5865587117
 30
0.0
 10
30.7482922286
 20
68.4241382065
 30
0.0
 10
31.0880695736
 20
68.2434485316
 30
0.0
 10
31.3395022782
 20
68.098287076
 30
0.0
  0
SPLINE
  5
366
100
AcDbEntity
  8
0
100
AcDbSpline
 62
7
  6
BYLAYER
 70
0
 71
3
 72
9
 73
5
 74
0
 42
0.0000001
 43
0.0000001
 44
0.0000000001
 40
0.0
 40
0.0
 40
0.0
 40
0.0
 40
0.245307042
 40
1.0
 40
1.0
 40
1.0
 40
1.0
 10
31.3395022782
 20
68.098287076
 30
0.0
 10
31.4226964072
 20
68.0502560098
 30
0.0
 10
31.7595691904
 20
67.8505402679
 30
0.0
 10
32.087368212
 20
67.6356005715
 30
0.0
 10
32.3294558741
 20
67.4660750416
 30
0.0
  0
SPLINE
  5
367
100
AcDbEntity
  8
0
100
AcDbSpline
 62
7
  6
BYLAYER
 70
0
 71
3
 72
9
 73
5
 74
0
 42
0.0000001
 43
0.0000001
 44
0.0000000001
 40
0.0
 40
0.0
 40
0.0
 40
0.0
 40
0.2547429038
 40
1.0
 40
1.0
 40
1.0
 40
1.0
 10
32.2786604953
 20
67.3152928664
 30
0.0
 10
32.1969732133
 20
67.3726104967
 30
0.0
 10
31.8739734634
 20
67.594257485
 30
0.0
 10
31.5415353502
 20
67.8022278188
 30
0.0
 10
31.2887069531
 20
67.9481950597
 30
0.0
  0
SPLINE
  5
368
100
AcDbEntity
  8
0
100
AcDbSpline
 62
7
  6
BYLAYER
 70
0
 71
3
 72
9
 73
5
 74
0
 42
0.0000001
 43
0.0000001
 44
0.0000000001
 40
0.0
 40
0.0
 40
0.0
 40
0.0
 40
0.2295272046
 40
1.0
 40
1.0
 40
1.0
 40
1.0
 10
30.4015955518
 20
68.8301382625
 30
0.0
 10
30.3887680121
 20
68.8227323233
 30
0.0
 10
30.3354774958
 20
68.7860207983
 30
0.0
 10
30.292355245
 20
68.7357642912
 30
0.0
 10
30.2654109648
 20
68.6939775597
 30
0.0
  0
SPLINE
  5
369
100
AcDbEntity
  8
0
100
AcDbSpline
 62
7
  6
BYLAYER
 70
0
 71
3
 72
9
 73
5
 74
0
 42
0.0000001
 43
0.0000001
 44
0.0000000001
 40
0.0
 40
0.0
 40
0.0
 40
0.0
 40
0.2605761859
 40
1.0
 40
1.0
 40
1.0
 40
1.0
 10
30.2417586622
 20
68.653368528
 30
0.0
 10
30.2354727023
 20
68.6413630937
 30
0.0
 10
30.2131700741
 20
68.5943929536
 30
0.0
 10
30.1979968621
 20
68.5437858522
 30
0.0
 10
30.1926868792
 20
68.5056997652
 30
0.0
  0
SPLINE
  5
36A
100
AcDbEntity
  8
0
100
AcDbSpline
 62
7
  6
BYLAYER
 70
0
 71
3
 72
16
 73
12
 74
0
 42
0.0000001
 43
0.0000001
 44
0.0000000001
 40
0.0
 40
0.0
 40
0.0
 40
0.0
 40
0.1461530759
 40
0.2152345869
 40
0.2817153059
 40
0.4076100268
 40
0.5263061729
 40
0.6410566813
 40
0.7557561366
 40
0.8743062727
 40
1.0
 40
1.0
 40
1.0
 40
1.0
 10
30.1926868792
 20
68.5056997652
 30
0.0
 10
29.8009269679
 20
68.6778786266
 30
0.0
 10
29.2066764247
 20
68.8958421335
 30
0.0
 10
28.4040115203
 20
69.089083153
 30
0.0
 10
27.6468910906
 20
69.2067916857
 30
0.0
 10
26.7305936088
 20
69.2290454941
 30
0.0
 10
25.6873323725
 20
69.0405569298
 30
0.0
 10
24.7415709828
 20
68.6364707937
 30
0.0
 10
23.9155043257
 20
68.0244318742
 30
0.0
 10
23.2270089
 20
67.2199900404
 30
0.0
 10
22.8791987642
 20
66.5893891876
 30
0.0
 10
22.7295513572
 20
66.2531649778
 30
0.0
  0
SPLINE
  5
36B
100
AcDbEntity
  8
0
100
AcDbSpline
 62
7
  6
BYLAYER
 70
0
 71
3
 72
9
 73
5
 74
0
 42
0.0000001
 43
0.0000001
 44
0.0000000001
 40
0.0
 40
0.0
 40
0.0
 40
0.0
 40
0.2369691587
 40
1.0
 40
1.0
 40
1.0
 40
1.0
 10
22.6713822019
 20
66.1183974261
 30
0.0
 10
22.6000560064
 20
65.9479356359
 30
0.0
 10
22.3291219423
 20
65.2160575028
 30
0.0
 10
22.1745704956
 20
64.4438254223
 30
0.0
 10
22.1086624814
 20
63.8524944129
 30
0.0
  0
SPLINE
  5
36C
100
AcDbEntity
  8
0
100
AcDbSpline
 62
7
  6
BYLAYER
 70
0
 71
3
 72
9
 73
5
 74
0
 42
0.0000001
 43
0.0000001
 44
0.0000000001
 40
0.0
 40
0.0
 40
0.0
 40
0.0
 40
0.2588735688
 40
1.0
 40
1.0
 40
1.0
 40
1.0
 10
28.3616514683
 20
48.8321881458
 30
0.0
 10
28.5421474787
 20
48.6584328297
 30
0.0
 10
29.2530218493
 20
48.0017154955
 30
0.0
 10
30.0198370255
 20
47.4042462077
 30
0.0
 10
30.6180974485
 20
47.0085775886
 30
0.0
  0
SPLINE
  5
36D
100
AcDbEntity
  8
0
100
AcDbSpline
 62
7
  6
BYLAYER
 70
0
 71
3
 72
9
 73
5
 74
0
 42
0.0000001
 43
0.0000001
 44
0.0000000001
 40
0.0
 40
0.0
 40
0.0
 40
0.0
 40
0.265533464
 40
1.0
 40
1.0
 40
1.0
 40
1.0
 10
31.5435165239
 20
46.450196176
 30
0.0
 10
31.7609993933
 20
46.3315802757
 30
0.0
 10
32.5933800705
 20
45.9108763169
 30
0.0
 10
33.4849489531
 20
45.5987570014
 30
0.0
 10
34.1567749323
 20
45.4639729118
 30
0.0
  0
SPLINE
  5
36E
100
AcDbEntity
  8
0
100
AcDbSpline
 62
7
  6
BYLAYER
 70
0
 71
3
 72
24
 73
20
 74
0
 42
0.0000001
 43
0.0000001
 44
0.0000000001
 40
0.0
 40
0.0
 40
0.0
 40
0.0
 40
0.0653449281
 40
0.1340133179
 40
0.2052216676
 40
0.2781330196
 40
0.351808579
 40
0.425288337
 40
0.4976186989
 40
0.5678926585
 40
0.6352903108
 40
0.6991224547
 40
0.7588831446
 40
0.8143108937
 40
0.8654594816
 40
0.9127747949
 40
0.9571526989
 40
0.9786798857
 40
1.0
 40
1.0
 40
1.0
 40
1.0
 10
32.5582802135
 20
67.5897071658
 30
0.0
 10
33.0084250122
 20
67.2709352586
 30
0.0
 10
33.8955184178
 20
66.565142679
 30
0.0
 10
35.1419771924
 20
65.3588271403
 30
0.0
 10
36.3177891584
 20
63.9979880389
 30
0.0
 10
37.4001723369
 20
62.5094033175
 30
0.0
 10
38.3681930585
 20
60.9215857932
 30
0.0
 10
39.2030931518
 20
59.2653894224
 30
0.0
 10
39.888733684
 20
57.5728729379
 30
0.0
 10
40.4118532291
 20
55.8767427209
 30
0.0
 10
40.7623269912
 20
54.2096460534
 30
0.0
 10
40.9332620527
 20
52.6034640264
 30
0.0
 10
40.9210325339
 20
51.0886278943
 30
0.0
 10
40.7251132369
 20
49.6935581
 30
0.0
 10
40.3473315749
 20
48.4443137593
 30
0.0
 10
39.7923355674
 20
47.3654593026
 30
0.0
 10
39.1802719624
 20
46.6198661565
 30
0.0
 10
38.6184563958
 20
46.1417048783
 30
0.0
 10
38.3159203893
 20
45.9415411508
 30
0.0
 10
38.1600684718
 20
45.8515529839
 30
0.0
  0
SPLINE
  5
36F
100
AcDbEntity
  8
0
100
AcDbSpline
 62
7
  6
BYLAYER
 70
0
 71
3
 72
9
 73
5
 74
0
 42
0.0000001
 43
0.0000001
 44
0.0000000001
 40
0.0
 40
0.0
 40
0.0
 40
0.0
 40
0.2555002765
 40
1.0
 40
1.0
 40
1.0
 40
1.0
 10
31.2887069531
 20
67.9481950597
 30
0.0
 10
31.20368827
 20
67.9972795089
 30
0.0
 10
30.868659065
 20
68.1854050917
 30
0.0
 10
30.5244061
 20
68.3572392933
 30
0.0
 10
30.2633979332
 20
68.4743035913
 30
0.0
  0
SPLINE
  5
370
100
AcDbEntity
  8
0
100
AcDbSpline
 62
7
  6
BYLAYER
 70
0
 71
3
 72
15
 73
11
 74
0
 42
0.0000001
 43
0.0000001
 44
0.0000000001
 40
0.0
 40
0.0
 40
0.0
 40
0.0
 40
0.1141577899
 40
0.2373246518
 40
0.3669755934
 40
0.4999989082
 40
0.6330223748
 40
0.7626737603
 40
0.8858413213
 40
1.0
 40
1.0
 40
1.0
 40
1.0
 10
34.0834669782
 20
70.5186047044
 30
0.0
 10
34.7732899472
 20
70.1203442375
 30
0.0
 10
36.1357801789
 20
69.1652843339
 30
0.0
 10
38.0104532499
 20
67.4113254258
 30
0.0
 10
39.7381093028
 20
65.3380989214
 30
0.0
 10
41.2536018559
 20
63.02324133
 30
0.0
 10
42.5005942003
 20
60.5533606684
 30
0.0
 10
43.4322494347
 20
58.0205498779
 30
0.0
 10
44.0139049574
 20
55.5200459074
 30
0.0
 10
44.1597805616
 20
53.8625551585
 30
0.0
 10
44.1597805616
 20
53.0660145084
 30
0.0
  0
SPLINE
  5
371
100
AcDbEntity
  8
0
100
AcDbSpline
 62
7
  6
BYLAYER
 70
0
 71
3
 72
15
 73
11
 74
0
 42
0.0000001
 43
0.0000001
 44
0.0000000001
 40
0.0
 40
0.0
 40
0.0
 40
0.0
 40
0.1485543838
 40
0.2895087704
 40
0.4227318319
 40
0.548638914
 40
0.667999567
 40
0.7819385784
 40
0.8919877039
 40
1.0
 40
1.0
 40
1.0
 40
1.0
 10
44.1597805616
 20
53.0660145084
 30
0.0
 10
44.1597805616
 20
52.6949753401
 30
0.0
 10
44.1297885357
 20
51.9713860276
 30
0.0
 10
43.9874654021
 20
50.9235037639
 30
0.0
 10
43.7494811269
 20
49.9508526422
 30
0.0
 10
43.4178822536
 20
49.0629856826
 30
0.0
 10
42.9952638358
 20
48.268338737
 30
0.0
 10
42.4847697198
 20
47.5750727691
 30
0.0
 10
41.8912795104
 20
46.9908937175
 30
0.0
 10
41.4420436609
 20
46.6775000939
 30
0.0
 10
41.2084082026
 20
46.5426113943
 30
0.0
  0
SPLINE
  5
372
100
AcDbEntity
  8
0
100
AcDbSpline
 62
7
  6
BYLAYER
 70
0
 71
3
 72
15
 73
11
 74
0
 42
0.0000001
 43
0.0000001
 44
0.0000000001
 40
0.0
 40
0.0
 40
0.0
 40
0.0
 40
0.1080128002
 40
0.2180623532
 40
0.3320016531
 40
0.4513624104
 40
0.5772694035
 40
0.7104921984
 40
0.8514461641
 40
1.0
 40
1.0
 40
1.0
 40
1.0
 10
26.9585257539
 20
71.2242791263
 30
0.0
 10
27.1921560427
 20
71.3591648414
 30
0.0
 10
27.6881702869
 20
71.5915107431
 30
0.0
 10
28.4908104997
 20
71.8133939883
 30
0.0
 10
29.346422184
 20
71.9088623619
 30
0.0
 10
30.2458925923
 20
71.8775431643
 30
0.0
 10
31.1805827964
 20
71.7207938349
 30
0.0
 10
32.1418902147
 20
71.4405848476
 30
0.0
 10
33.1205189839
 20
71.0399199742
 30
0.0
 10
33.7621456103
 20
70.7041154859
 30
0.0
 10
34.0834669782
 20
70.5186047044
 30
0.0
  0
SPLINE
  5
373
100
AcDbEntity
  8
0
100
AcDbSpline
 62
7
  6
BYLAYER
 70
0
 71
3
 72
13
 73
9
 74
0
 42
0.0000001
 43
0.0000001
 44
0.0000000001
 40
0.0
 40
0.0
 40
0.0
 40
0.0
 40
0.1115629017
 40
0.2246618372
 40
0.3407293352
 40
0.4609974115
 40
0.71761438
 40
1.0
 40
1.0
 40
1.0
 40
1.0
 10
24.8351532525
 20
68.931120916
 30
0.0
 10
25.0210947933
 20
69.0384567486
 30
0.0
 10
25.4118523139
 20
69.2276225726
 30
0.0
 10
26.0388489242
 20
69.4265120362
 30
0.0
 10
26.7037274901
 20
69.5401931588
 30
0.0
 10
27.6539095394
 20
69.5785416417
 30
0.0
 10
28.920796325
 20
69.3971519111
 30
0.0
 10
29.9045633587
 20
69.0498766261
 30
0.0
 10
30.4015955518
 20
68.8301382625
 30
0.0
  0
SPLINE
  5
374
100
AcDbEntity
  8
0
100
AcDbSpline
 62
7
  6
BYLAYER
 70
0
 71
3
 72
23
 73
19
 74
0
 42
0.0000001
 43
0.0000001
 44
0.0000000001
 40
0.0
 40
0.0
 40
0.0
 40
0.0
 40
0.0430903364
 40
0.0870061741
 40
0.1335438535
 40
0.184004621
 40
0.2390939465
 40
0.2989787591
 40
0.3633941748
 40
0.4317465953
 40
0.5032006234
 40
0.5767545093
 40
0.6513012484
 40
0.7256867551
 40
0.7987680035
 40
0.8694510841
 40
0.9368020097
 40
1.0
 40
1.0
 40
1.0
 40
1.0
 10
34.271763531
 20
49.8532643373
 30
0.0
 10
34.4895226558
 20
49.9376958504
 30
0.0
 10
34.9089945094
 20
50.1673038512
 30
0.0
 10
35.4348748172
 20
50.6758454484
 30
0.0
 10
35.842449353
 20
51.3296836513
 30
0.0
 10
36.1247463831
 20
52.1095181729
 30
0.0
 10
36.278703836
 20
52.9967701375
 30
0.0
 10
36.3026743005
 20
53.9717558185
 30
0.0
 10
36.1969780491
 20
55.0129942203
 30
0.0
 10
35.9643062075
 20
56.0972208289
 30
0.0
 10
35.6100959539
 20
57.1999237078
 30
0.0
 10
35.1424698933
 20
58.2959627917
 30
0.0
 10
34.572156141
 20
59.3602389082
 30
0.0
 10
33.9122074575
 20
60.3683416479
 30
0.0
 10
33.177759011
 20
61.2970558561
 30
0.0
 10
32.3856021844
 20
62.1253726772
 30
0.0
 10
31.5538720716
 20
62.8339387718
 30
0.0
 10
30.9648057226
 20
63.2298078566
 30
0.0
 10
30.6681554445
 20
63.4010751
 30
0.0
  0
SPLINE
  5
375
100
AcDbEntity
  8
0
100
AcDbSpline
 62
7
  6
BYLAYER
 70
0
 71
3
 72
11
 73
7
 74
0
 42
0.0000001
 43
0.0000001
 44
0.0000000001
 40
0.0
 40
0.0
 40
0.0
 40
0.0
 40
0.2895402014
 40
0.5491171494
 40
0.7822550629
 40
1.0
 40
1.0
 40
1.0
 40
1.0
 10
73.611638587
 20
57.0875726119
 30
0.0
 10
73.611638587
 20
57.036933988
 30
0.0
 10
73.6039065385
 20
56.9405774696
 30
0.0
 10
73.5649534674
 20
56.8081666284
 30
0.0
 10
73.4992470026
 20
56.7006854417
 30
0.0
 10
73.4374787813
 20
56.6488760945
 30
0.0
 10
73.4044986483
 20
56.6298351255
 30
0.0
  0
SPLINE
  5
376
100
AcDbEntity
  8
0
100
AcDbSpline
 62
7
  6
BYLAYER
 70
0
 71
3
 72
11
 73
7
 74
0
 42
0.0000001
 43
0.0000001
 44
0.0000000001
 40
0.0
 40
0.0
 40
0.0
 40
0.0
 40
0.2896423581
 40
0.5491120121
 40
0.7822364467
 40
1.0
 40
1.0
 40
1.0
 40
1.0
 10
19.9825440707
 20
50.7505119354
 30
0.0
 10
19.9825440707
 20
50.8518268247
 30
0.0
 10
19.9671442559
 20
51.0445515222
 30
0.0
 10
19.8891414301
 20
51.3093487892
 30
0.0
 10
19.7577458873
 20
51.5242688008
 30
0.0
 10
19.6342536016
 20
51.6279413433
 30
0.0
 10
19.5683014904
 20
51.6660532873
 30
0.0
  0
SPLINE
  5
377
100
AcDbEntity
  8
0
100
AcDbSpline
 62
7
  6
BYLAYER
 70
0
 71
3
 72
11
 73
7
 74
0
 42
0.0000001
 43
0.0000001
 44
0.0000000001
 40
0.0
 40
0.0
 40
0.0
 40
0.0
 40
0.2897043229
 40
0.5490567872
 40
0.7822817782
 40
1.0
 40
1.0
 40
1.0
 40
1.0
 10
25.3876573286
 20
62.7654952118
 30
0.0
 10
25.457863776
 20
62.8060286812
 30
0.0
 10
25.5975234775
 20
62.872443888
 30
0.0
 10
25.8121970205
 20
62.9243508465
 30
0.0
 10
26.0136126795
 20
62.9191686655
 30
0.0
 10
26.1348933987
 20
62.875196389
 30
0.0
 10
26.1876544005
 20
62.8447339355
 30
0.0
  0
SPLINE
  5
378
100
AcDbEntity
  8
0
100
AcDbSpline
 62
7
  6
BYLAYER
 70
0
 71
3
 72
11
 73
7
 74
0
 42
0.0000001
 43
0.0000001
 44
0.0000000001
 40
0.0
 40
0.0
 40
0.0
 40
0.0
 40
0.2423011836
 40
0.5033033579
 40
0.7625416267
 40
1.0
 40
1.0
 40
1.0
 40
1.0
 10
15.0511388857
 20
56.1309570801
 30
0.0
 10
15.0562523499
 20
56.1847662101
 30
0.0
 10
15.0826313495
 20
56.2951944782
 30
0.0
 10
15.1559472833
 20
56.4498267311
 30
0.0
 10
15.2571381215
 20
56.5864955238
 30
0.0
 10
15.3414710662
 20
56.6604329146
 30
0.0
 10
15.3860126422
 20
56.6891034528
 30
0.0
  0
SPLINE
  5
379
100
AcDbEntity
  8
0
100
AcDbSpline
 62
7
  6
BYLAYER
 70
0
 71
3
 72
11
 73
7
 74
0
 42
0.0000001
 43
0.0000001
 44
0.0000000001
 40
0.0
 40
0.0
 40
0.0
 40
0.0
 40
0.2308406909
 40
0.4748017014
 40
0.7314688936
 40
1.0
 40
1.0
 40
1.0
 40
1.0
 10
15.0551080595
 20
39.6567003929
 30
0.0
 10
14.8061790624
 20
40.9059918246
 30
0.0
 10
14.4386013324
 20
43.5058383113
 30
0.0
 10
14.2651812044
 20
47.5439478536
 30
0.0
 10
14.4549967933
 20
51.7890108018
 30
0.0
 10
14.8147784461
 20
54.6680911267
 30
0.0
 10
15.0511388857
 20
56.1309570801
 30
0.0
  0
SPLINE
  5
37A
100
AcDbEntity
  8
0
100
AcDbSpline
 62
7
  6
BYLAYER
 70
0
 71
3
 72
9
 73
5
 74
0
 42
0.0000001
 43
0.0000001
 44
0.0000000001
 40
0.0
 40
0.0
 40
0.0
 40
0.0
 40
0.2437967082
 40
1.0
 40
1.0
 40
1.0
 40
1.0
 10
32.2786607378
 20
67.3152940286
 30
0.0
 10
32.2792327811
 20
67.3193920941
 30
0.0
 10
32.28186875
 20
67.3361603047
 30
0.0
 10
32.2856163809
 20
67.352749236
 30
0.0
 10
32.2889920949
 20
67.365131876
 30
0.0
  0
SPLINE
  5
37B
100
AcDbEntity
  8
0
100
AcDbSpline
 62
7
  6
BYLAYER
 70
0
 71
3
 72
9
 73
5
 74
0
 42
0.0000001
 43
0.0000001
 44
0.0000000001
 40
0.0
 40
0.0
 40
0.0
 40
0.0
 40
0.2460453722
 40
1.0
 40
1.0
 40
1.0
 40
1.0
 10
32.2889920949
 20
67.365131876
 30
0.0
 10
32.2901497196
 20
67.3693782221
 30
0.0
 10
32.2951168831
 20
67.38656439
 30
0.0
 10
32.3011003296
 20
67.4034540167
 30
0.0
 10
32.3061181459
 20
67.4159727245
 30
0.0
  0
SPLINE
  5
37C
100
AcDbEntity
  8
0
100
AcDbSpline
 62
7
  6
BYLAYER
 70
0
 71
3
 72
9
 73
5
 74
0
 42
0.0000001
 43
0.0000001
 44
0.0000000001
 40
0.0
 40
0.0
 40
0.0
 40
0.0
 40
0.2409876955
 40
1.0
 40
1.0
 40
1.0
 40
1.0
 10
29.642846343
 20
64.0112296015
 30
0.0
 10
29.7284375729
 20
63.9797973211
 30
0.0
 10
30.0804640615
 20
63.8408636685
 30
0.0
 10
30.419448423
 20
63.6697000673
 30
0.0
 10
30.6681554445
 20
63.5261122499
 30
0.0
  0
SPLINE
  5
37D
100
AcDbEntity
  8
0
100
AcDbSpline
 62
7
  6
BYLAYER
 70
0
 71
3
 72
9
 73
5
 74
0
 42
0.0000001
 43
0.0000001
 44
0.0000000001
 40
0.0
 40
0.0
 40
0.0
 40
0.0
 40
0.242611503
 40
1.0
 40
1.0
 40
1.0
 40
1.0
 10
30.6681554445
 20
63.5261122499
 30
0.0
 10
30.7519552886
 20
63.4777314818
 30
0.0
 10
31.0935573409
 20
63.2717553567
 30
0.0
 10
31.4199167518
 20
63.0408211937
 30
0.0
 10
31.6581090597
 20
62.8550394777
 30
0.0
  0
SPLINE
  5
37E
100
AcDbEntity
  8
0
100
AcDbSpline
 62
7
  6
BYLAYER
 70
0
 71
3
 72
23
 73
19
 74
0
 42
0.0000001
 43
0.0000001
 44
0.0000000001
 40
0.0
 40
0.0
 40
0.0
 40
0.0
 40
0.0623866665
 40
0.1287469206
 40
0.1983457119
 40
0.2703345832
 40
0.3437221153
 40
0.4174660089
 40
0.4905027351
 40
0.5618010497
 40
0.6304098301
 40
0.6955082087
 40
0.7564653041
 40
0.8129112601
 40
0.8648201808
 40
0.9126031959
 40
0.9571853796
 40
1.0
 40
1.0
 40
1.0
 40
1.0
 10
63.2467460781
 20
66.8414614468
 30
0.0
 10
63.2467460781
 20
67.2925754556
 30
0.0
 10
63.1855773283
 20
68.224152675
 30
0.0
 10
62.9341465892
 20
69.6385962411
 30
0.0
 10
62.5251575115
 20
71.0879639726
 30
0.0
 10
61.967670232
 20
72.5411941704
 30
0.0
 10
61.2733324608
 20
73.9675500799
 30
0.0
 10
60.4570192397
 20
75.3365698052
 30
0.0
 10
59.5361398187
 20
76.6190715411
 30
0.0
 10
58.5303243757
 20
77.7877162855
 30
0.0
 10
57.4609175114
 20
78.8176640679
 30
0.0
 10
56.3504127958
 20
79.6870683733
 30
0.0
 10
55.2218621257
 20
80.3774866237
 30
0.0
 10
54.0982055548
 20
80.8740745726
 30
0.0
 10
53.0018033447
 20
81.1653807597
 30
0.0
 10
51.9541828479
 20
81.2425140664
 30
0.0
 10
50.978572611
 20
81.0995705278
 30
0.0
 10
50.3875948215
 20
80.8538625781
 30
0.0
 10
50.1194673006
 20
80.6990934877
 30
0.0
  0
SPLINE
  5
37F
100
AcDbEntity
  8
0
100
AcDbSpline
 62
7
  6
BYLAYER
 70
0
 71
3
 72
9
 73
5
 74
0
 42
0.0000001
 43
0.0000001
 44
0.0000000001
 40
0.0
 40
0.0
 40
0.0
 40
0.0
 40
0.2684340612
 40
1.0
 40
1.0
 40
1.0
 40
1.0
 10
61.9208476323
 20
90.3054787073
 30
0.0
 10
61.9502304543
 20
90.3224427862
 30
0.0
 10
62.0618201071
 20
90.3816416858
 30
0.0
 10
62.1832286283
 20
90.4241395023
 30
0.0
 10
62.2743995508
 20
90.4395559505
 30
0.0
  0
SPLINE
  5
380
100
AcDbEntity
  8
0
100
AcDbSpline
 62
7
  6
BYLAYER
 70
0
 71
3
 72
22
 73
18
 74
0
 42
0.0000001
 43
0.0000001
 44
0.0000000001
 40
0.0
 40
0.0
 40
0.0
 40
0.0
 40
0.0681020256
 40
0.1392243768
 40
0.2124674478
 40
0.2869399918
 40
0.4354924889
 40
0.5077554244
 40
0.5774260163
 40
0.6437331033
 40
0.7060726916
 40
0.7640632147
 40
0.8176183782
 40
0.8670290278
 40
0.9130320004
 40
0.9568315107
 40
1.0
 40
1.0
 40
1.0
 40
1.0
 10
31.7288200322
 20
62.7993587216
 30
0.0
 10
32.0004447805
 20
62.5834347237
 30
0.0
 10
32.532673747
 20
62.1123965122
 30
0.0
 10
33.2741706182
 20
61.3218426608
 30
0.0
 10
33.9645774368
 20
60.4444376321
 30
0.0
 10
34.7974613147
 20
59.1840530638
 30
0.0
 10
35.4737091562
 20
57.8308988113
 30
0.0
 10
35.963441988
 20
56.4326525363
 30
0.0
 10
36.2234647205
 20
55.4023218733
 30
0.0
 10
36.3744142656
 20
54.4014243131
 30
0.0
 10
36.4132545009
 20
53.4491289824
 30
0.0
 10
36.3388148162
 20
52.5636245655
 30
0.0
 10
36.1516595325
 20
51.7616827557
 30
0.0
 10
35.8539306828
 20
51.0587712357
 30
0.0
 10
35.4489893101
 20
50.469589746
 30
0.0
 10
34.9434527886
 20
50.0091811082
 30
0.0
 10
34.5480915632
 20
49.7976263795
 30
0.0
 10
34.3430747045
 20
49.7179614727
 30
0.0
  0
SPLINE
  5
381
100
AcDbEntity
  8
0
100
AcDbSpline
 62
7
  6
BYLAYER
 70
0
 71
3
 72
10
 73
6
 74
0
 42
0.0000001
 43
0.0000001
 44
0.0000000001
 40
0.0
 40
0.0
 40
0.0
 40
0.0
 40
0.2379986985
 40
0.4824991732
 40
1.0
 40
1.0
 40
1.0
 40
1.0
 10
34.3430747045
 20
49.7179614727
 30
0.0
 10
34.2185615776
 20
49.6695784923
 30
0.0
 10
33.9586095413
 20
49.5897355629
 30
0.0
 10
33.4031787274
 20
49.5004390617
 30
0.0
 10
32.9703054848
 20
49.5170352079
 30
0.0
 10
32.6827882826
 20
49.5582838405
 30
0.0
  0
SPLINE
  5
382
100
AcDbEntity
  8
0
100
AcDbSpline
 62
7
  6
BYLAYER
 70
0
 71
3
 72
9
 73
5
 74
0
 42
0.0000001
 43
0.0000001
 44
0.0000000001
 40
0.0
 40
0.0
 40
0.0
 40
0.0
 40
0.478018925
 40
1.0
 40
1.0
 40
1.0
 40
1.0
 10
32.4444522233
 20
49.5993462561
 30
0.0
 10
32.1452343924
 20
49.659386429
 30
0.0
 10
31.531317971
 20
49.8483243826
 30
0.0
 10
30.9567591181
 20
50.1321511101
 30
0.0
 10
30.6681554445
 20
50.2987727492
 30
0.0
  0
SPLINE
  5
383
100
AcDbEntity
  8
0
100
AcDbSpline
 62
7
  6
BYLAYER
 70
0
 71
3
 72
9
 73
5
 74
0
 42
0.0000001
 43
0.0000001
 44
0.0000000001
 40
0.0
 40
0.0
 40
0.0
 40
0.0
 40
0.255002324
 40
1.0
 40
1.0
 40
1.0
 40
1.0
 10
25.7590255659
 20
63.1536236722
 30
0.0
 10
25.7962364499
 20
63.2036415064
 30
0.0
 10
25.9478348884
 20
63.3954764347
 30
0.0
 10
26.1229423806
 20
63.5689343583
 30
0.0
 10
26.2643862914
 20
63.6836762798
 30
0.0
  0
SPLINE
  5
384
100
AcDbEntity
  8
0
100
AcDbSpline
 62
7
  6
BYLAYER
 70
0
 71
3
 72
13
 73
9
 74
0
 42
0.0000001
 43
0.0000001
 44
0.0000000001
 40
0.0
 40
0.0
 40
0.0
 40
0.0
 40
0.1153571739
 40
0.2305986901
 40
0.3473802306
 40
0.4672468118
 40
0.7210266651
 40
1.0
 40
1.0
 40
1.0
 40
1.0
 10
26.2643862914
 20
63.6836762798
 30
0.0
 10
26.3681883069
 20
63.7678823983
 30
0.0
 10
26.5882869353
 20
63.9213915574
 30
0.0
 10
26.9503215378
 20
64.1004992644
 30
0.0
 10
27.339671243
 20
64.2263364503
 30
0.0
 10
27.9012369945
 20
64.3235538953
 30
0.0
 10
28.6652692407
 20
64.2997869166
 30
0.0
 10
29.2672531183
 20
64.1440509659
 30
0.0
 10
29.5721353705
 20
64.0366668167
 30
0.0
  0
SPLINE
  5
385
100
AcDbEntity
  8
0
100
AcDbSpline
 62
7
  6
BYLAYER
 70
0
 71
3
 72
9
 73
5
 74
0
 42
0.0000001
 43
0.0000001
 44
0.0000000001
 40
0.0
 40
0.0
 40
0.0
 40
0.0
 40
0.2592460144
 40
1.0
 40
1.0
 40
1.0
 40
1.0
 10
66.68801508
 20
86.8803236501
 30
0.0
 10
66.6839733742
 20
86.8867729422
 30
0.0
 10
66.6670804407
 20
86.9107924387
 30
0.0
 10
66.6444417324
 20
86.9309034218
 30
0.0
 10
66.625627354
 20
86.9418108589
 30
0.0
  0
SPLINE
  5
386
100
AcDbEntity
  8
0
100
AcDbSpline
 62
7
  6
BYLAYER
 70
0
 71
3
 72
9
 73
5
 74
0
 42
0.0000001
 43
0.0000001
 44
0.0000000001
 40
0.0
 40
0.0
 40
0.0
 40
0.0
 40
0.2684340612
 40
1.0
 40
1.0
 40
1.0
 40
1.0
 10
66.3756389007
 20
87.7335619538
 30
0.0
 10
66.4050217227
 20
87.7505260327
 30
0.0
 10
66.5166113756
 20
87.8097249323
 30
0.0
 10
66.6380198968
 20
87.8522227488
 30
0.0
 10
66.7291908192
 20
87.867639197
 30
0.0
  0
SPLINE
  5
387
100
AcDbEntity
  8
0
100
AcDbSpline
 62
7
  6
BYLAYER
 70
0
 71
3
 72
9
 73
5
 74
0
 42
0.0000001
 43
0.0000001
 44
0.0000000001
 40
0.0
 40
0.0
 40
0.0
 40
0.0
 40
0.2500506032
 40
1.0
 40
1.0
 40
1.0
 40
1.0
 10
32.273173721
 20
67.2759848557
 30
0.0
 10
32.2217422145
 20
66.9075212579
 30
0.0
 10
32.0161702582
 20
65.4339494841
 30
0.0
 10
31.8110643617
 20
63.9603123495
 30
0.0
 10
31.6581090597
 20
62.8550394777
 30
0.0
  0
SPLINE
  5
388
100
AcDbEntity
  8
0
100
AcDbSpline
 62
7
  6
BYLAYER
 70
0
 71
3
 72
9
 73
5
 74
0
 42
0.0000001
 43
0.0000001
 44
0.0000000001
 40
0.0
 40
0.0
 40
0.0
 40
0.0
 40
0.5267827881
 40
1.0
 40
1.0
 40
1.0
 40
1.0
 10
51.8424708075
 20
90.2463463666
 30
0.0
 10
51.7700516768
 20
90.4239537162
 30
0.0
 10
51.6613255346
 20
90.7737439345
 30
0.0
 10
51.62616249
 20
91.1402779978
 30
0.0
 10
51.6345716972
 20
91.3123734959
 30
0.0
  0
SPLINE
  5
389
100
AcDbEntity
  8
0
100
AcDbSpline
 62
7
  6
BYLAYER
 70
0
 71
3
 72
14
 73
10
 74
0
 42
0.0000001
 43
0.0000001
 44
0.0000000001
 40
0.0
 40
0.0
 40
0.0
 40
0.0
 40
0.1080450757
 40
0.2181271422
 40
0.3321046797
 40
0.4514999805
 40
0.5774459847
 40
0.7107201836
 40
1.0
 40
1.0
 40
1.0
 40
1.0
 10
60.9943883336
 20
61.8630658167
 30
0.0
 10
61.1726956346
 20
61.9659887047
 30
0.0
 10
61.5154824034
 20
62.2052154408
 30
0.0
 10
61.9684721721
 20
62.6509620039
 30
0.0
 10
62.3579823285
 20
63.180089449
 30
0.0
 10
62.6805733055
 20
63.7864641258
 30
0.0
 10
62.9336327452
 20
64.4641322539
 30
0.0
 10
63.1823978519
 20
65.4810999438
 30
0.0
 10
63.2467460781
 20
66.2902382065
 30
0.0
 10
63.2467460781
 20
66.8414614468
 30
0.0
  0
SPLINE
  5
38A
100
AcDbEntity
  8
0
100
AcDbSpline
 62
7
  6
BYLAYER
 70
0
 71
3
 72
11
 73
7
 74
0
 42
0.0000001
 43
0.0000001
 44
0.0000000001
 40
0.0
 40
0.0
 40
0.0
 40
0.0
 40
0.2372264548
 40
0.4999997542
 40
0.7627731155
 40
1.0
 40
1.0
 40
1.0
 40
1.0
 10
65.3856935285
 20
87.1620201383
 30
0.0
 10
65.325463519
 20
87.1272465337
 30
0.0
 10
65.1853917316
 20
87.0765003016
 30
0.0
 10
64.9614299423
 20
87.0521870772
 30
0.0
 10
64.7374679212
 20
87.076499346
 30
0.0
 10
64.5973957605
 20
87.1272448654
 30
0.0
 10
64.5371653911
 20
87.1620180987
 30
0.0
  0
SPLINE
  5
38B
100
AcDbEntity
  8
0
100
AcDbSpline
 62
7
  6
BYLAYER
 70
0
 71
3
 72
11
 73
7
 74
0
 42
0.0000001
 43
0.0000001
 44
0.0000000001
 40
0.0
 40
0.0
 40
0.0
 40
0.0
 40
0.2177105654
 40
0.4515891134
 40
0.7111234454
 40
1.0
 40
1.0
 40
1.0
 40
1.0
 10
63.6886337209
 20
87.6519070041
 30
0.0
 10
63.6840960251
 20
87.7593005627
 30
0.0
 10
63.6360910827
 20
87.9817306553
 30
0.0
 10
63.4595918864
 20
88.2902628377
 30
0.0
 10
63.1883020476
 20
88.5696252125
 30
0.0
 10
62.9636156789
 20
88.7236721036
 30
0.0
 10
62.8400973404
 20
88.7949838363
 30
0.0
  0
SPLINE
  5
38C
100
AcDbEntity
  8
0
100
AcDbSpline
 62
7
  6
BYLAYER
 70
0
 71
3
 72
11
 73
7
 74
0
 42
0.0000001
 43
0.0000001
 44
0.0000000001
 40
0.0
 40
0.0
 40
0.0
 40
0.0
 40
0.2284605206
 40
0.4746692989
 40
0.7338355009
 40
1.0
 40
1.0
 40
1.0
 40
1.0
 10
62.8400973404
 20
88.7949838363
 30
0.0
 10
62.704278959
 20
88.8733968414
 30
0.0
 10
62.4079104254
 20
89.0123151932
 30
0.0
 10
61.925712676
 20
89.1623969064
 30
0.0
 10
61.4035069646
 20
89.2575324169
 30
0.0
 10
61.0428876029
 20
89.2822978709
 30
0.0
 10
60.8601948203
 20
89.2848700222
 30
0.0
  0
SPLINE
  5
38D
100
AcDbEntity
  8
0
100
AcDbSpline
 62
7
  6
BYLAYER
 70
0
 71
3
 72
11
 73
7
 74
0
 42
0.0000001
 43
0.0000001
 44
0.0000000001
 40
0.0
 40
0.0
 40
0.0
 40
0.0
 40
0.2372446848
 40
0.5000016179
 40
0.7627576706
 40
1.0
 40
1.0
 40
1.0
 40
1.0
 10
47.0963587781
 20
94.6186314054
 30
0.0
 10
47.0963587781
 20
94.6765920152
 30
0.0
 10
47.1181040296
 20
94.7988240821
 30
0.0
 10
47.1938727997
 20
94.9705808878
 30
0.0
 10
47.3047330388
 20
95.1220770826
 30
0.0
 10
47.3997157597
 20
95.2020248035
 30
0.0
 10
47.4499106967
 20
95.2310046909
 30
0.0
  0
SPLINE
  5
38E
100
AcDbEntity
  8
0
100
AcDbSpline
 62
7
  6
BYLAYER
 70
0
 71
3
 72
11
 73
7
 74
0
 42
0.0000001
 43
0.0000001
 44
0.0000000001
 40
0.0
 40
0.0
 40
0.0
 40
0.0
 40
0.2894501143
 40
0.5489668705
 40
0.7820601069
 40
1.0
 40
1.0
 40
1.0
 40
1.0
 10
48.4959608257
 20
95.8349384094
 30
0.0
 10
48.5397999636
 20
95.8602487964
 30
0.0
 10
48.6270934974
 20
95.9016998437
 30
0.0
 10
48.7611864964
 20
95.9342049799
 30
0.0
 10
48.8871407694
 20
95.9310864853
 30
0.0
 10
48.9629061783
 20
95.9034587984
 30
0.0
 10
48.9959152775
 20
95.8844026197
 30
0.0
  0
SPLINE
  5
38F
100
AcDbEntity
  8
0
100
AcDbSpline
 62
7
  6
BYLAYER
 70
0
 71
3
 72
14
 73
10
 74
0
 42
0.0000001
 43
0.0000001
 44
0.0000000001
 40
0.0
 40
0.0
 40
0.0
 40
0.0
 40
0.2915501675
 40
0.4245634275
 40
0.5495485118
 40
0.6676724918
 40
0.7806062254
 40
0.8905414591
 40
1.0
 40
1.0
 40
1.0
 40
1.0
 10
30.6681554445
 20
63.4010751
 30
0.0
 10
30.2822049886
 20
63.6238986586
 30
0.0
 10
29.6878969819
 20
63.900873047
 30
0.0
 10
28.872643472
 20
64.1112218973
 30
0.0
 10
28.2995591791
 20
64.1782664007
 30
0.0
 10
27.7533286429
 20
64.1579716537
 30
0.0
 10
27.2406182452
 20
64.0496017064
 30
0.0
 10
26.7686565422
 20
63.8540234041
 30
0.0
 10
26.4869537759
 20
63.6677174765
 30
0.0
 10
26.3565726662
 20
63.5628601007
 30
0.0
  0
SPLINE
  5
390
100
AcDbEntity
  8
0
100
AcDbSpline
 62
7
  6
BYLAYER
 70
0
 71
3
 72
11
 73
7
 74
0
 42
0.0000001
 43
0.0000001
 44
0.0000000001
 40
0.0
 40
0.0
 40
0.0
 40
0.0
 40
0.2850099101
 40
0.542683922
 40
0.7777421808
 40
1.0
 40
1.0
 40
1.0
 40
1.0
 10
60.7457940079
 20
52.6084951788
 30
0.0
 10
60.733918507
 20
52.4421994324
 30
0.0
 10
60.6864264772
 20
52.1263092842
 30
0.0
 10
60.5292002434
 20
51.6954472447
 30
0.0
 10
60.2914882445
 20
51.3453938328
 30
0.0
 10
60.0797477134
 20
51.1740252041
 30
0.0
 10
59.9671376537
 20
51.1090479448
 30
0.0
  0
SPLINE
  5
391
100
AcDbEntity
  8
0
100
AcDbSpline
 62
7
  6
BYLAYER
 70
0
 71
3
 72
17
 73
13
 74
0
 42
0.0000001
 43
0.0000001
 44
0.0000000001
 40
0.0
 40
0.0
 40
0.0
 40
0.0
 40
0.0428576877
 40
0.0874849505
 40
0.1353173333
 40
0.1872806034
 40
0.3045412648
 40
0.4382087218
 40
0.5825511809
 40
0.7297102049
 40
0.8713097134
 40
1.0
 40
1.0
 40
1.0
 40
1.0
 10
17.5683713022
 20
48.2019939679
 30
0.0
 10
17.6176645555
 20
48.173508728
 30
0.0
 10
17.726360998
 20
48.1283559094
 30
0.0
 10
17.9057612046
 20
48.1020452165
 30
0.0
 10
18.0984288446
 20
48.1162447306
 30
0.0
 10
18.3783764525
 20
48.1906873729
 30
0.0
 10
18.736246299
 20
48.3863760491
 30
0.0
 10
19.1316331135
 20
48.7365343483
 30
0.0
 10
19.4811389938
 20
49.1838916449
 30
0.0
 10
19.756214267
 20
49.6923108919
 30
0.0
 10
19.9347153969
 20
50.220100706
 30
0.0
 10
19.9825440707
 20
50.5795607151
 30
0.0
 10
19.9825440707
 20
50.7505119354
 30
0.0
  0
SPLINE
  5
392
100
AcDbEntity
  8
0
100
AcDbSpline
 62
7
  6
BYLAYER
 70
0
 71
3
 72
9
 73
5
 74
0
 42
0.0000001
 43
0.0000001
 44
0.0000000001
 40
0.0
 40
0.0
 40
0.0
 40
0.0
 40
0.2500622952
 40
1.0
 40
1.0
 40
1.0
 40
1.0
 10
30.1897340278
 20
68.4845200607
 30
0.0
 10
30.1380494961
 20
68.1138017944
 30
0.0
 10
29.9315018575
 20
66.6312788326
 30
0.0
 10
29.7255296008
 20
65.1486751829
 30
0.0
 10
29.5721353705
 20
64.0366668167
 30
0.0
  0
SPLINE
  5
393
100
AcDbEntity
  8
0
100
AcDbSpline
 62
7
  6
BYLAYER
 70
0
 71
3
 72
11
 73
7
 74
0
 42
0.0000001
 43
0.0000001
 44
0.0000000001
 40
0.0
 40
0.0
 40
0.0
 40
0.0
 40
0.2216096708
 40
0.4603567558
 40
0.7196264579
 40
1.0
 40
1.0
 40
1.0
 40
1.0
 10
59.9409180091
 20
59.8497292212
 30
0.0
 10
60.0515723266
 20
59.8677125967
 30
0.0
 10
60.28632633
 20
59.8781989041
 30
0.0
 10
60.6479169036
 20
59.8219622936
 30
0.0
 10
61.0228636864
 20
59.6967127581
 30
0.0
 10
61.2677501081
 20
59.5740303768
 30
0.0
 10
61.390581872
 20
59.5031150292
 30
0.0
  0
SPLINE
  5
394
100
AcDbEntity
  8
0
100
AcDbSpline
 62
7
  6
BYLAYER
 70
0
 71
3
 72
10
 73
6
 74
0
 42
0.0000001
 43
0.0000001
 44
0.0000000001
 40
0.0
 40
0.0
 40
0.0
 40
0.0
 40
0.2283563756
 40
0.475334865
 40
1.0
 40
1.0
 40
1.0
 40
1.0
 10
69.4557289948
 20
83.4239018763
 30
0.0
 10
69.5306716761
 20
83.3805899691
 30
0.0
 10
69.678440781
 20
83.2758009307
 30
0.0
 10
69.9534907699
 20
83.0138951823
 30
0.0
 10
70.125456288
 20
82.7726077931
 30
0.0
 10
70.2221138371
 20
82.5988030786
 30
0.0
  0
SPLINE
  5
395
100
AcDbEntity
  8
0
100
AcDbSpline
 62
7
  6
BYLAYER
 70
0
 71
3
 72
9
 73
5
 74
0
 42
0.0000001
 43
0.0000001
 44
0.0000000001
 40
0.0
 40
0.0
 40
0.0
 40
0.0
 40
0.5211329815
 40
1.0
 40
1.0
 40
1.0
 40
1.0
 10
70.4013127097
 20
82.1990367621
 30
0.0
 10
70.436502263
 20
82.097005546
 30
0.0
 10
70.4907197588
 20
81.8962905705
 30
0.0
 10
70.5122637083
 20
81.6890034156
 30
0.0
 10
70.512262001
 20
81.589827868
 30
0.0
  0
SPLINE
  5
396
100
AcDbEntity
  8
0
100
AcDbSpline
 62
7
  6
BYLAYER
 70
0
 71
3
 72
11
 73
7
 74
0
 42
0.0000001
 43
0.0000001
 44
0.0000000001
 40
0.0
 40
0.0
 40
0.0
 40
0.0
 40
0.2372446848
 40
0.5000016179
 40
0.7627576706
 40
1.0
 40
1.0
 40
1.0
 40
1.0
 10
66.0681127038
 20
83.6655319616
 30
0.0
 10
66.0681127038
 20
83.7234925714
 30
0.0
 10
66.0898579553
 20
83.8457246383
 30
0.0
 10
66.1656267253
 20
84.017481444
 30
0.0
 10
66.2764869645
 20
84.1689776388
 30
0.0
 10
66.3714696854
 20
84.2489253597
 30
0.0
 10
66.4216646224
 20
84.2779052471
 30
0.0
  0
SPLINE
  5
397
100
AcDbEntity
  8
0
100
AcDbSpline
 62
7
  6
BYLAYER
 70
0
 71
3
 72
11
 73
7
 74
0
 42
0.0000001
 43
0.0000001
 44
0.0000000001
 40
0.0
 40
0.0
 40
0.0
 40
0.0
 40
0.2894501143
 40
0.5489668705
 40
0.7820601069
 40
1.0
 40
1.0
 40
1.0
 40
1.0
 10
67.4677147514
 20
84.8818389657
 30
0.0
 10
67.5115538893
 20
84.9071493527
 30
0.0
 10
67.5988474231
 20
84.9486003999
 30
0.0
 10
67.7329404221
 20
84.9811055361
 30
0.0
 10
67.8588946951
 20
84.9779870416
 30
0.0
 10
67.934660104
 20
84.9503593546
 30
0.0
 10
67.9676692032
 20
84.931303176
 30
0.0
  0
SPLINE
  5
398
100
AcDbEntity
  8
0
100
AcDbSpline
 62
7
  6
BYLAYER
 70
0
 71
3
 72
11
 73
7
 74
0
 42
0.0000001
 43
0.0000001
 44
0.0000000001
 40
0.0
 40
0.0
 40
0.0
 40
0.0
 40
0.2895391946
 40
0.5491157945
 40
0.7822541179
 40
1.0
 40
1.0
 40
1.0
 40
1.0
 10
63.5932286658
 20
58.2314450789
 30
0.0
 10
63.6370819236
 20
58.2061269614
 30
0.0
 10
63.7243929818
 20
58.1646469025
 30
0.0
 10
63.8585371673
 20
58.1321778352
 30
0.0
 10
63.9844685785
 20
58.13534129
 30
0.0
 10
64.0602190656
 20
58.1629286975
 30
0.0
 10
64.0931984506
 20
58.1819692564
 30
0.0
  0
SPLINE
  5
399
100
AcDbEntity
  8
0
100
AcDbSpline
 62
7
  6
BYLAYER
 70
0
 71
3
 72
10
 73
6
 74
0
 42
0.0000001
 43
0.0000001
 44
0.0000000001
 40
0.0
 40
0.0
 40
0.0
 40
0.0
 40
0.2339992697
 40
0.4839095489
 40
1.0
 40
1.0
 40
1.0
 40
1.0
 10
62.7092892984
 20
55.2917362013
 30
0.0
 10
62.7836893042
 20
55.3448846803
 30
0.0
 10
62.9281297873
 20
55.4683869418
 30
0.0
 10
63.186885474
 20
55.7621236569
 30
0.0
 10
63.340490747
 20
56.0240003939
 30
0.0
 10
63.4199210011
 20
56.2093573179
 30
0.0
  0
SPLINE
  5
39A
100
AcDbEntity
  8
0
100
AcDbSpline
 62
7
  6
BYLAYER
 70
0
 71
3
 72
28
 73
24
 74
0
 42
0.0000001
 43
0.0000001
 44
0.0000000001
 40
0.0
 40
0.0
 40
0.0
 40
0.0
 40
0.0665267524
 40
0.1382799688
 40
0.2138059665
 40
0.2913270768
 40
0.368911635
 40
0.4446193927
 40
0.5166578916
 40
0.5835488567
 40
0.6443229015
 40
0.6723517172
 40
0.6988537234
 40
0.7477901474
 40
0.7708713429
 40
0.7934582925
 40
0.8159641417
 40
0.8388110548
 40
0.8623912922
 40
0.8870315914
 40
0.9129829988
 40
0.9404230561
 40
1.0
 40
1.0
 40
1.0
 40
1.0
 10
30.4206691015
 20
62.934150295
 30
0.0
 10
30.783163732
 20
62.7248686571
 30
0.0
 10
31.4993106525
 20
62.2236086082
 30
0.0
 10
32.485657103
 20
61.3037869029
 30
0.0
 10
33.395828924
 20
60.2167431937
 30
0.0
 10
34.196080541
 20
59.0026591208
 30
0.0
 10
34.8570744745
 20
57.7061579622
 30
0.0
 10
35.3544129589
 20
56.3750709612
 30
0.0
 10
35.6698052831
 20
55.0580044499
 30
0.0
 10
35.7914789738
 20
53.8030243012
 30
0.0
 10
35.7251994864
 20
52.8195014127
 30
0.0
 10
35.5635959863
 20
52.1106851984
 30
0.0
 10
35.3473733619
 20
51.4957802301
 30
0.0
 10
35.0308668422
 20
50.9511688362
 30
0.0
 10
34.6170218783
 20
50.5201296194
 30
0.0
 10
34.2715575484
 20
50.2624050104
 30
0.0
 10
33.8887406783
 20
50.0676605914
 30
0.0
 10
33.4729268957
 20
49.9376407135
 30
0.0
 10
33.0285920364
 20
49.8737095317
 30
0.0
 10
32.5604029418
 20
49.8757307227
 30
0.0
 10
32.0727764554
 20
49.943485033
 30
0.0
 10
31.3842438348
 20
50.1249066062
 30
0.0
 10
30.8804641211
 20
50.3507463418
 30
0.0
 10
30.5518574846
 20
50.5310948636
 30
0.0
  0
SPLINE
  5
39B
100
AcDbEntity
  8
0
100
AcDbSpline
 62
7
  6
BYLAYER
 70
0
 71
3
 72
12
 73
8
 74
0
 42
0.0000001
 43
0.0000001
 44
0.0000000001
 40
0.0
 40
0.0
 40
0.0
 40
0.0
 40
0.289556229
 40
0.5486533222
 40
0.7816321932
 40
0.8918390364
 40
1.0
 40
1.0
 40
1.0
 40
1.0
 10
66.0681127038
 20
57.8640555803
 30
0.0
 10
66.0681127038
 20
57.6714668132
 30
0.0
 10
66.0388945245
 20
57.3052517003
 30
0.0
 10
65.890885864
 20
56.8023543942
 30
0.0
 10
65.6780025826
 20
56.4554466868
 30
0.0
 10
65.463184764
 20
56.2440391941
 30
0.0
 10
65.3433749706
 20
56.1604628807
 30
0.0
 10
65.2810732757
 20
56.1244931929
 30
0.0
  0
SPLINE
  5
39C
100
AcDbEntity
  8
0
100
AcDbSpline
 62
7
  6
BYLAYER
 70
0
 71
3
 72
9
 73
5
 74
0
 42
0.0000001
 43
0.0000001
 44
0.0000000001
 40
0.0
 40
0.0
 40
0.0
 40
0.0
 40
0.4816207204
 40
1.0
 40
1.0
 40
1.0
 40
1.0
 10
30.4206691015
 20
50.6049637964
 30
0.0
 10
30.0732892458
 20
50.8055191124
 30
0.0
 10
29.3863537948
 20
51.2826822607
 30
0.0
 10
28.7709029306
 20
51.8473069957
 30
0.0
 10
28.4702466802
 20
52.1571426692
 30
0.0
  0
SPLINE
  5
39D
100
AcDbEntity
  8
0
100
AcDbSpline
 62
7
  6
BYLAYER
 70
0
 71
3
 72
15
 73
11
 74
0
 42
0.0000001
 43
0.0000001
 44
0.0000000001
 40
0.0
 40
0.0
 40
0.0
 40
0.0
 40
0.1108438957
 40
0.2209755693
 40
0.3333242421
 40
0.4505424727
 40
0.5746989589
 40
0.7072480343
 40
0.8490256622
 40
1.0
 40
1.0
 40
1.0
 40
1.0
 10
26.1426447068
 20
62.927204802
 30
0.0
 10
26.2646949085
 20
63.0454983267
 30
0.0
 10
26.5314910723
 20
63.2586524916
 30
0.0
 10
26.9900865361
 20
63.4918853176
 30
0.0
 10
27.4952372057
 20
63.6320143332
 30
0.0
 10
28.0386144529
 20
63.6772966192
 30
0.0
 10
28.6122984427
 20
63.6285621263
 30
0.0
 10
29.208767908
 20
63.4871652958
 30
0.0
 10
29.8200613254
 20
63.2555947708
 30
0.0
 10
30.2201779188
 20
63.0499013147
 30
0.0
 10
30.4206691015
 20
62.934150295
 30
0.0
  0
ELLIPSE
  5
39E
100
AcDbEntity
  8
0
100
AcDbEllipse
 62
7
  6
BYLAYER
 10
62.9108012474
 20
88.5091880252
 30
0.0
 11
2.6458313952
 21
-0.3866133795
 31
0.0
 40
0.4542195071
 41
1.3671376554
 42
1.6370704512
  0
ELLIPSE
  5
39F
100
AcDbEntity
  8
0
100
AcDbEllipse
 62
7
  6
BYLAYER
 10
64.4664426427
 20
87.6110583652
 30
0.0
 11
-0.4254861593
 21
1.9593300381
 31
0.0
 40
0.1615759128
 41
-0.9311177935
 42
-0.6611849977
  0
ENDSEC
  0
SECTION
  2
OBJECTS
  0
DICTIONARY
  5
C
100
AcDbDictionary
280
0
281
1
  3
ACAD_GROUP
350
D
  3
ACAD_MLINESTYLE
350
17
  3
ACAD_LAYOUT
350
1A
  3
ACAD_PLOTSETTINGS
350
19
  3
ACAD_PLOTSTYLENAME
350
E
  0
DICTIONARY
  5
D
102
{ACAD_REACTORS
330
C
102
}
100
AcDbDictionary
280
0
281
1
  0
ACDBDICTIONARYWDFLT
  5
E
102
{ACAD_REACTORS
330
C
102
}
100
AcDbDictionary
281
1
  3
Normal
350
F
100
AcDbDictionaryWithDefault
340
F
  0
DICTIONARY
  5
17
102
{ACAD_REACTORS
330
C
102
}
100
AcDbDictionary
280
0
281
1
  3
Standard
350
18
  0
DICTIONARY
  5
19
102
{ACAD_REACTORS
330
C
102
}
100
AcDbDictionary
281
1
  0
DICTIONARY
  5
1A
102
{ACAD_REACTORS
330
C
102
}
100
AcDbDictionary
281
1
  3
Model
350
3A0
  3
Layout1
350
3A1
  0
ACDBPLACEHOLDER
  5
F
102
{ACAD_REACTORS
330
E
102
}
  0
MLINESTYLE
  5
18
102
{ACAD_REACTORS
330
17
102
}
100
AcDbMlineStyle
  2
STANDARD
 70
0
  3

 62
256
 51
90.0
 52
90.0
 71
2
 49
0.5
 62
256
  6
BYLAYER
 49
-0.5
 62
256
  6
BYLAYER
  0
LAYOUT
  5
3A0
102
{ACAD_REACTORS
330
1A
102
}
100
AcDbPlotSettings
  1

  2
none_device
  4

  6

 40
0.0
 41
0.0
 42
0.0
 43
0.0
 44
210.0
 45
297.0
 46
0.0
 47
0.0
 48
0.0
 49
0.0
140
0.0
141
0.0
142
1.0
143
1.0
 70
1024
 72
1
 73
0
 74
0
  7

 75
0
147
1.0
148
0.0
149
0.0
100
AcDbLayout
  1
Model
 70
0
 71
0
 10
0.0
 20
0.0
 11
210.0
 21
297.0
 12
0.0
 22
0.0
 32
0.0
 14
0.0
 24
0.0
 34
0.0
 15
0.0
 25
0.0
 35
0.0
146
0.0
 13
0.0
 23
0.0
 33
0.0
 16
1.0
 26
0.0
 36
0.0
 17
0.0
 27
1.0
 37
0.0
 76
0
330
210
345
0
346
0
  0
LAYOUT
  5
3A1
102
{ACAD_REACTORS
330
1A
102
}
100
AcDbPlotSettings
  1

  2
none_device
  4

  6

 40
0.0
 41
0.0
 42
0.0
 43
0.0
 44
210.0
 45
297.0
 46
0.0
 47
0.0
 48
0.0
 49
0.0
140
0.0
141
0.0
142
1.0
143
1.0
 70
0
 72
1
 73
0
 74
0
  7

 75
0
147
1.0
148
0.0
149
0.0
100
AcDbLayout
  1
Layout1
 70
0
 71
1
 10
0.0
 20
0.0
 11
210.0
 21
297.0
 12
0.0
 22
0.0
 32
0.0
 14
0.0
 24
0.0
 34
0.0
 15
0.0
 25
0.0
 35
0.0
146
0.0
 13
0.0
 23
0.0
 33
0.0
 16
1.0
 26
0.0
 36
0.0
 17
0.0
 27
1.0
 37
0.0
 76
0
330
211
345
0
346
0
  0
ENDSEC
  0
EOF
