999
DXF file: C:\Users\sesa63760\OneDrive - Schneider Electric\Documents\7-Dev\_Creo\CAD\MCADPP0000101_3D-CAD\drw0001_6.dxf
999
Pro/ENGINEER 2019471 by Parametric Technology Corporation
  0
SECTION
  2
HEADER
  9
$ACADVER
  1
AC1024
  9
$DWGCODEPAGE
  3
ANSI_1252
  9
$EXTMAX
 10
746.6507001883
 20
1055.9774188377
 30
0.0
  9
$EXTMIN
 10
0.0
 20
0.0
 30
0.0
  9
$LIMMIN
 10
0.0
 20
0.0
  9
$LIMMAX
 10
746.6507001883
 20
1055.9774188377
  9
$VIEWCTR
 10
373.3253500941
 20
527.9887094189
  9
$VIEWSIZE
 40
1055.9774188377
  9
$CLAYER
  8
0
  9
$LTSCALE
 40
68.8340835983
  9
$CELTYPE
  6
BYLAYER
  9
$DIMSCALE
 40
1.0
  9
$DIMASZ
 40
8.8886988118
  9
$DIMEXO
 40
1.0
  9
$DIMDLI
 40
47.5580941225
  9
$DIMEXE
 40
1.0
  9
$DIMCEN
 40
11.2637591343
  9
$DIMLFAC
 40
1.0
  9
$DIMBLK
  1
_FILLED
  9
$DIMALT
 70
0
  9
$DIMALTF
 40
0.0393700787
  9
$DIMTXT
 40
12.4441783365
  9
$DIMTOL
 70
1
  9
$DIMLIM
 70
0
  9
$DIMTFAC
 40
1.0
  9
$DIMTP
 40
0.01
  9
$DIMTM
 40
0.01
  9
$DIMGAP
 40
0.625
  9
$DIMDSEP
 70
46
  9
$AUNITS
 70
0
  9
$PDMODE
 70
3
  9
$PDSIZE
 40
0.3125
  9
$HANDSEED
  5
287
  9
$TILEMODE
 70
1
  9
$MEASUREMENT
 70
1
  9
$INSUNITS
 70
4
  0
ENDSEC
  0
SECTION
  2
CLASSES
  0
CLASS
  1
ACDBDICTIONARYWDFLT
  2
AcDbDictionaryWithDefault
  3
AutoCAD 2000
 90
0
 91
1
280
0
281
0
  0
CLASS
  1
ACDBPLACEHOLDER
  2
AcDbPlaceHolder
  3
AutoCAD 2000
 90
0
 91
1
280
0
281
0
  0
CLASS
  1
LAYOUT
  2
AcDbLayout
  3
AutoCAD 2000
 90
0
 91
0
280
0
281
0
  0
ENDSEC
  0
SECTION
  2
TABLES
  0
TABLE
  2
VPORT
  5
8
100
AcDbSymbolTable
 70
2
  0
VPORT
  5
1F4
100
AcDbSymbolTableRecord
100
AcDbViewportTableRecord
  2
*ACTIVE
 70
0
 10
0.0
 20
0.0
 11
1.0
 21
1.0
 12
373.3253500941
 22
527.9887094189
 13
0.0
 23
0.0
 14
1.0
 24
1.0
 15
0.0
 25
0.0
 16
0.0
 26
0.0
 36
1.0
 17
0.0
 27
0.0
 37
0.0
 40
1055.9774188377
 41
0.7070707071
 42
50.0
 43
0.0
 44
0.0
 50
0.0
 51
0.0
 71
0
 72
100
 73
1
 74
1
 75
0
 76
0
 77
0
 78
0
  0
ENDTAB
  0
TABLE
  2
LTYPE
  5
5
100
AcDbSymbolTable
 70
6
  0
LTYPE
  5
14
100
AcDbSymbolTableRecord
100
AcDbLinetypeTableRecord
  2
BYBLOCK
 70
0
  3

 72
65
 73
0
 40
0.0
  0
LTYPE
  5
15
100
AcDbSymbolTableRecord
100
AcDbLinetypeTableRecord
  2
BYLAYER
 70
0
  3

 72
65
 73
0
 40
0.0
  0
LTYPE
  5
16
100
AcDbSymbolTableRecord
100
AcDbLinetypeTableRecord
  2
CONTINUOUS
 70
64
  3
Solid line
 72
65
 73
0
 40
0.0
  0
LTYPE
  5
1F5
100
AcDbSymbolTableRecord
100
AcDbLinetypeTableRecord
  2
CENTER
 70
64
  3
____ _ ____ _ ____ _ ____ _ ____ _ ____ _ ____
 72
65
 73
4
 40
0.6
 49
0.375
 74
0
 49
-0.075
 74
0
 49
0.075
 74
0
 49
-0.075
 74
0
  0
LTYPE
  5
1F6
100
AcDbSymbolTableRecord
100
AcDbLinetypeTableRecord
  2
HIDDEN
 70
64
  3
- - - - - - - - - - - - - - - - - - - -
 72
65
 73
2
 40
0.2
 49
0.1
 74
0
 49
-0.1
 74
0
  0
LTYPE
  5
1F7
100
AcDbSymbolTableRecord
100
AcDbLinetypeTableRecord
  2
PHANTOM
 70
64
  3
_____ _ _ _____ _ _ _____ _ _ _____
 72
65
 73
6
 40
0.8
 49
0.45
 74
0
 49
-0.05
 74
0
 49
0.1
 74
0
 49
-0.05
 74
0
 49
0.1
 74
0
 49
-0.05
 74
0
  0
LTYPE
  5
1F8
100
AcDbSymbolTableRecord
100
AcDbLinetypeTableRecord
  2
DOT
 70
64
  3
. . . . . . . . . . . . . . . . . . . .
 72
65
 73
2
 40
0.2
 49
0.1
 74
0
 49
-0.1
 74
0
  0
LTYPE
  5
1F9
100
AcDbSymbolTableRecord
100
AcDbLinetypeTableRecord
  2
DASHED
 70
64
  3
- - - - - - - - - - - - - - - - - - - -
 72
65
 73
2
 40
0.2
 49
0.1
 74
0
 49
-0.1
 74
0
  0
ENDTAB
  0
TABLE
  2
LAYER
  5
2
100
AcDbSymbolTable
 70
36
  0
LAYER
  5
10
100
AcDbSymbolTableRecord
100
AcDbLayerTableRecord
  2
0
 70
0
 62
7
  6
CONTINUOUS
370
-3
390
F
  0
LAYER
  5
1FA
100
AcDbSymbolTableRecord
100
AcDbLayerTableRecord
  2
DEFAULT_1
 70
0
 62
7
  6
CENTER
370
-3
390
F
  0
LAYER
  5
1FB
100
AcDbSymbolTableRecord
100
AcDbLayerTableRecord
  2
DEFAULT_2
 70
0
 62
8
  6
HIDDEN
370
-3
390
F
  0
LAYER
  5
1FC
100
AcDbSymbolTableRecord
100
AcDbLayerTableRecord
  2
DEFAULT_3
 70
0
 62
7
  6
PHANTOM
370
-3
390
F
  0
LAYER
  5
1FD
100
AcDbSymbolTableRecord
100
AcDbLayerTableRecord
  2
00_COMPONENTS
 70
0
 62
7
  6
CONTINUOUS
370
-3
390
F
  0
LAYER
  5
1FE
100
AcDbSymbolTableRecord
100
AcDbLayerTableRecord
  2
01_1_DEFAULT_DATUMS
 70
0
 62
7
  6
CONTINUOUS
370
-3
390
F
  0
LAYER
  5
1FF
100
AcDbSymbolTableRecord
100
AcDbLayerTableRecord
  2
01_PLANES
 70
0
 62
7
  6
CONTINUOUS
370
-3
390
F
  0
LAYER
  5
200
100
AcDbSymbolTableRecord
100
AcDbLayerTableRecord
  2
02_COORD_SYS
 70
0
 62
7
  6
CONTINUOUS
370
-3
390
F
  0
LAYER
  5
201
100
AcDbSymbolTableRecord
100
AcDbLayerTableRecord
  2
03_AXES
 70
0
 62
7
  6
CONTINUOUS
370
-3
390
F
  0
LAYER
  5
202
100
AcDbSymbolTableRecord
100
AcDbLayerTableRecord
  2
04_POINTS
 70
0
 62
7
  6
CONTINUOUS
370
-3
390
F
  0
LAYER
  5
203
100
AcDbSymbolTableRecord
100
AcDbLayerTableRecord
  2
05_CURVES
 70
0
 62
7
  6
CONTINUOUS
370
-3
390
F
  0
LAYER
  5
204
100
AcDbSymbolTableRecord
100
AcDbLayerTableRecord
  2
06_SURFS
 70
0
 62
7
  6
CONTINUOUS
370
-3
390
F
  0
LAYER
  5
205
100
AcDbSymbolTableRecord
100
AcDbLayerTableRecord
  2
07_COSMETICS
 70
0
 62
7
  6
CONTINUOUS
370
-3
390
F
  0
LAYER
  5
206
100
AcDbSymbolTableRecord
100
AcDbLayerTableRecord
  2
10_NOTES
 70
0
 62
7
  6
CONTINUOUS
370
-3
390
F
  0
LAYER
  5
207
100
AcDbSymbolTableRecord
100
AcDbLayerTableRecord
  2
11_NOTES_PUB
 70
0
 62
7
  6
CONTINUOUS
370
-3
390
F
  0
LAYER
  5
208
100
AcDbSymbolTableRecord
100
AcDbLayerTableRecord
  2
13_REF_GTOL
 70
0
 62
7
  6
CONTINUOUS
370
-3
390
F
  0
LAYER
  5
209
100
AcDbSymbolTableRecord
100
AcDbLayerTableRecord
  2
16_MISC
 70
0
 62
7
  6
CONTINUOUS
370
-3
390
F
  0
LAYER
  5
20A
100
AcDbSymbolTableRecord
100
AcDbLayerTableRecord
  2
17_NO_PRINT
 70
0
 62
7
  6
CONTINUOUS
370
-3
390
F
  0
LAYER
  5
20B
100
AcDbSymbolTableRecord
100
AcDbLayerTableRecord
  2
18_DATUM_CAMS_JOINTS
 70
0
 62
7
  6
CONTINUOUS
370
-3
390
F
  0
LAYER
  5
20C
100
AcDbSymbolTableRecord
100
AcDbLayerTableRecord
  2
19_DATUM_FUNCTIONAL
 70
0
 62
7
  6
CONTINUOUS
370
-3
390
F
  0
LAYER
  5
20D
100
AcDbSymbolTableRecord
100
AcDbLayerTableRecord
  2
20_DATUM_KINEMATIC_SCHEME
 70
0
 62
7
  6
CONTINUOUS
370
-3
390
F
  0
ENDTAB
  0
TABLE
  2
STYLE
  5
3
100
AcDbSymbolTable
 70
1
  0
STYLE
  5
11
100
AcDbSymbolTableRecord
100
AcDbTextStyleTableRecord
  2
STANDARD
 70
0
 40
0.0
 41
0.8
 50
0.0
 71
0
 42
0.2
  3
txt
  4

  0
STYLE
  5
20E
100
AcDbSymbolTableRecord
100
AcDbTextStyleTableRecord
  2
TEXTSTYLE_1
 70
0
 40
0.0
 41
0.8
 50
0.0
 71
0
 42
0.2
  3
gdt
  4

  0
ENDTAB
  0
TABLE
  2
VIEW
  5
6
100
AcDbSymbolTable
 70
0
  0
ENDTAB
  0
TABLE
  2
UCS
  5
7
100
AcDbSymbolTable
 70
0
  0
ENDTAB
  0
TABLE
  2
APPID
  5
9
100
AcDbSymbolTable
 70
1
  0
APPID
  5
20F
100
AcDbSymbolTableRecord
100
AcDbRegAppTableRecord
  2
ACAD
 70
0
  0
ENDTAB
  0
TABLE
  2
BLOCK_RECORD
  5
1
100
AcDbSymbolTable
 70
0
  0
BLOCK_RECORD
  5
210
100
AcDbSymbolTableRecord
100
AcDbBlockTableRecord
  2
*Model_Space
  0
BLOCK_RECORD
  5
211
100
AcDbSymbolTableRecord
100
AcDbBlockTableRecord
  2
*Paper_Space
  0
BLOCK_RECORD
  5
212
100
AcDbSymbolTableRecord
100
AcDbBlockTableRecord
  2
_FILLED
  0
ENDTAB
  0
TABLE
  2
DIMSTYLE
  5
A
100
AcDbSymbolTable
 70
1
100
AcDbDimStyleTable
 71
0
  0
DIMSTYLE
105
213
100
AcDbSymbolTableRecord
100
AcDbDimStyleTableRecord
  2
STANDARD
 70
0
  3

  4

 40
1.0
 41
8.8886988118
 42
1.0
 43
0.38
 44
1.0
 45
0.0
 46
0.0
 47
0.01
 48
0.01
140
12.4441783365
141
0.09
142
0.0
143
25.4
144
1.0
145
0.0
146
1.0
147
0.625
 71
1
 72
0
 73
0
 74
0
 75
0
 76
0
 77
1
 78
8
 79
2
170
0
171
1
172
0
173
0
174
0
175
0
176
0
177
0
178
0
270
2
179
2
271
2
272
2
273
2
274
2
275
0
280
0
281
0
282
0
283
1
284
8
285
0
286
0
287
3
288
0
340
11
278
46
341
212
342
212
343
212
344
212
  0
ENDTAB
  0
ENDSEC
  0
SECTION
  2
BLOCKS
  0
BLOCK
  5
20
100
AcDbEntity
  8
0
100
AcDbBlockBegin
  2
*Model_Space
 70
0
 10
0.0
 20
0.0
 30
0.0
  3
*Model_Space
  1

  0
ENDBLK
  5
21
100
AcDbEntity
  8
0
100
AcDbBlockEnd
  0
BLOCK
  5
1C
100
AcDbEntity
  8
0
100
AcDbBlockBegin
  2
*Paper_Space
 70
0
 10
0.0
 20
0.0
 30
0.0
  3
*Paper_Space
  1

  0
ENDBLK
  5
1D
100
AcDbEntity
  8
0
100
AcDbBlockEnd
  0
BLOCK
  5
214
100
AcDbEntity
  8
0
100
AcDbBlockBegin
  2
_FILLED
 70
64
 10
0.0
 20
0.0
  3
_FILLED
  1

  0
SOLID
  5
215
100
AcDbEntity
  8
0
  6
BYBLOCK
 62
0
100
AcDbTrace
 10
0.0
 20
0.0
 11
-1.0
 21
0.25
 12
-1.0
 22
-0.25
 13
-1.0
 23
-0.25
  0
ENDBLK
  5
216
100
AcDbEntity
  8
0
  6
BYBLOCK
 62
0
100
AcDbBlockEnd
  0
ENDSEC
  0
SECTION
  2
ENTITIES
  0
LINE
  5
217
100
AcDbEntity
  8
0
100
AcDbLine
 62
7
  6
CONTINUOUS
 10
84.450254488
 20
546.280030979
 11
84.450254488
 21
494.9926587498
  0
LINE
  5
218
100
AcDbEntity
  8
0
100
AcDbLine
 62
7
  6
CONTINUOUS
 10
84.6723001319
 20
544.5241584099
 11
84.6723001319
 21
542.3106054793
  0
LINE
  5
219
100
AcDbEntity
  8
0
100
AcDbLine
 62
7
  6
CONTINUOUS
 10
86.1268092556
 20
542.340518537
 11
86.1268092556
 21
539.9386922233
  0
LINE
  5
21A
100
AcDbEntity
  8
0
100
AcDbLine
 62
7
  6
CONTINUOUS
 10
86.9114933783
 20
495.0268588918
 11
86.9114933783
 21
535.6028241301
  0
LINE
  5
21B
100
AcDbEntity
  8
0
100
AcDbLine
 62
7
  6
CONTINUOUS
 10
100.828155029
 20
546.2489204097
 11
100.828155029
 21
542.7606886901
  0
LINE
  5
21C
100
AcDbEntity
  8
0
100
AcDbLine
 62
7
  6
CONTINUOUS
 10
112.7528203513
 20
498.1984017957
 11
112.7572939815
 21
496.6302934532
  0
LINE
  5
21D
100
AcDbEntity
  8
0
100
AcDbLine
 62
7
  6
CONTINUOUS
 10
114.590254488
 20
483.1474342949
 11
114.590254488
 21
558.1474342949
  0
LINE
  5
21E
100
AcDbEntity
  8
0
100
AcDbLine
 62
7
  6
CONTINUOUS
 10
112.7528186918
 20
509.6195788445
 11
112.7572943066
 21
512.3734099832
  0
LINE
  5
21F
100
AcDbEntity
  8
0
100
AcDbLine
 62
7
  6
CONTINUOUS
 10
131.045554488
 20
483.1474342949
 11
131.045554488
 21
558.1474342949
  0
LINE
  5
220
100
AcDbEntity
  8
0
100
AcDbLine
 62
7
  6
CONTINUOUS
 10
133.025554488
 20
490.7974342949
 11
133.025554488
 21
550.4974342949
  0
LINE
  5
221
100
AcDbEntity
  8
0
100
AcDbLine
 62
7
  6
CONTINUOUS
 10
138.645554488
 20
496.1474342949
 11
138.645554488
 21
545.1474342949
  0
LINE
  5
222
100
AcDbEntity
  8
0
100
AcDbLine
 62
7
  6
CONTINUOUS
 10
86.1268092556
 20
542.340518537
 11
84.6723001319
 21
544.5241584099
  0
LINE
  5
223
100
AcDbEntity
  8
0
100
AcDbLine
 62
7
  6
CONTINUOUS
 10
99.3736459053
 20
548.4325602826
 11
100.828155029
 21
546.2489204097
  0
LINE
  5
224
100
AcDbEntity
  8
0
100
AcDbLine
 62
7
  6
CONTINUOUS
 10
675.1255059064
 20
481.9887094189
 11
660.6755059064
 21
481.9887094189
  0
LINE
  5
225
100
AcDbEntity
  8
0
100
AcDbLine
 62
7
  6
CONTINUOUS
 10
131.045554488
 20
483.1474342949
 11
114.590254488
 21
483.1474342949
  0
LINE
  5
226
100
AcDbEntity
  8
0
100
AcDbLine
 62
7
  6
CONTINUOUS
 10
660.6755059064
 20
483.9887094189
 11
625.6255059064
 21
483.9887094189
  0
LINE
  5
227
100
AcDbEntity
  8
0
100
AcDbLine
 62
7
  6
CONTINUOUS
 10
133.025554488
 20
490.7974342949
 11
131.045554488
 21
490.7974342949
  0
LINE
  5
228
100
AcDbEntity
  8
0
100
AcDbLine
 62
7
  6
CONTINUOUS
 10
595.5255544879
 20
514.3137889285
 11
611.0779211229
 21
514.8568895388
  0
LINE
  5
229
100
AcDbEntity
  8
0
100
AcDbLine
 62
7
  6
CONTINUOUS
 10
114.590254488
 20
493.1474342949
 11
110.6171602945
 21
493.1474342949
  0
LINE
  5
22A
100
AcDbEntity
  8
0
100
AcDbLine
 62
7
  6
CONTINUOUS
 10
138.645554488
 20
496.1474342949
 11
133.025554488
 21
496.1474342949
  0
LINE
  5
22B
100
AcDbEntity
  8
0
100
AcDbLine
 62
7
  6
CONTINUOUS
 10
620.5555059064
 20
502.4887094189
 11
622.0755059064
 21
502.4887094189
  0
LINE
  5
22C
100
AcDbEntity
  8
0
100
AcDbLine
 62
7
  6
CONTINUOUS
 10
611.0779211229
 20
506.0887094189
 11
620.5555059064
 21
506.0887094189
  0
LINE
  5
22D
100
AcDbEntity
  8
0
100
AcDbLine
 62
7
  6
CONTINUOUS
 10
611.0779211229
 20
506.1234736046
 11
614.0779211229
 21
506.1234736046
  0
LINE
  5
22E
100
AcDbEntity
  8
0
100
AcDbLine
 62
7
  6
CONTINUOUS
 10
625.6255059064
 20
507.9887094189
 11
622.0755059064
 21
507.9887094189
  0
LINE
  5
22F
100
AcDbEntity
  8
0
100
AcDbLine
 62
7
  6
CONTINUOUS
 10
614.0779211229
 20
508.5304486758
 11
611.0779211229
 21
508.5304486758
  0
LINE
  5
230
100
AcDbEntity
  8
0
100
AcDbLine
 62
7
  6
CONTINUOUS
 10
577.525554488
 20
508.7276745759
 11
589.525554488
 21
508.7276745759
  0
LINE
  5
231
100
AcDbEntity
  8
0
100
AcDbLine
 62
7
  6
CONTINUOUS
 10
614.0779211229
 20
509.6238469801
 11
611.0779211229
 21
509.6238469801
  0
LINE
  5
232
100
AcDbEntity
  8
0
100
AcDbLine
 62
7
  6
CONTINUOUS
 10
611.0779211229
 20
511.0380605424
 11
614.0779211229
 21
511.0380605424
  0
LINE
  5
233
100
AcDbEntity
  8
0
100
AcDbLine
 62
7
  6
CONTINUOUS
 10
589.525554488
 20
511.7276745759
 11
595.5255544879
 21
511.7276745759
  0
LINE
  5
234
100
AcDbEntity
  8
0
100
AcDbLine
 62
7
  6
CONTINUOUS
 10
614.0779211229
 20
512.7400489374
 11
611.0779211229
 21
512.7400489374
  0
LINE
  5
235
100
AcDbEntity
  8
0
100
AcDbLine
 62
7
  6
CONTINUOUS
 10
138.645554488
 20
515.6137094187
 11
577.525554488
 21
515.6137094187
  0
LINE
  5
236
100
AcDbEntity
  8
0
100
AcDbLine
 62
7
  6
CONTINUOUS
 10
614.0779211229
 20
519.4887094189
 11
611.0779211229
 21
519.4887094189
  0
LINE
  5
237
100
AcDbEntity
  8
0
100
AcDbLine
 62
7
  6
CONTINUOUS
 10
611.0779211229
 20
521.4887094189
 11
614.0779211229
 21
521.4887094189
  0
LINE
  5
238
100
AcDbEntity
  8
0
100
AcDbLine
 62
7
  6
CONTINUOUS
 10
663.3255059064
 20
525.2887094189
 11
660.6755059064
 21
525.2887094189
  0
LINE
  5
239
100
AcDbEntity
  8
0
100
AcDbLine
 62
7
  6
CONTINUOUS
 10
663.3255059064
 20
525.421745326
 11
661.3255059064
 21
525.421745326
  0
LINE
  5
23A
100
AcDbEntity
  8
0
100
AcDbLine
 62
7
  6
CONTINUOUS
 10
138.645554488
 20
525.6137094187
 11
577.525554488
 21
525.6137094187
  0
LINE
  5
23B
100
AcDbEntity
  8
0
100
AcDbLine
 62
7
  6
CONTINUOUS
 10
611.0779211229
 20
528.2373699003
 11
614.0779211229
 21
528.2373699003
  0
LINE
  5
23C
100
AcDbEntity
  8
0
100
AcDbLine
 62
7
  6
CONTINUOUS
 10
589.525554488
 20
529.4887094189
 11
595.5255544879
 21
529.4887094189
  0
LINE
  5
23D
100
AcDbEntity
  8
0
100
AcDbLine
 62
7
  6
CONTINUOUS
 10
614.0779211229
 20
529.9393582953
 11
611.0779211229
 21
529.9393582953
  0
LINE
  5
23E
100
AcDbEntity
  8
0
100
AcDbLine
 62
7
  6
CONTINUOUS
 10
611.0779211229
 20
531.3535718577
 11
614.0779211229
 21
531.3535718577
  0
LINE
  5
23F
100
AcDbEntity
  8
0
100
AcDbLine
 62
7
  6
CONTINUOUS
 10
663.3255059064
 20
532.1556735117
 11
661.3255059064
 21
532.1556735117
  0
LINE
  5
240
100
AcDbEntity
  8
0
100
AcDbLine
 62
7
  6
CONTINUOUS
 10
663.3255059064
 20
532.2887094189
 11
660.6755059064
 21
532.2887094189
  0
LINE
  5
241
100
AcDbEntity
  8
0
100
AcDbLine
 62
7
  6
CONTINUOUS
 10
611.0779211229
 20
532.446970162
 11
614.0779211229
 21
532.446970162
  0
LINE
  5
242
100
AcDbEntity
  8
0
100
AcDbLine
 62
7
  6
CONTINUOUS
 10
577.525554488
 20
532.4887094189
 11
589.525554488
 21
532.4887094189
  0
LINE
  5
243
100
AcDbEntity
  8
0
100
AcDbLine
 62
7
  6
CONTINUOUS
 10
625.6255059064
 20
532.9887094189
 11
622.0755059064
 21
532.9887094189
  0
LINE
  5
244
100
AcDbEntity
  8
0
100
AcDbLine
 62
7
  6
CONTINUOUS
 10
614.0779211229
 20
534.8539452331
 11
611.0779211229
 21
534.8539452331
  0
LINE
  5
245
100
AcDbEntity
  8
0
100
AcDbLine
 62
7
  6
CONTINUOUS
 10
611.0779211229
 20
534.8887094189
 11
620.5555059064
 21
534.8887094189
  0
LINE
  5
246
100
AcDbEntity
  8
0
100
AcDbLine
 62
7
  6
CONTINUOUS
 10
620.5555059064
 20
538.4887094189
 11
622.0755059064
 21
538.4887094189
  0
LINE
  5
247
100
AcDbEntity
  8
0
100
AcDbLine
 62
7
  6
CONTINUOUS
 10
138.645554488
 20
545.1474342949
 11
133.025554488
 21
545.1474342949
  0
LINE
  5
248
100
AcDbEntity
  8
0
100
AcDbLine
 62
7
  6
CONTINUOUS
 10
114.590254488
 20
548.1474342949
 11
110.1988438949
 21
548.1474342949
  0
LINE
  5
249
100
AcDbEntity
  8
0
100
AcDbLine
 62
7
  6
CONTINUOUS
 10
133.025554488
 20
550.4974342949
 11
131.045554488
 21
550.4974342949
  0
LINE
  5
24A
100
AcDbEntity
  8
0
100
AcDbLine
 62
7
  6
CONTINUOUS
 10
595.5255544879
 20
526.9025950662
 11
611.0779211229
 21
526.3594944559
  0
LINE
  5
24B
100
AcDbEntity
  8
0
100
AcDbLine
 62
7
  6
CONTINUOUS
 10
625.6255059064
 20
556.9887094189
 11
660.6755059064
 21
556.9887094189
  0
LINE
  5
24C
100
AcDbEntity
  8
0
100
AcDbLine
 62
7
  6
CONTINUOUS
 10
131.045554488
 20
558.1474342949
 11
114.590254488
 21
558.1474342949
  0
LINE
  5
24D
100
AcDbEntity
  8
0
100
AcDbLine
 62
7
  6
CONTINUOUS
 10
660.6755059064
 20
563.9887094189
 11
665.6255059064
 21
563.9887094189
  0
LINE
  5
24E
100
AcDbEntity
  8
0
100
AcDbLine
 62
7
  6
CONTINUOUS
 10
675.1255059064
 20
569.5687094189
 11
665.6255059064
 21
569.5687094189
  0
LINE
  5
24F
100
AcDbEntity
  8
0
100
AcDbLine
 62
7
  6
CONTINUOUS
 10
665.6255059064
 20
573.9887094189
 11
675.1255059064
 21
573.9887094189
  0
LINE
  5
250
100
AcDbEntity
  8
0
100
AcDbLine
 62
7
  6
CONTINUOUS
 10
86.9022599834
 20
539.0584429832
 11
100.828155029
 21
542.7606886901
  0
LINE
  5
251
100
AcDbEntity
  8
0
100
AcDbLine
 62
7
  6
CONTINUOUS
 10
100.828155029
 20
546.2489204097
 11
86.1268092556
 21
542.340518537
  0
LINE
  5
252
100
AcDbEntity
  8
0
100
AcDbLine
 62
7
  6
CONTINUOUS
 10
84.6723001319
 20
544.5241584099
 11
99.3736459053
 21
548.4325602826
  0
LINE
  5
253
100
AcDbEntity
  8
0
100
AcDbLine
 62
7
  6
CONTINUOUS
 10
577.525554488
 20
532.4887094189
 11
577.525554488
 21
508.7276745759
  0
LINE
  5
254
100
AcDbEntity
  8
0
100
AcDbLine
 62
7
  6
CONTINUOUS
 10
589.525554488
 20
508.7276745759
 11
589.525554488
 21
532.4887094189
  0
LINE
  5
255
100
AcDbEntity
  8
0
100
AcDbLine
 62
7
  6
CONTINUOUS
 10
595.5255544879
 20
511.7276745759
 11
595.5255544879
 21
529.4887094189
  0
LINE
  5
256
100
AcDbEntity
  8
0
100
AcDbLine
 62
7
  6
CONTINUOUS
 10
611.0779211229
 20
506.0887094189
 11
611.0779211229
 21
534.8887094189
  0
LINE
  5
257
100
AcDbEntity
  8
0
100
AcDbLine
 62
7
  6
CONTINUOUS
 10
614.0779211229
 20
534.8539452331
 11
614.0779211229
 21
531.3535718577
  0
LINE
  5
258
100
AcDbEntity
  8
0
100
AcDbLine
 62
7
  6
CONTINUOUS
 10
614.0779211229
 20
529.9393582953
 11
614.0779211229
 21
521.4887094189
  0
LINE
  5
259
100
AcDbEntity
  8
0
100
AcDbLine
 62
7
  6
CONTINUOUS
 10
614.0779211229
 20
519.4887094189
 11
614.0779211229
 21
511.0380605424
  0
LINE
  5
25A
100
AcDbEntity
  8
0
100
AcDbLine
 62
7
  6
CONTINUOUS
 10
614.0779211229
 20
509.6238469801
 11
614.0779211229
 21
506.1234736046
  0
LINE
  5
25B
100
AcDbEntity
  8
0
100
AcDbLine
 62
7
  6
CONTINUOUS
 10
620.5555059064
 20
538.4887094189
 11
620.5555059064
 21
502.4887094189
  0
LINE
  5
25C
100
AcDbEntity
  8
0
100
AcDbLine
 62
7
  6
CONTINUOUS
 10
622.0755059064
 20
502.4887094189
 11
622.0755059064
 21
538.4887094189
  0
LINE
  5
25D
100
AcDbEntity
  8
0
100
AcDbLine
 62
7
  6
CONTINUOUS
 10
625.6255059064
 20
483.9887094189
 11
625.6255059064
 21
556.9887094189
  0
LINE
  5
25E
100
AcDbEntity
  8
0
100
AcDbLine
 62
7
  6
CONTINUOUS
 10
660.6755059064
 20
481.9887094189
 11
660.6755059064
 21
563.9887094189
  0
LINE
  5
25F
100
AcDbEntity
  8
0
100
AcDbLine
 62
7
  6
CONTINUOUS
 10
661.3255059064
 20
532.1556542167
 11
661.3255059064
 21
525.421764621
  0
LINE
  5
260
100
AcDbEntity
  8
0
100
AcDbLine
 62
7
  6
CONTINUOUS
 10
663.3255059064
 20
525.2887094189
 11
663.3255059064
 21
532.2887094189
  0
LINE
  5
261
100
AcDbEntity
  8
0
100
AcDbLine
 62
7
  6
CONTINUOUS
 10
665.6255059064
 20
563.9887094189
 11
665.6255059064
 21
573.9887094189
  0
LINE
  5
262
100
AcDbEntity
  8
0
100
AcDbLine
 62
7
  6
CONTINUOUS
 10
675.1255059064
 20
481.9887094189
 11
675.1255059064
 21
573.9887094189
  0
ARC
  5
263
100
AcDbEntity
  8
0
100
AcDbCircle
 62
7
  6
CONTINUOUS
 10
89.1341876082
 20
633.1246498836
 40
86.9137770543
100
AcDbArc
 50
268.9736484177
 51
271.3634779716
  0
SPLINE
  5
264
100
AcDbEntity
  8
0
100
AcDbSpline
 62
7
  6
CONTINUOUS
 70
0
 71
3
 72
12
 73
8
 74
0
 42
0.0000001
 43
0.0000001
 44
0.0000000001
 40
0.0
 40
0.0
 40
0.0
 40
0.0
 40
0.3006030685
 40
0.5772226349
 40
0.8159769637
 40
0.9157431204
 40
1.0
 40
1.0
 40
1.0
 40
1.0
 10
100.3979340836
 20
546.916902527
 30
0.0
 10
101.3810925578
 20
547.0343378217
 30
0.0
 10
103.2661456225
 20
547.2839924921
 30
0.0
 10
105.9248518458
 20
547.6766926635
 30
0.0
 10
107.9302817507
 20
547.9690145853
 30
0.0
 10
109.315291428
 20
548.1152697459
 30
0.0
 10
109.9213105008
 20
548.1474303874
 30
0.0
 10
110.1988416668
 20
548.1474336851
 30
0.0
  0
SPLINE
  5
265
100
AcDbEntity
  8
0
100
AcDbSpline
 62
7
  6
CONTINUOUS
 70
0
 71
3
 72
9
 73
5
 74
0
 42
0.0000001
 43
0.0000001
 44
0.0000000001
 40
0.0
 40
0.0
 40
0.0
 40
0.0
 40
0.2543195662
 40
1.0
 40
1.0
 40
1.0
 40
1.0
 10
88.5108994661
 20
526.3215626992
 30
0.0
 10
88.4371617644
 20
526.2273426872
 30
0.0
 10
88.1601694167
 20
525.8469561183
 30
0.0
 10
87.9337237497
 20
525.4294045892
 30
0.0
 10
87.8005888305
 20
525.1048465178
 30
0.0
  0
SPLINE
  5
266
100
AcDbEntity
  8
0
100
AcDbSpline
 62
7
  6
CONTINUOUS
 70
0
 71
3
 72
9
 73
5
 74
0
 42
0.0000001
 43
0.0000001
 44
0.0000000001
 40
0.0
 40
0.0
 40
0.0
 40
0.0
 40
0.2543195662
 40
1.0
 40
1.0
 40
1.0
 40
1.0
 10
88.510899466
 20
517.4071927491
 30
0.0
 10
88.4371617644
 20
517.3129727371
 30
0.0
 10
88.1601694167
 20
516.9325861681
 30
0.0
 10
87.9337237497
 20
516.515034639
 30
0.0
 10
87.8005888305
 20
516.1904765676
 30
0.0
  0
SPLINE
  5
267
100
AcDbEntity
  8
0
100
AcDbSpline
 62
7
  6
CONTINUOUS
 70
0
 71
3
 72
11
 73
7
 74
0
 42
0.0000001
 43
0.0000001
 44
0.0000000001
 40
0.0
 40
0.0
 40
0.0
 40
0.0
 40
0.2530152331
 40
0.5057954347
 40
0.7565955029
 40
1.0
 40
1.0
 40
1.0
 40
1.0
 10
91.750254488
 20
504.3483558332
 30
0.0
 10
91.3037355781
 20
504.3483558332
 30
0.0
 10
90.4034773553
 20
504.5224685426
 30
0.0
 10
89.2403687153
 20
505.221211177
 30
0.0
 10
88.3370991419
 20
506.2007867805
 30
0.0
 10
87.9142722089
 20
506.975785982
 30
0.0
 10
87.760424569
 20
507.3768482663
 30
0.0
  0
SPLINE
  5
268
100
AcDbEntity
  8
0
100
AcDbSpline
 62
7
  6
CONTINUOUS
 70
0
 71
3
 72
15
 73
11
 74
0
 42
0.0000001
 43
0.0000001
 44
0.0000000001
 40
0.0
 40
0.0
 40
0.0
 40
0.0
 40
0.0377267258
 40
0.0823345475
 40
0.1883010265
 40
0.3097105232
 40
0.440448682
 40
0.5768015696
 40
0.7164622157
 40
1.0
 40
1.0
 40
1.0
 40
1.0
 10
110.6171530712
 20
493.1474360219
 30
0.0
 10
110.3178148288
 20
493.1474381586
 30
0.0
 10
109.6646842664
 20
493.1809229806
 30
0.0
 10
108.1779958702
 20
493.3300944788
 30
0.0
 10
106.0393908553
 20
493.6216741484
 30
0.0
 10
103.2241419116
 20
494.0055009018
 30
0.0
 10
100.1638165242
 20
494.3766770576
 30
0.0
 10
96.9511122162
 20
494.6878437637
 30
0.0
 10
92.5214165827
 20
494.9917669392
 30
0.0
 10
89.1609715405
 20
495.0582374937
 30
0.0
 10
86.9114933783
 20
495.0268588918
 30
0.0
  0
SPLINE
  5
269
100
AcDbEntity
  8
0
100
AcDbSpline
 62
7
  6
CONTINUOUS
 70
0
 71
3
 72
11
 73
7
 74
0
 42
0.0000001
 43
0.0000001
 44
0.0000000001
 40
0.0
 40
0.0
 40
0.0
 40
0.0
 40
0.2530152331
 40
0.5057954347
 40
0.7565955029
 40
1.0
 40
1.0
 40
1.0
 40
1.0
 10
91.750254488
 20
513.2627257834
 30
0.0
 10
91.3037355781
 20
513.2627257834
 30
0.0
 10
90.4034773553
 20
513.4368384927
 30
0.0
 10
89.2403687153
 20
514.1355811271
 30
0.0
 10
88.3370991419
 20
515.1151567306
 30
0.0
 10
87.9142722089
 20
515.8901559321
 30
0.0
 10
87.760424569
 20
516.2912182164
 30
0.0
  0
SPLINE
  5
26A
100
AcDbEntity
  8
0
100
AcDbSpline
 62
7
  6
CONTINUOUS
 70
0
 71
3
 72
11
 73
7
 74
0
 42
0.0000001
 43
0.0000001
 44
0.0000000001
 40
0.0
 40
0.0
 40
0.0
 40
0.0
 40
0.2530152331
 40
0.5057954347
 40
0.7565955029
 40
1.0
 40
1.0
 40
1.0
 40
1.0
 10
91.750254488
 20
522.1770957335
 30
0.0
 10
91.3037355781
 20
522.1770957335
 30
0.0
 10
90.4034773553
 20
522.3512084429
 30
0.0
 10
89.2403687153
 20
523.0499510772
 30
0.0
 10
88.3370991419
 20
524.0295266808
 30
0.0
 10
87.9142722089
 20
524.8045258822
 30
0.0
 10
87.760424569
 20
525.2055881666
 30
0.0
  0
SPLINE
  5
26B
100
AcDbEntity
  8
0
100
AcDbSpline
 62
7
  6
CONTINUOUS
 70
0
 71
3
 72
11
 73
7
 74
0
 42
0.0000001
 43
0.0000001
 44
0.0000000001
 40
0.0
 40
0.0
 40
0.0
 40
0.0
 40
0.4440223756
 40
0.5749643371
 40
0.7119610321
 40
1.0
 40
1.0
 40
1.0
 40
1.0
 10
102.250254488
 20
541.9644059148
 30
0.0
 10
102.250254488
 20
540.7228424712
 30
0.0
 10
101.5455240481
 20
539.1250417196
 30
0.0
 10
100.3157224792
 20
537.5710869328
 30
0.0
 10
99.2233132875
 20
536.4584494817
 30
0.0
 10
98.2587676729
 20
535.7464847748
 30
0.0
 10
97.5660636436
 20
535.3355817624
 30
0.0
  0
SPLINE
  5
26C
100
AcDbEntity
  8
0
100
AcDbSpline
 62
7
  6
CONTINUOUS
 70
0
 71
3
 72
11
 73
7
 74
0
 42
0.0000001
 43
0.0000001
 44
0.0000000001
 40
0.0
 40
0.0
 40
0.0
 40
0.0
 40
0.2445599198
 40
0.4952332584
 40
0.7475118773
 40
1.0
 40
1.0
 40
1.0
 40
1.0
 10
95.6637031587
 20
525.0184657163
 30
0.0
 10
95.4986899323
 20
524.6373618117
 30
0.0
 10
95.0669019302
 20
523.9048423016
 30
0.0
 10
94.1726320898
 20
522.9854930845
 30
0.0
 10
93.0430687127
 20
522.3371290029
 30
0.0
 10
92.1790121424
 20
522.1770957335
 30
0.0
 10
91.750254488
 20
522.1770957335
 30
0.0
  0
SPLINE
  5
26D
100
AcDbEntity
  8
0
100
AcDbSpline
 62
7
  6
CONTINUOUS
 70
0
 71
3
 72
11
 73
7
 74
0
 42
0.0000001
 43
0.0000001
 44
0.0000000001
 40
0.0
 40
0.0
 40
0.0
 40
0.0
 40
0.2445599198
 40
0.4952332584
 40
0.7475118773
 40
1.0
 40
1.0
 40
1.0
 40
1.0
 10
95.6637031587
 20
516.1040957661
 30
0.0
 10
95.4986899323
 20
515.7229918616
 30
0.0
 10
95.0669019302
 20
514.9904723514
 30
0.0
 10
94.1726320898
 20
514.0711231344
 30
0.0
 10
93.0430687127
 20
513.4227590528
 30
0.0
 10
92.1790121424
 20
513.2627257834
 30
0.0
 10
91.750254488
 20
513.2627257834
 30
0.0
  0
SPLINE
  5
26E
100
AcDbEntity
  8
0
100
AcDbSpline
 62
7
  6
CONTINUOUS
 70
0
 71
3
 72
9
 73
5
 74
0
 42
0.0000001
 43
0.0000001
 44
0.0000000001
 40
0.0
 40
0.0
 40
0.0
 40
0.0
 40
0.2893178227
 40
1.0
 40
1.0
 40
1.0
 40
1.0
 10
112.7536194716
 20
509.6195751649
 30
0.0
 10
112.7518737914
 20
508.5181260887
 30
0.0
 10
112.7472281842
 20
504.7110696307
 30
0.0
 10
112.746818425
 20
500.9039986659
 30
0.0
 10
112.7536194716
 20
498.198397156
 30
0.0
  0
SPLINE
  5
26F
100
AcDbEntity
  8
0
100
AcDbSpline
 62
7
  6
CONTINUOUS
 70
0
 71
3
 72
11
 73
7
 74
0
 42
0.0000001
 43
0.0000001
 44
0.0000000001
 40
0.0
 40
0.0
 40
0.0
 40
0.0
 40
0.2445599198
 40
0.4952332584
 40
0.7475118773
 40
1.0
 40
1.0
 40
1.0
 40
1.0
 10
95.6637031587
 20
507.189725816
 30
0.0
 10
95.4986899323
 20
506.8086219115
 30
0.0
 10
95.0669019302
 20
506.0761024013
 30
0.0
 10
94.1726320898
 20
505.1567531843
 30
0.0
 10
93.0430687127
 20
504.5083891027
 30
0.0
 10
92.1790121424
 20
504.3483558332
 30
0.0
 10
91.750254488
 20
504.3483558332
 30
0.0
  0
SPLINE
  5
270
100
AcDbEntity
  8
0
100
AcDbSpline
 62
7
  6
CONTINUOUS
 70
0
 71
3
 72
17
 73
13
 74
0
 42
0.0000001
 43
0.0000001
 44
0.0000000001
 40
0.0
 40
0.0
 40
0.0
 40
0.0
 40
0.0548448413
 40
0.1124690567
 40
0.2363607402
 40
0.3701402841
 40
0.508215245
 40
0.6443005056
 40
0.7727885269
 40
0.8904315366
 40
0.9459338695
 40
1.0
 40
1.0
 40
1.0
 40
1.0
 10
96.000254488
 20
505.9216701217
 30
0.0
 10
96.000254488
 20
506.1417021642
 30
0.0
 10
95.9410758265
 20
506.594506724
 30
0.0
 10
95.6014911677
 20
507.4871372556
 30
0.0
 10
94.7838514757
 20
508.4966875156
 30
0.0
 10
93.4026904123
 20
509.3335227344
 30
0.0
 10
91.7790697804
 20
509.7047637628
 30
0.0
 10
90.1414410819
 20
509.5364074654
 30
0.0
 10
88.7297775989
 20
508.8573020515
 30
0.0
 10
87.8952823104
 20
507.9247113536
 30
0.0
 10
87.5573684559
 20
507.0696454408
 30
0.0
 10
87.500254488
 20
506.6281471519
 30
0.0
 10
87.500254488
 20
506.4112392197
 30
0.0
  0
SPLINE
  5
271
100
AcDbEntity
  8
0
100
AcDbSpline
 62
7
  6
CONTINUOUS
 70
0
 71
3
 72
11
 73
7
 74
0
 42
0.0000001
 43
0.0000001
 44
0.0000000001
 40
0.0
 40
0.0
 40
0.0
 40
0.0
 40
0.289135137
 40
0.5491130858
 40
0.7826677375
 40
1.0
 40
1.0
 40
1.0
 40
1.0
 10
95.5814649684
 20
537.3881781499
 30
0.0
 10
95.9701884318
 20
537.5684477718
 30
0.0
 10
96.6811217856
 20
537.9774723103
 30
0.0
 10
97.5412054015
 20
538.7733291461
 30
0.0
 10
98.0940376074
 20
539.6898810563
 30
0.0
 10
98.2246335827
 20
540.3633079359
 30
0.0
 10
98.2246317211
 20
540.6853875933
 30
0.0
  0
SPLINE
  5
272
100
AcDbEntity
  8
0
100
AcDbSpline
 62
7
  6
CONTINUOUS
 70
0
 71
3
 72
17
 73
13
 74
0
 42
0.0000001
 43
0.0000001
 44
0.0000000001
 40
0.0
 40
0.0
 40
0.0
 40
0.0
 40
0.0548448413
 40
0.1124690567
 40
0.2363607402
 40
0.3701402841
 40
0.508215245
 40
0.6443005056
 40
0.7727885269
 40
0.8904315366
 40
0.9459338695
 40
1.0
 40
1.0
 40
1.0
 40
1.0
 10
96.000254488
 20
514.8360400718
 30
0.0
 10
96.000254488
 20
515.0560721143
 30
0.0
 10
95.9410758265
 20
515.5088766741
 30
0.0
 10
95.6014911677
 20
516.4015072057
 30
0.0
 10
94.7838514757
 20
517.4110574657
 30
0.0
 10
93.4026904123
 20
518.2478926845
 30
0.0
 10
91.7790697804
 20
518.619133713
 30
0.0
 10
90.1414410819
 20
518.4507774155
 30
0.0
 10
88.7297775989
 20
517.7716720016
 30
0.0
 10
87.8952823104
 20
516.8390813038
 30
0.0
 10
87.5573684559
 20
515.9840153909
 30
0.0
 10
87.500254488
 20
515.5425171021
 30
0.0
 10
87.500254488
 20
515.3256091699
 30
0.0
  0
SPLINE
  5
273
100
AcDbEntity
  8
0
100
AcDbSpline
 62
7
  6
CONTINUOUS
 70
0
 71
3
 72
12
 73
8
 74
0
 42
0.0000001
 43
0.0000001
 44
0.0000000001
 40
0.0
 40
0.0
 40
0.0
 40
0.0
 40
0.2075617676
 40
0.3251038165
 40
0.4505062921
 40
0.7185773535
 40
1.0
 40
1.0
 40
1.0
 40
1.0
 10
85.3709181052
 20
541.2488914694
 30
0.0
 10
85.5106717292
 20
540.7141635242
 30
0.0
 10
85.950429378
 20
539.9313005842
 30
0.0
 10
86.7811193384
 20
539.0641650001
 30
0.0
 10
87.8689693475
 20
538.2370092718
 30
0.0
 10
89.529699855
 20
537.4853152184
 30
0.0
 10
91.0008911418
 20
537.2749354668
 30
0.0
 10
91.750254488
 20
537.2749354668
 30
0.0
  0
SPLINE
  5
274
100
AcDbEntity
  8
0
100
AcDbSpline
 62
7
  6
CONTINUOUS
 70
0
 71
3
 72
9
 73
5
 74
0
 42
0.0000001
 43
0.0000001
 44
0.0000000001
 40
0.0
 40
0.0
 40
0.0
 40
0.0
 40
0.5066980833
 40
1.0
 40
1.0
 40
1.0
 40
1.0
 10
91.750254488
 20
537.2749354668
 30
0.0
 10
92.3122005164
 20
537.2749354668
 30
0.0
 10
93.4244445825
 20
537.3938342409
 30
0.0
 10
94.4864134442
 20
537.7452032527
 30
0.0
 10
94.9839420309
 20
537.9727376602
 30
0.0
  0
SPLINE
  5
275
100
AcDbEntity
  8
0
100
AcDbSpline
 62
7
  6
CONTINUOUS
 70
0
 71
3
 72
17
 73
13
 74
0
 42
0.0000001
 43
0.0000001
 44
0.0000000001
 40
0.0
 40
0.0
 40
0.0
 40
0.0
 40
0.0548448413
 40
0.1124690567
 40
0.2363607402
 40
0.3701402841
 40
0.508215245
 40
0.6443005056
 40
0.7727885269
 40
0.8904315366
 40
0.9459338695
 40
1.0
 40
1.0
 40
1.0
 40
1.0
 10
96.000254488
 20
523.7504100219
 30
0.0
 10
96.000254488
 20
523.9704420644
 30
0.0
 10
95.9410758265
 20
524.4232466242
 30
0.0
 10
95.6014911677
 20
525.3158771558
 30
0.0
 10
94.7838514757
 20
526.3254274158
 30
0.0
 10
93.4026904123
 20
527.1622626346
 30
0.0
 10
91.7790697804
 20
527.5335036631
 30
0.0
 10
90.1414410819
 20
527.3651473656
 30
0.0
 10
88.7297775989
 20
526.6860419517
 30
0.0
 10
87.8952823104
 20
525.7534512539
 30
0.0
 10
87.5573684559
 20
524.898385341
 30
0.0
 10
87.500254488
 20
524.4568870522
 30
0.0
 10
87.500254488
 20
524.23997912
 30
0.0
  0
SPLINE
  5
276
100
AcDbEntity
  8
0
100
AcDbSpline
 62
7
  6
CONTINUOUS
 70
0
 71
3
 72
13
 73
9
 74
0
 42
0.0000001
 43
0.0000001
 44
0.0000000001
 40
0.0
 40
0.0
 40
0.0
 40
0.0
 40
0.2378441379
 40
0.4946694581
 40
0.6255597941
 40
0.7547023639
 40
0.8800779225
 40
1.0
 40
1.0
 40
1.0
 40
1.0
 10
95.614716654
 20
516.0062594118
 30
0.0
 10
95.3110749361
 20
515.4536602288
 30
0.0
 10
94.3666969998
 20
514.4676993628
 30
0.0
 10
92.7892538428
 20
513.8208737526
 30
0.0
 10
91.4159182921
 20
513.700042933
 30
0.0
 10
90.3936990457
 20
513.8262121473
 30
0.0
 10
89.4508479626
 20
514.1603965844
 30
0.0
 10
88.8969228308
 20
514.514752796
 30
0.0
 10
88.6527951102
 20
514.7183977519
 30
0.0
  0
SPLINE
  5
277
100
AcDbEntity
  8
0
100
AcDbSpline
 62
7
  6
CONTINUOUS
 70
0
 71
3
 72
13
 73
9
 74
0
 42
0.0000001
 43
0.0000001
 44
0.0000000001
 40
0.0
 40
0.0
 40
0.0
 40
0.0
 40
0.2378441379
 40
0.4946694581
 40
0.6255597941
 40
0.7547023639
 40
0.8800779225
 40
1.0
 40
1.0
 40
1.0
 40
1.0
 10
95.6147166541
 20
524.920629362
 30
0.0
 10
95.3110749362
 20
524.368030179
 30
0.0
 10
94.3666969998
 20
523.3820693129
 30
0.0
 10
92.7892538428
 20
522.7352437027
 30
0.0
 10
91.4159182921
 20
522.6144128832
 30
0.0
 10
90.3936990458
 20
522.7405820975
 30
0.0
 10
89.4508479626
 20
523.0747665345
 30
0.0
 10
88.8969228308
 20
523.4291227461
 30
0.0
 10
88.6527951102
 20
523.632767702
 30
0.0
  0
SPLINE
  5
278
100
AcDbEntity
  8
0
100
AcDbSpline
 62
7
  6
CONTINUOUS
 70
0
 71
3
 72
19
 73
15
 74
0
 42
0.0000001
 43
0.0000001
 44
0.0000000001
 40
0.0
 40
0.0
 40
0.0
 40
0.0
 40
0.0555013947
 40
0.1122739337
 40
0.2333831055
 40
0.3676346895
 40
0.5095821915
 40
0.648731201
 40
0.7144302312
 40
0.7765415745
 40
0.8351300721
 40
0.8909378282
 40
0.9453390364
 40
1.0
 40
1.0
 40
1.0
 40
1.0
 10
87.500254488
 20
506.4112392197
 30
0.0
 10
87.500254488
 20
506.1950238268
 30
0.0
 10
87.5569352161
 20
505.7556632604
 30
0.0
 10
87.8967260246
 20
504.9034122819
 30
0.0
 10
88.7399374091
 20
503.9729283548
 30
0.0
 10
90.1414469843
 20
503.2599688186
 30
0.0
 10
91.7490110288
 20
502.9528125641
 30
0.0
 10
93.1162180114
 20
503.0574475362
 30
0.0
 10
94.1110119767
 20
503.3747861841
 30
0.0
 10
94.7576763045
 20
503.7145734923
 30
0.0
 10
95.2938835708
 20
504.1535681031
 30
0.0
 10
95.696983843
 20
504.6816583403
 30
0.0
 10
95.9461106503
 20
505.2815224219
 30
0.0
 10
96.000254488
 20
505.7087287753
 30
0.0
 10
96.000254488
 20
505.9216701217
 30
0.0
  0
SPLINE
  5
279
100
AcDbEntity
  8
0
100
AcDbSpline
 62
7
  6
CONTINUOUS
 70
0
 71
3
 72
9
 73
5
 74
0
 42
0.0000001
 43
0.0000001
 44
0.0000000001
 40
0.0
 40
0.0
 40
0.0
 40
0.0
 40
0.5186820355
 40
1.0
 40
1.0
 40
1.0
 40
1.0
 10
100.9138230054
 20
543.92393899
 30
0.0
 10
101.2338074296
 20
543.5626071814
 30
0.0
 10
101.77827388
 20
542.7949570623
 30
0.0
 10
102.0953760108
 20
541.9038419201
 30
0.0
 10
102.1777278289
 20
541.4635967697
 30
0.0
  0
SPLINE
  5
27A
100
AcDbEntity
  8
0
100
AcDbSpline
 62
7
  6
CONTINUOUS
 70
0
 71
3
 72
19
 73
15
 74
0
 42
0.0000001
 43
0.0000001
 44
0.0000000001
 40
0.0
 40
0.0
 40
0.0
 40
0.0
 40
0.0555013947
 40
0.1122739337
 40
0.2333831055
 40
0.3676346895
 40
0.5095821915
 40
0.648731201
 40
0.7144302312
 40
0.7765415745
 40
0.8351300721
 40
0.8909378282
 40
0.9453390364
 40
1.0
 40
1.0
 40
1.0
 40
1.0
 10
87.500254488
 20
515.3256091699
 30
0.0
 10
87.500254488
 20
515.1093937769
 30
0.0
 10
87.5569352161
 20
514.6700332105
 30
0.0
 10
87.8967260246
 20
513.8177822321
 30
0.0
 10
88.7399374091
 20
512.887298305
 30
0.0
 10
90.1414469843
 20
512.1743387687
 30
0.0
 10
91.7490110288
 20
511.8671825143
 30
0.0
 10
93.1162180114
 20
511.9718174863
 30
0.0
 10
94.1110119767
 20
512.2891561343
 30
0.0
 10
94.7576763045
 20
512.6289434425
 30
0.0
 10
95.2938835708
 20
513.0679380532
 30
0.0
 10
95.696983843
 20
513.5960282905
 30
0.0
 10
95.9461106503
 20
514.195892372
 30
0.0
 10
96.000254488
 20
514.6230987255
 30
0.0
 10
96.000254488
 20
514.8360400718
 30
0.0
  0
SPLINE
  5
27B
100
AcDbEntity
  8
0
100
AcDbSpline
 62
7
  6
CONTINUOUS
 70
0
 71
3
 72
19
 73
15
 74
0
 42
0.0000001
 43
0.0000001
 44
0.0000000001
 40
0.0
 40
0.0
 40
0.0
 40
0.0
 40
0.0555013947
 40
0.1122739337
 40
0.2333831055
 40
0.3676346895
 40
0.5095821915
 40
0.648731201
 40
0.7144302312
 40
0.7765415745
 40
0.8351300721
 40
0.8909378282
 40
0.9453390364
 40
1.0
 40
1.0
 40
1.0
 40
1.0
 10
87.500254488
 20
524.23997912
 30
0.0
 10
87.500254488
 20
524.0237637271
 30
0.0
 10
87.5569352161
 20
523.5844031606
 30
0.0
 10
87.8967260246
 20
522.7321521822
 30
0.0
 10
88.7399374091
 20
521.8016682551
 30
0.0
 10
90.1414469843
 20
521.0887087189
 30
0.0
 10
91.7490110288
 20
520.7815524644
 30
0.0
 10
93.1162180114
 20
520.8861874365
 30
0.0
 10
94.1110119767
 20
521.2035260844
 30
0.0
 10
94.7576763045
 20
521.5433133926
 30
0.0
 10
95.2938835708
 20
521.9823080033
 30
0.0
 10
95.696983843
 20
522.5103982406
 30
0.0
 10
95.9461106503
 20
523.1102623221
 30
0.0
 10
96.000254488
 20
523.5374686756
 30
0.0
 10
96.000254488
 20
523.7504100219
 30
0.0
  0
SPLINE
  5
27C
100
AcDbEntity
  8
0
100
AcDbSpline
 62
7
  6
CONTINUOUS
 70
0
 71
3
 72
9
 73
5
 74
0
 42
0.0000001
 43
0.0000001
 44
0.0000000001
 40
0.0
 40
0.0
 40
0.0
 40
0.0
 40
0.4909549359
 40
1.0
 40
1.0
 40
1.0
 40
1.0
 10
98.2246317211
 20
540.6853875933
 30
0.0
 10
98.2246304471
 20
540.9057974314
 30
0.0
 10
98.1660124644
 20
541.3564715905
 30
0.0
 10
97.9984926655
 20
541.7779617815
 30
0.0
 10
97.891762258
 20
541.9800388651
 30
0.0
  0
SPLINE
  5
27D
100
AcDbEntity
  8
0
100
AcDbSpline
 62
7
  6
CONTINUOUS
 70
0
 71
3
 72
11
 73
7
 74
0
 42
0.0000001
 43
0.0000001
 44
0.0000000001
 40
0.0
 40
0.0
 40
0.0
 40
0.0
 40
0.2537860272
 40
0.4992955911
 40
0.7451133004
 40
1.0
 40
1.0
 40
1.0
 40
1.0
 10
102.250254488
 20
541.9644059148
 30
0.0
 10
102.250254488
 20
542.2363067759
 30
0.0
 10
102.1975945421
 20
542.7733612575
 30
0.0
 10
101.9442982406
 20
543.5374571669
 30
0.0
 10
101.525040742
 20
544.2256783186
 30
0.0
 10
101.1533026912
 20
544.6180020697
 30
0.0
 10
100.9487062741
 20
544.7988695511
 30
0.0
  0
SPLINE
  5
27E
100
AcDbEntity
  8
0
100
AcDbSpline
 62
7
  6
CONTINUOUS
 70
0
 71
3
 72
21
 73
17
 74
0
 42
0.0000001
 43
0.0000001
 44
0.0000000001
 40
0.0
 40
0.0
 40
0.0
 40
0.0
 40
0.0612160417
 40
0.1236804133
 40
0.1868317036
 40
0.2501005397
 40
0.3129975648
 40
0.3752817675
 40
0.4370744228
 40
0.4987000416
 40
0.5604413605
 40
0.6224523143
 40
0.7473463125
 40
0.8102858477
 40
0.8734384405
 40
1.0
 40
1.0
 40
1.0
 40
1.0
 10
112.7571996256
 20
512.3734100322
 30
0.0
 10
112.7571217399
 20
513.2066827111
 30
0.0
 10
112.7538448961
 20
514.8902616644
 30
0.0
 10
112.7061946542
 20
517.4330953045
 30
0.0
 10
112.5406930774
 20
520.0011492823
 30
0.0
 10
112.1035459837
 20
522.5479306164
 30
0.0
 10
111.2967648842
 20
524.9955839906
 30
0.0
 10
110.0673377304
 20
527.2419846579
 30
0.0
 10
108.4412152987
 20
529.1967999059
 30
0.0
 10
106.5057849993
 20
530.8283983896
 30
0.0
 10
104.353122564
 20
532.159015469
 30
0.0
 10
101.2786523543
 20
533.5882286743
 30
0.0
 10
98.000271972
 20
534.5621384082
 30
0.0
 10
94.6398523403
 20
535.1845083041
 30
0.0
 10
91.223021121
 20
535.5929992353
 30
0.0
 10
88.6333557348
 20
535.6582996527
 30
0.0
 10
86.9114933783
 20
535.6028241301
 30
0.0
  0
SPLINE
  5
27F
100
AcDbEntity
  8
0
100
AcDbSpline
 62
7
  6
CONTINUOUS
 70
0
 71
3
 72
15
 73
11
 74
0
 42
0.0000001
 43
0.0000001
 44
0.0000000001
 40
0.0
 40
0.0
 40
0.0
 40
0.0
 40
0.1669289737
 40
0.3125075763
 40
0.4364657944
 40
0.5401665123
 40
0.6309318739
 40
0.7260545279
 40
0.8450632632
 40
1.0
 40
1.0
 40
1.0
 40
1.0
 10
112.7571993657
 20
496.6302936195
 30
0.0
 10
112.757149479
 20
496.3568821053
 30
0.0
 10
112.7557939104
 20
495.8450576158
 30
0.0
 10
112.7408131088
 20
495.1301149872
 30
0.0
 10
112.6947991004
 20
494.5202701792
 30
0.0
 10
112.5911469438
 20
494.0056358152
 30
0.0
 10
112.3487046169
 20
493.5817054712
 30
0.0
 10
111.9159066771
 20
493.302027234
 30
0.0
 10
111.3204074957
 20
493.166520137
 30
0.0
 10
110.8709226091
 20
493.1474342105
 30
0.0
 10
110.6171530712
 20
493.1474360219
 30
0.0
  0
ELLIPSE
  5
280
100
AcDbEntity
  8
0
100
AcDbEllipse
 62
7
  6
CONTINUOUS
 10
268.2731446987
 20
520.6474342949
 30
0.0
 11
596.6610167355
 21
-17.3956246985
 31
0.0
 40
0.0356967831
 41
1.8795132742
 42
1.8850173767
  0
ELLIPSE
  5
281
100
AcDbEntity
  8
0
100
AcDbEllipse
 62
7
  6
CONTINUOUS
 10
90.3614955892
 20
520.6474342949
 30
0.0
 11
-19.2179197365
 21
26.0308774122
 31
0.0
 40
0.4614501843
 41
-1.3356813331
 42
-1.2175738434
  0
ELLIPSE
  5
282
100
AcDbEntity
  8
0
100
AcDbEllipse
 62
7
  6
CONTINUOUS
 10
317.9216407003
 20
520.6474342949
 30
0.0
 11
752.6248967703
 21
17.3873861
 31
0.0
 40
0.0283083978
 41
-1.8868636332
 42
-1.8834256526
  0
ELLIPSE
  5
283
100
AcDbEntity
  8
0
100
AcDbEllipse
 62
7
  6
CONTINUOUS
 10
84.9057920578
 20
520.6474342949
 30
0.0
 11
-8.0792026533
 21
27.3912008371
 31
0.0
 40
0.3024792873
 41
-0.8130101287
 42
-0.7526283319
  0
ELLIPSE
  5
284
100
AcDbEntity
  8
0
100
AcDbEllipse
 62
7
  6
CONTINUOUS
 10
317.9216407003
 20
520.6474342949
 30
0.0
 11
752.6248967703
 21
17.3873861
 31
0.0
 40
0.0283083978
 41
1.8821176731
 42
1.8855556537
  0
ENDSEC
  0
SECTION
  2
OBJECTS
  0
DICTIONARY
  5
C
100
AcDbDictionary
280
0
281
1
  3
ACAD_GROUP
350
D
  3
ACAD_MLINESTYLE
350
17
  3
ACAD_LAYOUT
350
1A
  3
ACAD_PLOTSETTINGS
350
19
  3
ACAD_PLOTSTYLENAME
350
E
  0
DICTIONARY
  5
D
102
{ACAD_REACTORS
330
C
102
}
100
AcDbDictionary
280
0
281
1
  0
ACDBDICTIONARYWDFLT
  5
E
102
{ACAD_REACTORS
330
C
102
}
100
AcDbDictionary
281
1
  3
Normal
350
F
100
AcDbDictionaryWithDefault
340
F
  0
DICTIONARY
  5
17
102
{ACAD_REACTORS
330
C
102
}
100
AcDbDictionary
280
0
281
1
  3
Standard
350
18
  0
DICTIONARY
  5
19
102
{ACAD_REACTORS
330
C
102
}
100
AcDbDictionary
281
1
  0
DICTIONARY
  5
1A
102
{ACAD_REACTORS
330
C
102
}
100
AcDbDictionary
281
1
  3
Model
350
285
  3
Layout1
350
286
  0
ACDBPLACEHOLDER
  5
F
102
{ACAD_REACTORS
330
E
102
}
  0
MLINESTYLE
  5
18
102
{ACAD_REACTORS
330
17
102
}
100
AcDbMlineStyle
  2
STANDARD
 70
0
  3

 62
256
 51
90.0
 52
90.0
 71
2
 49
0.5
 62
256
  6
BYLAYER
 49
-0.5
 62
256
  6
BYLAYER
  0
LAYOUT
  5
285
102
{ACAD_REACTORS
330
1A
102
}
100
AcDbPlotSettings
  1

  2
none_device
  4

  6

 40
0.0
 41
0.0
 42
0.0
 43
0.0
 44
210.0
 45
297.0
 46
0.0
 47
0.0
 48
0.0
 49
0.0
140
0.0
141
0.0
142
1.0
143
1.0
 70
1024
 72
1
 73
0
 74
0
  7

 75
0
147
1.0
148
0.0
149
0.0
100
AcDbLayout
  1
Model
 70
0
 71
0
 10
0.0
 20
0.0
 11
210.0
 21
297.0
 12
0.0
 22
0.0
 32
0.0
 14
0.0
 24
0.0
 34
0.0
 15
0.0
 25
0.0
 35
0.0
146
0.0
 13
0.0
 23
0.0
 33
0.0
 16
1.0
 26
0.0
 36
0.0
 17
0.0
 27
1.0
 37
0.0
 76
0
330
210
345
0
346
0
  0
LAYOUT
  5
286
102
{ACAD_REACTORS
330
1A
102
}
100
AcDbPlotSettings
  1

  2
none_device
  4

  6

 40
0.0
 41
0.0
 42
0.0
 43
0.0
 44
210.0
 45
297.0
 46
0.0
 47
0.0
 48
0.0
 49
0.0
140
0.0
141
0.0
142
1.0
143
1.0
 70
0
 72
1
 73
0
 74
0
  7

 75
0
147
1.0
148
0.0
149
0.0
100
AcDbLayout
  1
Layout1
 70
0
 71
1
 10
0.0
 20
0.0
 11
210.0
 21
297.0
 12
0.0
 22
0.0
 32
0.0
 14
0.0
 24
0.0
 34
0.0
 15
0.0
 25
0.0
 35
0.0
146
0.0
 13
0.0
 23
0.0
 33
0.0
 16
1.0
 26
0.0
 36
0.0
 17
0.0
 27
1.0
 37
0.0
 76
0
330
211
345
0
346
0
  0
ENDSEC
  0
EOF
