999
DXF file: C:\Users\sesa63760\Dev\_Creo\CAD\MCADPD0004121_3D-CAD\drw0001_1.dxf
999
Pro/ENGINEER 2019471 by Parametric Technology Corporation
  0
SECTION
  2
HEADER
  9
$ACADVER
  1
AC1024
  9
$DWGCODEPAGE
  3
ANSI_1252
  9
$EXTMAX
 10
57.9444878567
 20
81.9500613974
 30
0.0
  9
$EXTMIN
 10
0.0
 20
0.0
 30
0.0
  9
$LIMMIN
 10
0.0
 20
0.0
  9
$LIMMAX
 10
57.9444878567
 20
81.9500613974
  9
$VIEWCTR
 10
28.9722439284
 20
40.9750306987
  9
$VIEWSIZE
 40
81.9500613974
  9
$CLAYER
  8
0
  9
$LTSCALE
 40
5.3419299281
  9
$CELTYPE
  6
BYLAYER
  9
$DIMSCALE
 40
1.0
  9
$DIMASZ
 40
0.6898153316
  9
$DIMEXO
 40
1.0
  9
$DIMDLI
 40
3.6907879503
  9
$DIMEXE
 40
1.0
  9
$DIMCEN
 40
0.8741339882
  9
$DIMLFAC
 40
1.0
  9
$DIMBLK
  1
_FILLED
  9
$DIMALT
 70
0
  9
$DIMALTF
 40
0.0393700787
  9
$DIMTXT
 40
0.9657414643
  9
$DIMTOL
 70
1
  9
$DIMLIM
 70
0
  9
$DIMTFAC
 40
1.0
  9
$DIMTP
 40
0.01
  9
$DIMTM
 40
0.01
  9
$DIMGAP
 40
0.625
  9
$DIMDSEP
 70
46
  9
$AUNITS
 70
0
  9
$PDMODE
 70
3
  9
$PDSIZE
 40
0.3125
  9
$HANDSEED
  5
33A
  9
$TILEMODE
 70
1
  9
$MEASUREMENT
 70
1
  9
$INSUNITS
 70
4
  0
ENDSEC
  0
SECTION
  2
CLASSES
  0
CLASS
  1
ACDBDICTIONARYWDFLT
  2
AcDbDictionaryWithDefault
  3
AutoCAD 2000
 90
0
 91
1
280
0
281
0
  0
CLASS
  1
ACDBPLACEHOLDER
  2
AcDbPlaceHolder
  3
AutoCAD 2000
 90
0
 91
1
280
0
281
0
  0
CLASS
  1
LAYOUT
  2
AcDbLayout
  3
AutoCAD 2000
 90
0
 91
0
280
0
281
0
  0
ENDSEC
  0
SECTION
  2
TABLES
  0
TABLE
  2
VPORT
  5
8
100
AcDbSymbolTable
 70
2
  0
VPORT
  5
1F4
100
AcDbSymbolTableRecord
100
AcDbViewportTableRecord
  2
*ACTIVE
 70
0
 10
0.0
 20
0.0
 11
1.0
 21
1.0
 12
28.9722439284
 22
40.9750306987
 13
0.0
 23
0.0
 14
1.0
 24
1.0
 15
0.0
 25
0.0
 16
0.0
 26
0.0
 36
1.0
 17
0.0
 27
0.0
 37
0.0
 40
81.9500613974
 41
0.7070707071
 42
50.0
 43
0.0
 44
0.0
 50
0.0
 51
0.0
 71
0
 72
100
 73
1
 74
1
 75
0
 76
0
 77
0
 78
0
  0
ENDTAB
  0
TABLE
  2
LTYPE
  5
5
100
AcDbSymbolTable
 70
6
  0
LTYPE
  5
14
100
AcDbSymbolTableRecord
100
AcDbLinetypeTableRecord
  2
BYBLOCK
 70
0
  3

 72
65
 73
0
 40
0.0
  0
LTYPE
  5
15
100
AcDbSymbolTableRecord
100
AcDbLinetypeTableRecord
  2
BYLAYER
 70
0
  3

 72
65
 73
0
 40
0.0
  0
LTYPE
  5
16
100
AcDbSymbolTableRecord
100
AcDbLinetypeTableRecord
  2
CONTINUOUS
 70
64
  3
Solid line
 72
65
 73
0
 40
0.0
  0
LTYPE
  5
1F5
100
AcDbSymbolTableRecord
100
AcDbLinetypeTableRecord
  2
CENTER
 70
64
  3
____ _ ____ _ ____ _ ____ _ ____ _ ____ _ ____
 72
65
 73
4
 40
0.6
 49
0.375
 74
0
 49
-0.075
 74
0
 49
0.075
 74
0
 49
-0.075
 74
0
  0
LTYPE
  5
1F6
100
AcDbSymbolTableRecord
100
AcDbLinetypeTableRecord
  2
HIDDEN
 70
64
  3
- - - - - - - - - - - - - - - - - - - -
 72
65
 73
2
 40
0.2
 49
0.1
 74
0
 49
-0.1
 74
0
  0
LTYPE
  5
1F7
100
AcDbSymbolTableRecord
100
AcDbLinetypeTableRecord
  2
PHANTOM
 70
64
  3
_____ _ _ _____ _ _ _____ _ _ _____
 72
65
 73
6
 40
0.8
 49
0.45
 74
0
 49
-0.05
 74
0
 49
0.1
 74
0
 49
-0.05
 74
0
 49
0.1
 74
0
 49
-0.05
 74
0
  0
LTYPE
  5
1F8
100
AcDbSymbolTableRecord
100
AcDbLinetypeTableRecord
  2
DOT
 70
64
  3
. . . . . . . . . . . . . . . . . . . .
 72
65
 73
2
 40
0.2
 49
0.1
 74
0
 49
-0.1
 74
0
  0
LTYPE
  5
1F9
100
AcDbSymbolTableRecord
100
AcDbLinetypeTableRecord
  2
DASHED
 70
64
  3
- - - - - - - - - - - - - - - - - - - -
 72
65
 73
2
 40
0.2
 49
0.1
 74
0
 49
-0.1
 74
0
  0
ENDTAB
  0
TABLE
  2
LAYER
  5
2
100
AcDbSymbolTable
 70
36
  0
LAYER
  5
10
100
AcDbSymbolTableRecord
100
AcDbLayerTableRecord
  2
0
 70
0
 62
7
  6
CONTINUOUS
370
-3
390
F
  0
LAYER
  5
1FA
100
AcDbSymbolTableRecord
100
AcDbLayerTableRecord
  2
DEFAULT_1
 70
0
 62
7
  6
CENTER
370
-3
390
F
  0
LAYER
  5
1FB
100
AcDbSymbolTableRecord
100
AcDbLayerTableRecord
  2
DEFAULT_2
 70
0
 62
7
  6
HIDDEN
370
-3
390
F
  0
LAYER
  5
1FC
100
AcDbSymbolTableRecord
100
AcDbLayerTableRecord
  2
DEFAULT_3
 70
0
 62
7
  6
PHANTOM
370
-3
390
F
  0
LAYER
  5
1FD
100
AcDbSymbolTableRecord
100
AcDbLayerTableRecord
  2
00_COMPONENTS
 70
0
 62
7
  6
CONTINUOUS
370
-3
390
F
  0
LAYER
  5
1FE
100
AcDbSymbolTableRecord
100
AcDbLayerTableRecord
  2
01_1_DEFAULT_DATUMS
 70
0
 62
7
  6
CONTINUOUS
370
-3
390
F
  0
LAYER
  5
1FF
100
AcDbSymbolTableRecord
100
AcDbLayerTableRecord
  2
01_PLANES
 70
0
 62
7
  6
CONTINUOUS
370
-3
390
F
  0
LAYER
  5
200
100
AcDbSymbolTableRecord
100
AcDbLayerTableRecord
  2
02_COORD_SYS
 70
0
 62
7
  6
CONTINUOUS
370
-3
390
F
  0
LAYER
  5
201
100
AcDbSymbolTableRecord
100
AcDbLayerTableRecord
  2
03_AXES
 70
0
 62
7
  6
CONTINUOUS
370
-3
390
F
  0
LAYER
  5
202
100
AcDbSymbolTableRecord
100
AcDbLayerTableRecord
  2
04_POINTS
 70
0
 62
7
  6
CONTINUOUS
370
-3
390
F
  0
LAYER
  5
203
100
AcDbSymbolTableRecord
100
AcDbLayerTableRecord
  2
05_CURVES
 70
0
 62
7
  6
CONTINUOUS
370
-3
390
F
  0
LAYER
  5
204
100
AcDbSymbolTableRecord
100
AcDbLayerTableRecord
  2
06_SURFS
 70
0
 62
7
  6
CONTINUOUS
370
-3
390
F
  0
LAYER
  5
205
100
AcDbSymbolTableRecord
100
AcDbLayerTableRecord
  2
07_COSMETICS
 70
0
 62
7
  6
CONTINUOUS
370
-3
390
F
  0
LAYER
  5
206
100
AcDbSymbolTableRecord
100
AcDbLayerTableRecord
  2
10_NOTES
 70
0
 62
7
  6
CONTINUOUS
370
-3
390
F
  0
LAYER
  5
207
100
AcDbSymbolTableRecord
100
AcDbLayerTableRecord
  2
11_NOTES_PUB
 70
0
 62
7
  6
CONTINUOUS
370
-3
390
F
  0
LAYER
  5
208
100
AcDbSymbolTableRecord
100
AcDbLayerTableRecord
  2
13_REF_GTOL
 70
0
 62
7
  6
CONTINUOUS
370
-3
390
F
  0
LAYER
  5
209
100
AcDbSymbolTableRecord
100
AcDbLayerTableRecord
  2
16_MISC
 70
0
 62
7
  6
CONTINUOUS
370
-3
390
F
  0
LAYER
  5
20A
100
AcDbSymbolTableRecord
100
AcDbLayerTableRecord
  2
17_NO_PRINT
 70
0
 62
7
  6
CONTINUOUS
370
-3
390
F
  0
LAYER
  5
20B
100
AcDbSymbolTableRecord
100
AcDbLayerTableRecord
  2
18_DATUM_CAMS_JOINTS
 70
0
 62
7
  6
CONTINUOUS
370
-3
390
F
  0
LAYER
  5
20C
100
AcDbSymbolTableRecord
100
AcDbLayerTableRecord
  2
19_DATUM_FUNCTIONAL
 70
0
 62
7
  6
CONTINUOUS
370
-3
390
F
  0
LAYER
  5
20D
100
AcDbSymbolTableRecord
100
AcDbLayerTableRecord
  2
20_DATUM_KINEMATIC_SCHEME
 70
0
 62
7
  6
CONTINUOUS
370
-3
390
F
  0
ENDTAB
  0
TABLE
  2
STYLE
  5
3
100
AcDbSymbolTable
 70
1
  0
STYLE
  5
11
100
AcDbSymbolTableRecord
100
AcDbTextStyleTableRecord
  2
STANDARD
 70
0
 40
0.0
 41
1.0
 50
0.0
 71
0
 42
0.2
  3
ARIAL.TTF
  4

  0
STYLE
  5
20E
100
AcDbSymbolTableRecord
100
AcDbTextStyleTableRecord
  2
TEXTSTYLE_1
 70
0
 40
0.0
 41
0.8
 50
0.0
 71
0
 42
0.2
  3
gdt
  4

  0
ENDTAB
  0
TABLE
  2
VIEW
  5
6
100
AcDbSymbolTable
 70
0
  0
ENDTAB
  0
TABLE
  2
UCS
  5
7
100
AcDbSymbolTable
 70
0
  0
ENDTAB
  0
TABLE
  2
APPID
  5
9
100
AcDbSymbolTable
 70
1
  0
APPID
  5
20F
100
AcDbSymbolTableRecord
100
AcDbRegAppTableRecord
  2
ACAD
 70
0
  0
ENDTAB
  0
TABLE
  2
BLOCK_RECORD
  5
1
100
AcDbSymbolTable
 70
0
  0
BLOCK_RECORD
  5
210
100
AcDbSymbolTableRecord
100
AcDbBlockTableRecord
  2
*Model_Space
  0
BLOCK_RECORD
  5
211
100
AcDbSymbolTableRecord
100
AcDbBlockTableRecord
  2
*Paper_Space
  0
BLOCK_RECORD
  5
212
100
AcDbSymbolTableRecord
100
AcDbBlockTableRecord
  2
_FILLED
  0
ENDTAB
  0
TABLE
  2
DIMSTYLE
  5
A
100
AcDbSymbolTable
 70
1
100
AcDbDimStyleTable
 71
0
  0
DIMSTYLE
105
213
100
AcDbSymbolTableRecord
100
AcDbDimStyleTableRecord
  2
STANDARD
 70
0
  3

  4

 40
1.0
 41
0.6898153316
 42
1.0
 43
0.38
 44
1.0
 45
0.0
 46
0.0
 47
0.01
 48
0.01
140
0.9657414643
141
0.09
142
0.0
143
25.4
144
1.0
145
0.0
146
1.0
147
0.625
 71
1
 72
0
 73
0
 74
0
 75
0
 76
0
 77
1
 78
8
 79
2
170
0
171
1
172
0
173
0
174
0
175
0
176
0
177
0
178
0
270
2
179
2
271
2
272
2
273
2
274
2
275
0
280
0
281
0
282
0
283
1
284
8
285
0
286
0
287
3
288
0
340
11
278
46
341
212
342
212
343
212
344
212
  0
ENDTAB
  0
ENDSEC
  0
SECTION
  2
BLOCKS
  0
BLOCK
  5
20
100
AcDbEntity
  8
0
100
AcDbBlockBegin
  2
*Model_Space
 70
0
 10
0.0
 20
0.0
 30
0.0
  3
*Model_Space
  1

  0
ENDBLK
  5
21
100
AcDbEntity
  8
0
100
AcDbBlockEnd
  0
BLOCK
  5
1C
100
AcDbEntity
  8
0
100
AcDbBlockBegin
  2
*Paper_Space
 70
0
 10
0.0
 20
0.0
 30
0.0
  3
*Paper_Space
  1

  0
ENDBLK
  5
1D
100
AcDbEntity
  8
0
100
AcDbBlockEnd
  0
BLOCK
  5
214
100
AcDbEntity
  8
0
100
AcDbBlockBegin
  2
_FILLED
 70
64
 10
0.0
 20
0.0
  3
_FILLED
  1

  0
SOLID
  5
215
100
AcDbEntity
  8
0
  6
BYBLOCK
 62
0
100
AcDbTrace
 10
0.0
 20
0.0
 11
-1.0
 21
0.25
 12
-1.0
 22
-0.25
 13
-1.0
 23
-0.25
  0
ENDBLK
  5
216
100
AcDbEntity
  8
0
  6
BYBLOCK
 62
0
100
AcDbBlockEnd
  0
ENDSEC
  0
SECTION
  2
ENTITIES
  0
LINE
  5
217
100
AcDbEntity
  8
0
100
AcDbLine
 62
7
  6
BYLAYER
 10
18.621171476
 20
72.6384132079
 11
24.0658710225
 21
75.7818931927
  0
LINE
  5
218
100
AcDbEntity
  8
0
100
AcDbLine
 62
7
  6
BYLAYER
 10
19.1868592561
 20
72.3118206043
 11
20.8131980817
 21
73.2507821582
  0
LINE
  5
219
100
AcDbEntity
  8
0
100
AcDbLine
 62
7
  6
BYLAYER
 10
23.005219977
 20
74.5163390352
 11
24.6315588026
 21
75.4553005891
  0
LINE
  5
21A
100
AcDbEntity
  8
0
100
AcDbLine
 62
7
  6
BYLAYER
 10
20.7425006514
 20
71.4136909444
 11
22.368839477
 21
72.3526524983
  0
LINE
  5
21B
100
AcDbEntity
  8
0
100
AcDbLine
 62
7
  6
BYLAYER
 10
24.5608613724
 20
73.6182093753
 11
26.187200198
 21
74.5571709292
  0
LINE
  5
21C
100
AcDbEntity
  8
0
100
AcDbLine
 62
7
  6
BYLAYER
 10
21.3081884315
 20
71.0870983407
 11
26.7528879781
 21
74.2305783255
  0
LINE
  5
21D
100
AcDbEntity
  8
0
100
AcDbLine
 62
7
  6
BYLAYER
 10
40.6915353617
 20
11.0944187947
 11
40.5415411607
 21
11.0795660653
  0
LINE
  5
21E
100
AcDbEntity
  8
0
100
AcDbLine
 62
7
  6
BYLAYER
 10
34.8139871258
 20
9.5690552174
 11
34.6639910513
 21
9.5839068651
  0
LINE
  5
21F
100
AcDbEntity
  8
0
100
AcDbLine
 62
7
  6
BYLAYER
 10
15.0831153172
 20
66.7230804059
 11
16.2480267997
 21
67.3956383492
  0
LINE
  5
220
100
AcDbEntity
  8
0
100
AcDbLine
 62
7
  6
BYLAYER
 10
16.7473218724
 20
67.5148065741
 11
15.333114198
 21
66.6983182664
  0
LINE
  5
221
100
AcDbEntity
  8
0
100
AcDbLine
 62
7
  6
BYLAYER
 10
23.0417289502
 20
71.0264993093
 11
24.5255108914
 21
71.8831560989
  0
LINE
  5
222
100
AcDbEntity
  8
0
100
AcDbLine
 62
7
  6
BYLAYER
 10
16.8533883312
 20
67.4535704609
 11
18.2676195574
 21
68.2700723662
  0
LINE
  5
223
100
AcDbEntity
  8
0
100
AcDbLine
 62
7
  6
BYLAYER
 10
18.3711757177
 20
13.9887757157
 11
20.655047041
 21
12.6702118223
  0
LINE
  5
224
100
AcDbEntity
  8
0
100
AcDbLine
 62
7
  6
BYLAYER
 10
18.2676195574
 20
14.2176687896
 11
20.5424308151
 21
12.9043356092
  0
LINE
  5
225
100
AcDbEntity
  8
0
100
AcDbLine
 62
7
  6
BYLAYER
 10
18.1261976123
 20
65.085767286
 11
18.2676207793
 21
65.1674175021
  0
LINE
  5
226
100
AcDbEntity
  8
0
100
AcDbLine
 62
7
  6
BYLAYER
 10
18.8333073375
 20
64.8408270149
 11
20.3889487328
 21
65.7389716321
  0
LINE
  5
227
100
AcDbEntity
  8
0
100
AcDbLine
 62
7
  6
BYLAYER
 10
20.3889487328
 20
65.4123734871
 11
18.9747292825
 21
64.5958783806
  0
LINE
  5
228
100
AcDbEntity
  8
0
100
AcDbLine
 62
7
  6
BYLAYER
 10
35.0160788497
 20
6.4150925094
 11
20.9928957186
 21
14.5111979066
  0
LINE
  5
229
100
AcDbEntity
  8
0
100
AcDbLine
 62
7
  6
BYLAYER
 10
20.5424308151
 20
15.447693054
 11
34.6018542083
 21
7.330664805
  0
LINE
  5
22A
100
AcDbEntity
  8
0
100
AcDbLine
 62
7
  6
BYLAYER
 10
20.2475267878
 20
63.8610450224
 11
20.3889499547
 21
63.9426952386
  0
LINE
  5
22B
100
AcDbEntity
  8
0
100
AcDbLine
 62
7
  6
BYLAYER
 10
21.8031681831
 20
63.1262158459
 11
22.7931135552
 21
63.6977576613
  0
LINE
  5
22C
100
AcDbEntity
  8
0
100
AcDbLine
 62
7
  6
BYLAYER
 10
22.9345355002
 20
63.452809027
 11
21.9445901281
 21
62.8812672116
  0
LINE
  5
22D
100
AcDbEntity
  8
0
100
AcDbLine
 62
7
  6
BYLAYER
 10
34.8139871258
 20
9.5690552174
 11
36.0160736585
 21
8.8750459348
  0
LINE
  5
22E
100
AcDbEntity
  8
0
100
AcDbLine
 62
7
  6
BYLAYER
 10
39.1980309165
 20
7.2428316284
 11
40.4001174493
 21
6.5488223457
  0
LINE
  5
22F
100
AcDbEntity
  8
0
100
AcDbLine
 62
7
  6
BYLAYER
 10
40.965286345
 20
6.833450707
 11
41.0447447852
 21
6.7875721251
  0
LINE
  5
230
100
AcDbEntity
  8
0
100
AcDbLine
 62
7
  6
BYLAYER
 10
18.1261976123
 20
21.3212377279
 11
15.333114198
 21
22.9337887082
  0
LINE
  5
231
100
AcDbEntity
  8
0
100
AcDbLine
 62
7
  6
BYLAYER
 10
18.2261949954
 20
65.0758661875
 11
18.2676195574
 21
65.1674196185
  0
LINE
  5
232
100
AcDbEntity
  8
0
100
AcDbLine
 62
7
  6
BYLAYER
 10
40.7536723118
 20
10.9570885864
 11
40.5415384447
 21
11.079561361
  0
LINE
  5
233
100
AcDbEntity
  8
0
100
AcDbLine
 62
7
  6
BYLAYER
 10
15.333114198
 20
26.3630988602
 11
18.1261976123
 21
24.7505478798
  0
LINE
  5
234
100
AcDbEntity
  8
0
100
AcDbLine
 62
7
  6
BYLAYER
 10
20.3889487328
 20
70.2180363863
 11
19.8232527096
 21
68.7600287406
  0
LINE
  5
235
100
AcDbEntity
  8
0
100
AcDbLine
 62
7
  6
BYLAYER
 10
20.3475241708
 20
63.851143924
 11
20.3889487328
 21
63.942697355
  0
LINE
  5
236
100
AcDbEntity
  8
0
100
AcDbLine
 62
7
  6
BYLAYER
 10
18.1261976123
 20
24.7505478798
 11
18.2261949954
 21
24.7406467813
  0
LINE
  5
237
100
AcDbEntity
  8
0
100
AcDbLine
 62
7
  6
BYLAYER
 10
17.8644234277
 20
25.554865064
 11
18.2676195574
 21
25.3220849362
  0
LINE
  5
238
100
AcDbEntity
  8
0
100
AcDbLine
 62
7
  6
BYLAYER
 10
18.1472649626
 20
25.7181627255
 11
18.2676195574
 21
25.6486775398
  0
LINE
  5
239
100
AcDbEntity
  8
0
100
AcDbLine
 62
7
  6
BYLAYER
 10
16.7473218724
 20
27.1795871679
 11
18.2676195574
 21
26.301862747
  0
LINE
  5
23A
100
AcDbEntity
  8
0
100
AcDbLine
 62
7
  6
BYLAYER
 10
18.2676195574
 20
25.561834916
 11
18.238889237
 21
25.5938983412
  0
LINE
  5
23B
100
AcDbEntity
  8
0
100
AcDbLine
 62
7
  6
BYLAYER
 10
35.7697040125
 20
63.6781657301
 11
37.2534859441
 21
64.5348225169
  0
LINE
  5
23C
100
AcDbEntity
  8
0
100
AcDbLine
 62
7
  6
BYLAYER
 10
28.6831646403
 20
23.3096817878
 11
25.9540834382
 21
24.8852819096
  0
LINE
  5
23D
100
AcDbEntity
  8
0
100
AcDbLine
 62
7
  6
BYLAYER
 10
14.9795593354
 20
23.546160294
 11
14.9795593354
 21
26.1589680289
  0
LINE
  5
23E
100
AcDbEntity
  8
0
100
AcDbLine
 62
7
  6
BYLAYER
 10
14.9795593354
 20
63.8813797002
 11
14.9795593354
 21
66.4941874351
  0
LINE
  5
23F
100
AcDbEntity
  8
0
100
AcDbLine
 62
7
  6
BYLAYER
 10
37.2181531258
 20
19.6068439006
 11
36.9353115909
 21
19.7701388427
  0
LINE
  5
240
100
AcDbEntity
  8
0
100
AcDbLine
 62
7
  6
BYLAYER
 10
25.9540834382
 20
26.191685777
 11
28.6831646403
 21
24.6160856552
  0
LINE
  5
241
100
AcDbEntity
  8
0
100
AcDbLine
 62
7
  6
BYLAYER
 10
38.4909620068
 20
20.0967453391
 11
37.783843138
 21
20.5050029403
  0
LINE
  5
242
100
AcDbEntity
  8
0
100
AcDbLine
 62
7
  6
BYLAYER
 10
18.2676195574
 20
14.2176687896
 11
18.2676195574
 21
21.0762890935
  0
LINE
  5
243
100
AcDbEntity
  8
0
100
AcDbLine
 62
7
  6
BYLAYER
 10
18.2676195574
 20
24.8322002123
 11
18.2676195574
 21
61.4115084997
  0
LINE
  5
244
100
AcDbEntity
  8
0
100
AcDbLine
 62
7
  6
BYLAYER
 10
18.2676195574
 20
65.1674196185
 11
18.2676195574
 21
72.0260399224
  0
LINE
  5
245
100
AcDbEntity
  8
0
100
AcDbLine
 62
7
  6
BYLAYER
 10
18.8333073375
 20
64.8408270149
 11
18.8333073375
 21
71.6994473188
  0
LINE
  5
246
100
AcDbEntity
  8
0
100
AcDbLine
 62
7
  6
BYLAYER
 10
32.6926579504
 20
56.6760077429
 11
32.8340811173
 21
56.757657959
  0
LINE
  5
247
100
AcDbEntity
  8
0
100
AcDbLine
 62
7
  6
BYLAYER
 10
33.6826115656
 20
56.26777117
 11
34.4166194931
 21
56.6915483149
  0
LINE
  5
248
100
AcDbEntity
  8
0
100
AcDbLine
 62
7
  6
BYLAYER
 10
34.6738582901
 20
56.5134661721
 11
33.8240335106
 21
56.0228225357
  0
LINE
  5
249
100
AcDbEntity
  8
0
100
AcDbLine
 62
7
  6
BYLAYER
 10
36.9352892167
 20
56.7168150478
 11
39.8344149493
 21
58.3906160787
  0
LINE
  5
24A
100
AcDbEntity
  8
0
100
AcDbLine
 62
7
  6
BYLAYER
 10
26.024493734
 20
51.1360092576
 11
27.2151831711
 21
51.7549838097
  0
LINE
  5
24B
100
AcDbEntity
  8
0
100
AcDbLine
 62
7
  6
BYLAYER
 10
19.8232527096
 20
67.78022584
 11
19.8232527096
 21
68.7600287406
  0
LINE
  5
24C
100
AcDbEntity
  8
0
100
AcDbLine
 62
7
  6
BYLAYER
 10
20.3889487328
 20
63.942697355
 11
20.3889487328
 21
70.8013176589
  0
LINE
  5
24D
100
AcDbEntity
  8
0
100
AcDbLine
 62
7
  6
BYLAYER
 10
20.5424308151
 20
15.447693054
 11
20.5424308151
 21
12.9043356092
  0
LINE
  5
24E
100
AcDbEntity
  8
0
100
AcDbLine
 62
7
  6
BYLAYER
 10
20.8131980817
 20
71.4545078811
 11
20.8131980817
 21
73.2507821582
  0
LINE
  5
24F
100
AcDbEntity
  8
0
100
AcDbLine
 62
7
  6
BYLAYER
 10
20.9546365129
 20
70.4747250552
 11
20.9546365129
 21
67.9313676104
  0
LINE
  5
250
100
AcDbEntity
  8
0
100
AcDbLine
 62
7
  6
BYLAYER
 10
21.8031681831
 20
63.1262158459
 11
21.8031681831
 21
67.441478705
  0
LINE
  5
251
100
AcDbEntity
  8
0
100
AcDbLine
 62
7
  6
BYLAYER
 10
37.2194533006
 20
55.0437994558
 11
36.7231804397
 21
54.7572778963
  0
LINE
  5
252
100
AcDbEntity
  8
0
100
AcDbLine
 62
7
  6
BYLAYER
 10
43.0871149747
 20
22.7503196526
 11
37.7838361956
 21
25.8120998166
  0
LINE
  5
253
100
AcDbEntity
  8
0
100
AcDbLine
 62
7
  6
BYLAYER
 10
37.7838361956
 20
26.1841105664
 11
43.6371056428
 21
22.8048003256
  0
LINE
  5
254
100
AcDbEntity
  8
0
100
AcDbLine
 62
7
  6
BYLAYER
 10
22.7931135552
 20
63.6977576613
 11
22.7931135552
 21
69.5708078479
  0
LINE
  5
255
100
AcDbEntity
  8
0
100
AcDbLine
 62
7
  6
BYLAYER
 10
39.6223061723
 20
55.1655001806
 11
42.5214319049
 21
56.8393012115
  0
LINE
  5
256
100
AcDbEntity
  8
0
100
AcDbLine
 62
7
  6
BYLAYER
 10
24.9851107212
 20
73.8631483889
 11
24.9851107212
 21
75.2511714575
  0
LINE
  5
257
100
AcDbEntity
  8
0
100
AcDbLine
 62
7
  6
BYLAYER
 10
25.9540834382
 20
24.8852819096
 11
25.9540834382
 21
26.191685777
  0
LINE
  5
258
100
AcDbEntity
  8
0
100
AcDbLine
 62
7
  6
BYLAYER
 10
26.024493734
 20
51.1360092576
 11
26.024493734
 21
52.442413125
  0
LINE
  5
259
100
AcDbEntity
  8
0
100
AcDbLine
 62
7
  6
BYLAYER
 10
27.1064398967
 20
70.3930134377
 11
27.1064398967
 21
74.0264491939
  0
LINE
  5
25A
100
AcDbEntity
  8
0
100
AcDbLine
 62
7
  6
BYLAYER
 10
18.2261949954
 20
24.7406467813
 11
18.2676195574
 21
24.8322002123
  0
LINE
  5
25B
100
AcDbEntity
  8
0
100
AcDbLine
 62
7
  6
BYLAYER
 10
32.7926553334
 20
56.6661066444
 11
32.8340798954
 21
56.7576600754
  0
LINE
  5
25C
100
AcDbEntity
  8
0
100
AcDbLine
 62
7
  6
BYLAYER
 10
37.2181531258
 20
32.3442816078
 11
36.9353115909
 21
32.5075765499
  0
LINE
  5
25D
100
AcDbEntity
  8
0
100
AcDbLine
 62
7
  6
BYLAYER
 10
28.6127543445
 20
50.9481139703
 11
28.6127543445
 21
49.6417101029
  0
LINE
  5
25E
100
AcDbEntity
  8
0
100
AcDbLine
 62
7
  6
BYLAYER
 10
28.6831646403
 20
24.6160856552
 11
28.6831646403
 21
23.3096817878
  0
LINE
  5
25F
100
AcDbEntity
  8
0
100
AcDbLine
 62
7
  6
BYLAYER
 10
41.743617684
 20
49.5724374592
 11
38.4909400312
 21
47.6945143502
  0
LINE
  5
260
100
AcDbEntity
  8
0
100
AcDbLine
 62
7
  6
BYLAYER
 10
37.2181531258
 20
46.7147241493
 11
36.9353115909
 21
46.5514264878
  0
LINE
  5
261
100
AcDbEntity
  8
0
100
AcDbLine
 62
7
  6
BYLAYER
 10
40.7536723118
 20
10.9570885864
 11
40.6915353617
 21
11.0944187947
  0
LINE
  5
262
100
AcDbEntity
  8
0
100
AcDbLine
 62
7
  6
BYLAYER
 10
37.2181531258
 20
45.081719315
 11
36.9353115909
 21
44.9184216535
  0
LINE
  5
263
100
AcDbEntity
  8
0
100
AcDbLine
 62
7
  6
BYLAYER
 10
32.8340798954
 20
56.7576600754
 11
32.8340798954
 21
61.0729229345
  0
LINE
  5
264
100
AcDbEntity
  8
0
100
AcDbLine
 62
7
  6
BYLAYER
 10
33.6826115656
 20
56.26777117
 11
33.6826115656
 21
60.5830340291
  0
LINE
  5
265
100
AcDbEntity
  8
0
100
AcDbLine
 62
7
  6
BYLAYER
 10
34.6018542083
 20
9.4465767187
 11
34.6018542083
 21
7.330664805
  0
LINE
  5
266
100
AcDbEntity
  8
0
100
AcDbLine
 62
7
  6
BYLAYER
 10
36.0160736585
 20
8.8750459348
 11
36.0160736585
 21
54.7572761966
  0
LINE
  5
267
100
AcDbEntity
  8
0
100
AcDbLine
 62
7
  6
BYLAYER
 10
36.7231804397
 20
54.7572778963
 11
36.7231804397
 21
8.8750476344
  0
LINE
  5
268
100
AcDbEntity
  8
0
100
AcDbLine
 62
7
  6
BYLAYER
 10
36.9353115909
 20
19.4435462391
 11
36.9353115909
 21
21.0765510733
  0
LINE
  5
269
100
AcDbEntity
  8
0
100
AcDbLine
 62
7
  6
BYLAYER
 10
36.9353115909
 20
32.1809839463
 11
36.9353115909
 21
33.8139887805
  0
LINE
  5
26A
100
AcDbEntity
  8
0
100
AcDbLine
 62
7
  6
BYLAYER
 10
36.9353115909
 20
44.9184216535
 11
36.9353115909
 21
46.5514264878
  0
LINE
  5
26B
100
AcDbEntity
  8
0
100
AcDbLine
 62
7
  6
BYLAYER
 10
37.2181531258
 20
19.6068439006
 11
37.2181531258
 21
21.2398487349
  0
LINE
  5
26C
100
AcDbEntity
  8
0
100
AcDbLine
 62
7
  6
BYLAYER
 10
37.2181531258
 20
32.3442816078
 11
37.2181531258
 21
33.9772864421
  0
LINE
  5
26D
100
AcDbEntity
  8
0
100
AcDbLine
 62
7
  6
BYLAYER
 10
37.2181531258
 20
45.081719315
 11
37.2181531258
 21
46.7147241493
  0
LINE
  5
26E
100
AcDbEntity
  8
0
100
AcDbLine
 62
7
  6
BYLAYER
 10
15.0831153172
 20
26.3878609997
 11
16.2480267997
 21
27.060418943
  0
LINE
  5
26F
100
AcDbEntity
  8
0
100
AcDbLine
 62
7
  6
BYLAYER
 10
16.7473218724
 20
27.1795871679
 11
15.333114198
 21
26.3630988602
  0
LINE
  5
270
100
AcDbEntity
  8
0
100
AcDbLine
 62
7
  6
BYLAYER
 10
17.8644234277
 20
25.554865064
 11
18.1472649626
 21
25.7181627255
  0
LINE
  5
271
100
AcDbEntity
  8
0
100
AcDbLine
 62
7
  6
BYLAYER
 10
18.238889237
 20
25.5938983412
 11
18.0178535985
 21
25.4662841175
  0
LINE
  5
272
100
AcDbEntity
  8
0
100
AcDbLine
 62
7
  6
BYLAYER
 10
28.6127543445
 20
49.6417101029
 11
26.024493734
 21
51.1360092576
  0
LINE
  5
273
100
AcDbEntity
  8
0
100
AcDbLine
 62
7
  6
BYLAYER
 10
37.2181531258
 20
45.081719315
 11
36.9353115909
 21
45.2450142571
  0
LINE
  5
274
100
AcDbEntity
  8
0
100
AcDbLine
 62
7
  6
BYLAYER
 10
37.7838361956
 20
46.4697677804
 11
37.7838361956
 21
20.5049909157
  0
LINE
  5
275
100
AcDbEntity
  8
0
100
AcDbLine
 62
7
  6
BYLAYER
 10
38.7737668478
 20
7.2939719664
 11
38.7737668478
 21
10.0589471822
  0
LINE
  5
276
100
AcDbEntity
  8
0
100
AcDbLine
 62
7
  6
BYLAYER
 10
39.1980309165
 20
10.3038946943
 11
39.1980309165
 21
7.2428316284
  0
LINE
  5
277
100
AcDbEntity
  8
0
100
AcDbLine
 62
7
  6
BYLAYER
 10
18.1261976123
 20
24.7505478798
 11
18.2676207793
 21
24.8321980959
  0
LINE
  5
278
100
AcDbEntity
  8
0
100
AcDbLine
 62
7
  6
BYLAYER
 10
37.2181531258
 20
33.9772864421
 11
36.9353115909
 21
33.8139887805
  0
LINE
  5
279
100
AcDbEntity
  8
0
100
AcDbLine
 62
7
  6
BYLAYER
 10
26.024493734
 20
52.442413125
 11
28.6127543445
 21
50.9481139703
  0
LINE
  5
27A
100
AcDbEntity
  8
0
100
AcDbLine
 62
7
  6
BYLAYER
 10
39.8344149493
 20
58.3906160787
 11
39.8344149493
 21
63.0446798563
  0
LINE
  5
27B
100
AcDbEntity
  8
0
100
AcDbLine
 62
7
  6
BYLAYER
 10
40.7536723118
 20
6.7616462287
 11
40.7536723118
 21
10.9570885864
  0
LINE
  5
27C
100
AcDbEntity
  8
0
100
AcDbLine
 62
7
  6
BYLAYER
 10
37.2181531258
 20
32.3442816078
 11
36.9353115909
 21
32.1809839463
  0
LINE
  5
27D
100
AcDbEntity
  8
0
100
AcDbLine
 62
7
  6
BYLAYER
 10
25.9540834382
 20
24.8852819096
 11
27.1447729532
 21
25.5042564167
  0
LINE
  5
27E
100
AcDbEntity
  8
0
100
AcDbLine
 62
7
  6
BYLAYER
 10
18.1261976123
 20
61.6564571341
 11
15.333114198
 21
63.2690081144
  0
LINE
  5
27F
100
AcDbEntity
  8
0
100
AcDbLine
 62
7
  6
BYLAYER
 10
42.5214319049
 20
56.8393012115
 11
42.5214319049
 21
50.9196586873
  0
LINE
  5
280
100
AcDbEntity
  8
0
100
AcDbLine
 62
7
  6
BYLAYER
 10
43.8649291956
 20
22.301235563
 11
43.8649291956
 21
11.8558073278
  0
LINE
  5
281
100
AcDbEntity
  8
0
100
AcDbLine
 62
7
  6
BYLAYER
 10
32.6926579504
 20
56.6760077429
 11
21.9445901281
 21
62.8812672116
  0
LINE
  5
282
100
AcDbEntity
  8
0
100
AcDbLine
 62
7
  6
BYLAYER
 10
15.333114198
 20
66.6983182664
 11
18.1261976123
 21
65.085767286
  0
LINE
  5
283
100
AcDbEntity
  8
0
100
AcDbLine
 62
7
  6
BYLAYER
 10
18.9747292825
 20
64.5958783806
 11
20.2475267878
 21
63.8610450224
  0
LINE
  5
284
100
AcDbEntity
  8
0
100
AcDbLine
 62
7
  6
BYLAYER
 10
33.8240335106
 20
56.0228225357
 11
36.0160736585
 21
54.7572761966
  0
LINE
  5
285
100
AcDbEntity
  8
0
100
AcDbLine
 62
7
  6
BYLAYER
 10
34.6639910513
 20
9.5839068651
 11
34.6018542083
 21
9.4465767187
  0
LINE
  5
286
100
AcDbEntity
  8
0
100
AcDbLine
 62
7
  6
BYLAYER
 10
32.6926579504
 20
56.6760077429
 11
32.7926553334
 21
56.6661066444
  0
LINE
  5
287
100
AcDbEntity
  8
0
100
AcDbLine
 62
7
  6
BYLAYER
 10
37.2194533006
 20
55.0437994558
 11
34.6738582901
 21
56.5134661721
  0
LINE
  5
288
100
AcDbEntity
  8
0
100
AcDbLine
 62
7
  6
BYLAYER
 10
32.8340798954
 20
57.7374337047
 11
22.9345355002
 21
63.452809027
  0
LINE
  5
289
100
AcDbEntity
  8
0
100
AcDbLine
 62
7
  6
BYLAYER
 10
16.7473218724
 20
67.5148065741
 11
16.8533883312
 21
67.4535704609
  0
LINE
  5
28A
100
AcDbEntity
  8
0
100
AcDbLine
 62
7
  6
BYLAYER
 10
36.9352892167
 20
56.7168150478
 11
39.6223061723
 21
55.1655001806
  0
LINE
  5
28B
100
AcDbEntity
  8
0
100
AcDbLine
 62
7
  6
BYLAYER
 10
37.2194533006
 20
55.0437994558
 11
37.3724878607
 21
54.9428732264
  0
LINE
  5
28C
100
AcDbEntity
  8
0
100
AcDbLine
 62
7
  6
BYLAYER
 10
19.8232527096
 20
67.78022584
 11
20.3889487328
 21
67.4536284773
  0
LINE
  5
28D
100
AcDbEntity
  8
0
100
AcDbLine
 62
7
  6
BYLAYER
 10
33.6826115656
 20
60.5830340291
 11
32.8340798954
 21
61.0729229345
  0
LINE
  5
28E
100
AcDbEntity
  8
0
100
AcDbLine
 62
7
  6
BYLAYER
 10
21.8031681831
 20
67.441478705
 11
20.9546365129
 21
67.9313676104
  0
LINE
  5
28F
100
AcDbEntity
  8
0
100
AcDbLine
 62
7
  6
BYLAYER
 10
19.8232527096
 20
68.7600287406
 11
20.3889487328
 21
68.4334313779
  0
LINE
  5
290
100
AcDbEntity
  8
0
100
AcDbLine
 62
7
  6
BYLAYER
 10
39.8344149493
 20
58.3906160787
 11
42.5214319049
 21
56.8393012115
  0
LINE
  5
291
100
AcDbEntity
  8
0
100
AcDbLine
 62
7
  6
BYLAYER
 10
37.2181531258
 20
21.2398487349
 11
36.9353115909
 21
21.0765510733
  0
LINE
  5
292
100
AcDbEntity
  8
0
100
AcDbLine
 62
7
  6
BYLAYER
 10
37.2181531258
 20
19.6068439006
 11
36.9353115909
 21
19.4435462391
  0
LINE
  5
293
100
AcDbEntity
  8
0
100
AcDbLine
 62
7
  6
BYLAYER
 10
43.0871149747
 20
22.7503196526
 11
38.4909620068
 21
20.0967453391
  0
LINE
  5
294
100
AcDbEntity
  8
0
100
AcDbLine
 62
7
  6
BYLAYER
 10
20.9269147762
 20
12.6823482585
 11
22.6852144894
 21
13.5341593123
  0
LINE
  5
295
100
AcDbEntity
  8
0
100
AcDbLine
 62
7
  6
BYLAYER
 10
20.2475267878
 20
63.8610450224
 11
20.3475241708
 21
63.851143924
  0
LINE
  5
296
100
AcDbEntity
  8
0
100
AcDbLine
 62
7
  6
BYLAYER
 10
18.1261976123
 20
65.085767286
 11
18.2261949954
 21
65.0758661875
  0
LINE
  5
297
100
AcDbEntity
  8
0
100
AcDbLine
 62
7
  6
BYLAYER
 10
20.9546365129
 20
70.4747250552
 11
20.3889487328
 21
70.8013176589
  0
LINE
  5
298
100
AcDbEntity
  8
0
100
AcDbLine
 62
7
  6
BYLAYER
 10
18.8333073375
 20
71.6994473188
 11
18.2676195574
 21
72.0260399224
  0
LINE
  5
299
100
AcDbEntity
  8
0
100
AcDbLine
 62
7
  6
BYLAYER
 10
33.8240252675
 20
63.2022520774
 11
22.7931135552
 21
69.5708078479
  0
LINE
  5
29A
100
AcDbEntity
  8
0
100
AcDbLine
 62
7
  6
BYLAYER
 10
21.9989749499
 20
70.1104781582
 11
34.7269500026
 21
62.7621445768
  0
LINE
  5
29B
100
AcDbEntity
  8
0
100
AcDbLine
 62
7
  6
BYLAYER
 10
18.621171476
 20
72.6384132079
 11
19.1868592561
 21
72.3118206043
  0
LINE
  5
29C
100
AcDbEntity
  8
0
100
AcDbLine
 62
7
  6
BYLAYER
 10
20.7425006514
 20
71.4136909444
 11
21.3081884315
 21
71.0870983407
  0
LINE
  5
29D
100
AcDbEntity
  8
0
100
AcDbLine
 62
7
  6
BYLAYER
 10
23.0417289502
 20
71.0264993093
 11
35.7697040027
 21
63.6781657278
  0
LINE
  5
29E
100
AcDbEntity
  8
0
100
AcDbLine
 62
7
  6
BYLAYER
 10
20.8131980817
 20
73.2507821582
 11
22.368839477
 21
72.3526524983
  0
LINE
  5
29F
100
AcDbEntity
  8
0
100
AcDbLine
 62
7
  6
BYLAYER
 10
24.5255108914
 20
71.8831560989
 11
39.8344149493
 21
63.0446798563
  0
LINE
  5
2A0
100
AcDbEntity
  8
0
100
AcDbLine
 62
7
  6
BYLAYER
 10
43.8649291956
 20
11.8558073278
 11
40.9652859326
 21
6.8334505651
  0
LINE
  5
2A1
100
AcDbEntity
  8
0
100
AcDbLine
 62
7
  6
BYLAYER
 10
41.0447447852
 20
6.7875721251
 11
43.8000502387
 21
11.5599276528
  0
LINE
  5
2A2
100
AcDbEntity
  8
0
100
AcDbLine
 62
7
  6
BYLAYER
 10
23.005219977
 20
74.5163390352
 11
24.5608613724
 21
73.6182093753
  0
LINE
  5
2A3
100
AcDbEntity
  8
0
100
AcDbLine
 62
7
  6
BYLAYER
 10
26.7528879781
 20
74.2305783255
 11
26.187200198
 21
74.5571709292
  0
LINE
  5
2A4
100
AcDbEntity
  8
0
100
AcDbLine
 62
7
  6
BYLAYER
 10
24.6315588026
 20
75.4553005891
 11
24.0658710225
 21
75.7818931927
  0
LINE
  5
2A5
100
AcDbEntity
  8
0
100
AcDbLine
 62
7
  6
BYLAYER
 10
24.3158667808
 20
75.806657135
 11
24.8815545609
 21
75.4800645314
  0
LINE
  5
2A6
100
AcDbEntity
  8
0
100
AcDbLine
 62
7
  6
BYLAYER
 10
26.4371959562
 20
74.5819348714
 11
27.0028837363
 21
74.2553422678
  0
LINE
  5
2A7
100
AcDbEntity
  8
0
100
AcDbLine
 62
7
  6
BYLAYER
 10
34.8139889587
 20
9.5690520428
 11
34.6018542083
 21
9.4465767187
  0
LINE
  5
2A8
100
AcDbEntity
  8
0
100
AcDbLine
 62
7
  6
BYLAYER
 10
36.7231804397
 20
8.8750476344
 11
40.5415411607
 21
11.0795660653
  0
ARC
  5
2A9
100
AcDbEntity
  8
0
100
AcDbCircle
 62
7
  6
BYLAYER
 10
104.4413602724
 20
-15.5458347415
 40
104.8438773806
100
AcDbArc
 50
130.9188664043
 51
131.677373445
  0
ARC
  5
2AA
100
AcDbEntity
  8
0
100
AcDbCircle
 62
7
  6
BYLAYER
 10
91.4826031829
 20
-7.9347899955
 40
104.4942030613
100
AcDbArc
 50
130.917597306
 51
131.6786419458
  0
ARC
  5
2AB
100
AcDbEntity
  8
0
100
AcDbCircle
 62
7
  6
BYLAYER
 10
23.1844175218
 20
58.0495242362
 40
54.4066845229
100
AcDbArc
 50
288.687814436
 51
288.8618066412
  0
ARC
  5
2AC
100
AcDbEntity
  8
0
100
AcDbCircle
 62
7
  6
BYLAYER
 10
23.5533370978
 20
57.8002531823
 40
53.8589911829
100
AcDbArc
 50
288.6241437583
 51
288.8618674243
  0
ARC
  5
2AD
100
AcDbEntity
  8
0
100
AcDbCircle
 62
7
  6
BYLAYER
 10
22.4067337777
 20
56.2618300184
 40
51.6307165718
100
AcDbArc
 50
284.8580991073
 51
288.4817065001
  0
ARC
  5
2AE
100
AcDbEntity
  8
0
100
AcDbCircle
 62
7
  6
BYLAYER
 10
40.6117314824
 20
7.0375710843
 40
0.5
100
AcDbArc
 50
288.8479636919
 51
330.0001377225
  0
ARC
  5
2AF
100
AcDbEntity
  8
0
100
AcDbCircle
 62
7
  6
BYLAYER
 10
40.6836905508
 20
6.8066735796
 40
0.2591204324
100
AcDbArc
 50
307.4558315533
 51
313.5960827188
  0
SPLINE
  5
2B0
100
AcDbEntity
  8
0
100
AcDbSpline
 62
7
  6
BYLAYER
 70
0
 71
3
 72
11
 73
7
 74
0
 42
0.0000001
 43
0.0000001
 44
0.0000000001
 40
0.0
 40
0.0
 40
0.0
 40
0.0
 40
0.2895411595
 40
0.5491183966
 40
0.7822559144
 40
1.0
 40
1.0
 40
1.0
 40
1.0
 10
18.2676195574
 20
14.2176687896
 30
0.0
 10
18.2676195574
 20
14.1923493637
 30
0.0
 10
18.2714855781
 20
14.1441709375
 30
0.0
 10
18.2909621322
 20
14.0779653559
 30
0.0
 10
18.3238154144
 20
14.0242247874
 30
0.0
 10
18.3546996153
 20
13.9983202841
 30
0.0
 10
18.3711897056
 20
13.9887999443
 30
0.0
  0
SPLINE
  5
2B1
100
AcDbEntity
  8
0
100
AcDbSpline
 62
7
  6
BYLAYER
 70
0
 71
3
 72
13
 73
9
 74
0
 42
0.0000001
 43
0.0000001
 44
0.0000000001
 40
0.0
 40
0.0
 40
0.0
 40
0.0
 40
0.114175582
 40
0.23756922
 40
0.49999856
 40
0.7624286893
 40
0.8858231943
 40
1.0
 40
1.0
 40
1.0
 40
1.0
 10
18.621171476
 20
72.6384132079
 30
0.0
 10
18.5969853645
 20
72.6244494333
 30
0.0
 10
18.5491866031
 20
72.5909092127
 30
0.0
 10
18.4596404034
 20
72.507178344
 30
0.0
 10
18.3651414013
 20
72.3779847606
 30
0.0
 10
18.300506721
 20
72.2315489123
 30
0.0
 10
18.2727668905
 20
72.1121334482
 30
0.0
 10
18.2676195574
 20
72.053967896
 30
0.0
 10
18.2676195574
 20
72.0260399224
 30
0.0
  0
SPLINE
  5
2B2
100
AcDbEntity
  8
0
100
AcDbSpline
 62
7
  6
BYLAYER
 70
0
 71
3
 72
17
 73
13
 74
0
 42
0.0000001
 43
0.0000001
 44
0.0000000001
 40
0.0
 40
0.0
 40
0.0
 40
0.0
 40
0.0428572867
 40
0.087478901
 40
0.135317672
 40
0.1872741418
 40
0.304541533
 40
0.4382073532
 40
0.5825485752
 40
0.7296733781
 40
0.8713415196
 40
1.0
 40
1.0
 40
1.0
 40
1.0
 10
27.568612255
 20
37.4633777934
 30
0.0
 10
27.5809331263
 20
37.4705028253
 30
0.0
 10
27.6042960612
 20
37.4883804398
 30
0.0
 10
27.6324406847
 20
37.5239192334
 30
0.0
 10
27.653423122
 20
37.5674181484
 30
0.0
 10
27.6723337229
 20
37.6373240621
 30
0.0
 10
27.6746713372
 20
37.7392714281
 30
0.0
 10
27.648294939
 20
37.8686440968
 30
0.0
 10
27.5951141316
 20
38.0002138649
 30
0.0
 10
27.5194514967
 20
38.1233515751
 30
0.0
 10
27.4274681678
 20
38.2279494651
 30
0.0
 10
27.3556268184
 20
38.2832608255
 30
0.0
 10
27.3186240392
 20
38.3046239067
 30
0.0
  0
SPLINE
  5
2B3
100
AcDbEntity
  8
0
100
AcDbSpline
 62
7
  6
BYLAYER
 70
0
 71
3
 72
11
 73
7
 74
0
 42
0.0000001
 43
0.0000001
 44
0.0000000001
 40
0.0
 40
0.0
 40
0.0
 40
0.0
 40
0.2176907916
 40
0.4508868986
 40
0.7106214304
 40
1.0
 40
1.0
 40
1.0
 40
1.0
 10
32.6598022248
 20
13.7032328844
 30
0.0
 10
32.676295222
 20
13.7127384226
 30
0.0
 10
32.7071561287
 20
13.7386736096
 30
0.0
 10
32.7400433959
 20
13.7924046308
 30
0.0
 10
32.7594790353
 20
13.8586304216
 30
0.0
 10
32.7633689229
 20
13.9068023327
 30
0.0
 10
32.7633689229
 20
13.9321072516
 30
0.0
  0
SPLINE
  5
2B4
100
AcDbEntity
  8
0
100
AcDbSpline
 62
7
  6
BYLAYER
 70
0
 71
3
 72
11
 73
7
 74
0
 42
0.0000001
 43
0.0000001
 44
0.0000000001
 40
0.0
 40
0.0
 40
0.0
 40
0.0
 40
0.2176907916
 40
0.4508868986
 40
0.7106214304
 40
1.0
 40
1.0
 40
1.0
 40
1.0
 10
23.7502196879
 20
18.8470663914
 30
0.0
 10
23.7667126851
 20
18.8565719295
 30
0.0
 10
23.7975735919
 20
18.8825071166
 30
0.0
 10
23.8304608591
 20
18.9362381377
 30
0.0
 10
23.8498964985
 20
19.0024639286
 30
0.0
 10
23.853786386
 20
19.0506358396
 30
0.0
 10
23.853786386
 20
19.0759407585
 30
0.0
  0
SPLINE
  5
2B5
100
AcDbEntity
  8
0
100
AcDbSpline
 62
7
  6
BYLAYER
 70
0
 71
3
 72
11
 73
7
 74
0
 42
0.0000001
 43
0.0000001
 44
0.0000000001
 40
0.0
 40
0.0
 40
0.0
 40
0.0
 40
0.2176907916
 40
0.4508868986
 40
0.7106214304
 40
1.0
 40
1.0
 40
1.0
 40
1.0
 10
34.0033107025
 20
33.7483870877
 30
0.0
 10
34.0198036998
 20
33.7578926258
 30
0.0
 10
34.0506646065
 20
33.7838278129
 30
0.0
 10
34.0835518737
 20
33.837558834
 30
0.0
 10
34.1029875131
 20
33.9037846248
 30
0.0
 10
34.1068774007
 20
33.9519565359
 30
0.0
 10
34.1068774007
 20
33.9772614548
 30
0.0
  0
SPLINE
  5
2B6
100
AcDbEntity
  8
0
100
AcDbSpline
 62
7
  6
BYLAYER
 70
0
 71
3
 72
11
 73
7
 74
0
 42
0.0000001
 43
0.0000001
 44
0.0000000001
 40
0.0
 40
0.0
 40
0.0
 40
0.0
 40
0.2176907916
 40
0.4508868986
 40
0.7106214304
 40
1.0
 40
1.0
 40
1.0
 40
1.0
 10
20.5682259248
 20
41.5049614235
 30
0.0
 10
20.584718922
 20
41.5144669617
 30
0.0
 10
20.6155798287
 20
41.5404021487
 30
0.0
 10
20.6484670959
 20
41.5941331699
 30
0.0
 10
20.6679027353
 20
41.6603589607
 30
0.0
 10
20.6717926229
 20
41.7085308718
 30
0.0
 10
20.6717926229
 20
41.7338357907
 30
0.0
  0
SPLINE
  5
2B7
100
AcDbEntity
  8
0
100
AcDbSpline
 62
7
  6
BYLAYER
 70
0
 71
3
 72
11
 73
7
 74
0
 42
0.0000001
 43
0.0000001
 44
0.0000000001
 40
0.0
 40
0.0
 40
0.0
 40
0.0
 40
0.2176907916
 40
0.4508868986
 40
0.7106214304
 40
1.0
 40
1.0
 40
1.0
 40
1.0
 10
34.0033107025
 20
21.5008508307
 30
0.0
 10
34.0198036998
 20
21.5103563689
 30
0.0
 10
34.0506646065
 20
21.5362915559
 30
0.0
 10
34.0835518737
 20
21.5900225771
 30
0.0
 10
34.1029875131
 20
21.6562483679
 30
0.0
 10
34.1068774007
 20
21.7044202789
 30
0.0
 10
34.1068774007
 20
21.7297251978
 30
0.0
  0
SPLINE
  5
2B8
100
AcDbEntity
  8
0
100
AcDbSpline
 62
7
  6
BYLAYER
 70
0
 71
3
 72
11
 73
7
 74
0
 42
0.0000001
 43
0.0000001
 44
0.0000000001
 40
0.0
 40
0.0
 40
0.0
 40
0.0
 40
0.2176907916
 40
0.4508868986
 40
0.7106214304
 40
1.0
 40
1.0
 40
1.0
 40
1.0
 10
34.0033107025
 20
27.2163677506
 30
0.0
 10
34.0198036998
 20
27.2258732888
 30
0.0
 10
34.0506646065
 20
27.2518084758
 30
0.0
 10
34.0835518737
 20
27.305539497
 30
0.0
 10
34.1029875131
 20
27.3717652878
 30
0.0
 10
34.1068774007
 20
27.4199371988
 30
0.0
 10
34.1068774007
 20
27.4452421177
 30
0.0
  0
SPLINE
  5
2B9
100
AcDbEntity
  8
0
100
AcDbSpline
 62
7
  6
BYLAYER
 70
0
 71
3
 72
11
 73
7
 74
0
 42
0.0000001
 43
0.0000001
 44
0.0000000001
 40
0.0
 40
0.0
 40
0.0
 40
0.0
 40
0.2176907916
 40
0.4508868986
 40
0.7106214304
 40
1.0
 40
1.0
 40
1.0
 40
1.0
 10
34.0033107025
 20
45.9959233446
 30
0.0
 10
34.0198036998
 20
46.0054288827
 30
0.0
 10
34.0506646065
 20
46.0313640698
 30
0.0
 10
34.0835518737
 20
46.0850950909
 30
0.0
 10
34.1029875131
 20
46.1513208818
 30
0.0
 10
34.1068774007
 20
46.1994927928
 30
0.0
 10
34.1068774007
 20
46.2247977117
 30
0.0
  0
SPLINE
  5
2BA
100
AcDbEntity
  8
0
100
AcDbSpline
 62
7
  6
BYLAYER
 70
0
 71
3
 72
11
 73
7
 74
0
 42
0.0000001
 43
0.0000001
 44
0.0000000001
 40
0.0
 40
0.0
 40
0.0
 40
0.0
 40
0.2176907916
 40
0.4508868986
 40
0.7106214304
 40
1.0
 40
1.0
 40
1.0
 40
1.0
 10
34.0033107025
 20
40.2804064247
 30
0.0
 10
34.0198036998
 20
40.2899119628
 30
0.0
 10
34.0506646065
 20
40.3158471499
 30
0.0
 10
34.0835518737
 20
40.369578171
 30
0.0
 10
34.1029875131
 20
40.4358039619
 30
0.0
 10
34.1068774007
 20
40.4839758729
 30
0.0
 10
34.1068774007
 20
40.5092807918
 30
0.0
  0
SPLINE
  5
2BB
100
AcDbEntity
  8
0
100
AcDbSpline
 62
7
  6
BYLAYER
 70
0
 71
3
 72
11
 73
7
 74
0
 42
0.0000001
 43
0.0000001
 44
0.0000000001
 40
0.0
 40
0.0
 40
0.0
 40
0.0
 40
0.2176907916
 40
0.4508868986
 40
0.7106214304
 40
1.0
 40
1.0
 40
1.0
 40
1.0
 10
20.5682259248
 20
29.2574251666
 30
0.0
 10
20.584718922
 20
29.2669307047
 30
0.0
 10
20.6155798287
 20
29.2928658918
 30
0.0
 10
20.6484670959
 20
29.3465969129
 30
0.0
 10
20.6679027353
 20
29.4128227038
 30
0.0
 10
20.6717926229
 20
29.4609946148
 30
0.0
 10
20.6717926229
 20
29.4862995337
 30
0.0
  0
SPLINE
  5
2BC
100
AcDbEntity
  8
0
100
AcDbSpline
 62
7
  6
BYLAYER
 70
0
 71
3
 72
11
 73
7
 74
0
 42
0.0000001
 43
0.0000001
 44
0.0000000001
 40
0.0
 40
0.0
 40
0.0
 40
0.0
 40
0.2176907916
 40
0.4508868986
 40
0.7106214304
 40
1.0
 40
1.0
 40
1.0
 40
1.0
 10
20.5682259248
 20
34.9729420865
 30
0.0
 10
20.584718922
 20
34.9824476246
 30
0.0
 10
20.6155798287
 20
35.0083828117
 30
0.0
 10
20.6484670959
 20
35.0621138328
 30
0.0
 10
20.6679027353
 20
35.1283396237
 30
0.0
 10
20.6717926229
 20
35.1765115347
 30
0.0
 10
20.6717926229
 20
35.2018164536
 30
0.0
  0
SPLINE
  5
2BD
100
AcDbEntity
  8
0
100
AcDbSpline
 62
7
  6
BYLAYER
 70
0
 71
3
 72
11
 73
7
 74
0
 42
0.0000001
 43
0.0000001
 44
0.0000000001
 40
0.0
 40
0.0
 40
0.0
 40
0.0
 40
0.2176907916
 40
0.4508868986
 40
0.7106214304
 40
1.0
 40
1.0
 40
1.0
 40
1.0
 10
20.5682259248
 20
53.7524976805
 30
0.0
 10
20.584718922
 20
53.7620032186
 30
0.0
 10
20.6155798287
 20
53.7879384057
 30
0.0
 10
20.6484670959
 20
53.8416694268
 30
0.0
 10
20.6679027353
 20
53.9078952177
 30
0.0
 10
20.6717926229
 20
53.9560671287
 30
0.0
 10
20.6717926229
 20
53.9813720476
 30
0.0
  0
SPLINE
  5
2BE
100
AcDbEntity
  8
0
100
AcDbSpline
 62
7
  6
BYLAYER
 70
0
 71
3
 72
11
 73
7
 74
0
 42
0.0000001
 43
0.0000001
 44
0.0000000001
 40
0.0
 40
0.0
 40
0.0
 40
0.0
 40
0.2176907916
 40
0.4508868986
 40
0.7106214304
 40
1.0
 40
1.0
 40
1.0
 40
1.0
 10
20.5682259248
 20
48.0369807606
 30
0.0
 10
20.584718922
 20
48.0464862987
 30
0.0
 10
20.6155798287
 20
48.0724214858
 30
0.0
 10
20.6484670959
 20
48.1261525069
 30
0.0
 10
20.6679027353
 20
48.1923782977
 30
0.0
 10
20.6717926229
 20
48.2405502088
 30
0.0
 10
20.6717926229
 20
48.2658551277
 30
0.0
  0
SPLINE
  5
2BF
100
AcDbEntity
  8
0
100
AcDbSpline
 62
7
  6
BYLAYER
 70
0
 71
3
 72
11
 73
7
 74
0
 42
0.0000001
 43
0.0000001
 44
0.0000000001
 40
0.0
 40
0.0
 40
0.0
 40
0.0
 40
0.2176907916
 40
0.4508868986
 40
0.7106214304
 40
1.0
 40
1.0
 40
1.0
 40
1.0
 10
24.8108842756
 20
26.8079806395
 30
0.0
 10
24.8273772729
 20
26.8174861776
 30
0.0
 10
24.8582381796
 20
26.8434213647
 30
0.0
 10
24.8911254468
 20
26.8971523858
 30
0.0
 10
24.9105610862
 20
26.9633781766
 30
0.0
 10
24.9144509737
 20
27.0115500877
 30
0.0
 10
24.9144509737
 20
27.0368550066
 30
0.0
  0
SPLINE
  5
2C0
100
AcDbEntity
  8
0
100
AcDbSpline
 62
7
  6
BYLAYER
 70
0
 71
3
 72
11
 73
7
 74
0
 42
0.0000001
 43
0.0000001
 44
0.0000000001
 40
0.0
 40
0.0
 40
0.0
 40
0.0
 40
0.2176907916
 40
0.4508868986
 40
0.7106214304
 40
1.0
 40
1.0
 40
1.0
 40
1.0
 10
24.8108842756
 20
51.3030531534
 30
0.0
 10
24.8273772729
 20
51.3125586915
 30
0.0
 10
24.8582381796
 20
51.3384938786
 30
0.0
 10
24.8911254468
 20
51.3922248997
 30
0.0
 10
24.9105610862
 20
51.4584506905
 30
0.0
 10
24.9144509737
 20
51.5066226016
 30
0.0
 10
24.9144509737
 20
51.5319275205
 30
0.0
  0
SPLINE
  5
2C1
100
AcDbEntity
  8
0
100
AcDbSpline
 62
7
  6
BYLAYER
 70
0
 71
3
 72
11
 73
7
 74
0
 42
0.0000001
 43
0.0000001
 44
0.0000000001
 40
0.0
 40
0.0
 40
0.0
 40
0.0
 40
0.2176907916
 40
0.4508868986
 40
0.7106214304
 40
1.0
 40
1.0
 40
1.0
 40
1.0
 10
30.6798949944
 20
23.419582377
 30
0.0
 10
30.6963879916
 20
23.4290879151
 30
0.0
 10
30.7272488983
 20
23.4550231022
 30
0.0
 10
30.7601361655
 20
23.5087541233
 30
0.0
 10
30.7795718049
 20
23.5749799141
 30
0.0
 10
30.7834616925
 20
23.6231518252
 30
0.0
 10
30.7834616925
 20
23.6484567441
 30
0.0
  0
SPLINE
  5
2C2
100
AcDbEntity
  8
0
100
AcDbSpline
 62
7
  6
BYLAYER
 70
0
 71
3
 72
11
 73
7
 74
0
 42
0.0000001
 43
0.0000001
 44
0.0000000001
 40
0.0
 40
0.0
 40
0.0
 40
0.0
 40
0.2372444228
 40
0.5000010918
 40
0.7627571666
 40
1.0
 40
1.0
 40
1.0
 40
1.0
 10
18.2676195574
 20
21.0762890935
 30
0.0
 10
18.2676195574
 20
21.099473325
 30
0.0
 10
18.2589213852
 20
21.1483661299
 30
0.0
 10
18.2286136041
 20
21.2170687356
 30
0.0
 10
18.1842691106
 20
21.2776670201
 30
0.0
 10
18.1462757248
 20
21.3096458865
 30
0.0
 10
18.1261976123
 20
21.3212377279
 30
0.0
  0
SPLINE
  5
2C3
100
AcDbEntity
  8
0
100
AcDbSpline
 62
7
  6
BYLAYER
 70
0
 71
3
 72
13
 73
9
 74
0
 42
0.0000001
 43
0.0000001
 44
0.0000000001
 40
0.0
 40
0.0
 40
0.0
 40
0.0
 40
0.1141759018
 40
0.2375697245
 40
0.4999990825
 40
0.762428944
 40
0.8858232992
 40
1.0
 40
1.0
 40
1.0
 40
1.0
 10
15.333114198
 20
22.9337887082
 30
0.0
 10
15.308927904
 20
22.9477523557
 30
0.0
 10
15.2611287694
 20
22.9812923213
 30
0.0
 10
15.1715818527
 20
23.0650227194
 30
0.0
 10
15.07708204
 20
23.1942158301
 30
0.0
 10
15.0124467758
 20
23.3406514475
 30
0.0
 10
14.9847067089
 20
23.4600668047
 30
0.0
 10
14.9795593354
 20
23.5182323298
 30
0.0
 10
14.9795593354
 20
23.546160294
 30
0.0
  0
SPLINE
  5
2C4
100
AcDbEntity
  8
0
100
AcDbSpline
 62
7
  6
BYLAYER
 70
0
 71
3
 72
11
 73
7
 74
0
 42
0.0000001
 43
0.0000001
 44
0.0000000001
 40
0.0
 40
0.0
 40
0.0
 40
0.0
 40
0.2895401978
 40
0.5491171512
 40
0.782255066
 40
1.0
 40
1.0
 40
1.0
 40
1.0
 10
14.9795593354
 20
26.1589680289
 30
0.0
 10
14.9795593354
 20
26.1842873404
 30
0.0
 10
14.9834253603
 20
26.2324655997
 30
0.0
 10
15.0029018949
 20
26.2986710208
 30
0.0
 10
15.0357551277
 20
26.3524116143
 30
0.0
 10
15.0666392386
 20
26.3783162875
 30
0.0
 10
15.0831293052
 20
26.3878367712
 30
0.0
  0
SPLINE
  5
2C5
100
AcDbEntity
  8
0
100
AcDbSpline
 62
7
  6
BYLAYER
 70
0
 71
3
 72
11
 73
7
 74
0
 42
0.0000001
 43
0.0000001
 44
0.0000000001
 40
0.0
 40
0.0
 40
0.0
 40
0.0
 40
0.2372444228
 40
0.5000010918
 40
0.7627571666
 40
1.0
 40
1.0
 40
1.0
 40
1.0
 10
18.2676195574
 20
61.4115084997
 30
0.0
 10
18.2676195574
 20
61.4346927312
 30
0.0
 10
18.2589213852
 20
61.4835855361
 30
0.0
 10
18.2286136041
 20
61.5522881418
 30
0.0
 10
18.1842691106
 20
61.6128864263
 30
0.0
 10
18.1462757248
 20
61.6448652927
 30
0.0
 10
18.1261976123
 20
61.6564571341
 30
0.0
  0
SPLINE
  5
2C6
100
AcDbEntity
  8
0
100
AcDbSpline
 62
7
  6
BYLAYER
 70
0
 71
3
 72
13
 73
9
 74
0
 42
0.0000001
 43
0.0000001
 44
0.0000000001
 40
0.0
 40
0.0
 40
0.0
 40
0.0
 40
0.1141759018
 40
0.2375697245
 40
0.4999990825
 40
0.762428944
 40
0.8858232992
 40
1.0
 40
1.0
 40
1.0
 40
1.0
 10
15.333114198
 20
63.2690081144
 30
0.0
 10
15.308927904
 20
63.2829717619
 30
0.0
 10
15.2611287694
 20
63.3165117275
 30
0.0
 10
15.1715818527
 20
63.4002421256
 30
0.0
 10
15.07708204
 20
63.5294352363
 30
0.0
 10
15.0124467758
 20
63.6758708537
 30
0.0
 10
14.9847067089
 20
63.7952862109
 30
0.0
 10
14.9795593354
 20
63.853451736
 30
0.0
 10
14.9795593354
 20
63.8813797002
 30
0.0
  0
SPLINE
  5
2C7
100
AcDbEntity
  8
0
100
AcDbSpline
 62
7
  6
BYLAYER
 70
0
 71
3
 72
11
 73
7
 74
0
 42
0.0000001
 43
0.0000001
 44
0.0000000001
 40
0.0
 40
0.0
 40
0.0
 40
0.0
 40
0.2895401978
 40
0.5491171512
 40
0.782255066
 40
1.0
 40
1.0
 40
1.0
 40
1.0
 10
14.9795593354
 20
66.4941874351
 30
0.0
 10
14.9795593354
 20
66.5195067466
 30
0.0
 10
14.9834253603
 20
66.5676850059
 30
0.0
 10
15.0029018949
 20
66.633890427
 30
0.0
 10
15.0357551277
 20
66.6876310205
 30
0.0
 10
15.0666392386
 20
66.7135356937
 30
0.0
 10
15.0831293052
 20
66.7230561774
 30
0.0
  0
SPLINE
  5
2C8
100
AcDbEntity
  8
0
100
AcDbSpline
 62
7
  6
BYLAYER
 70
0
 71
3
 72
17
 73
13
 74
0
 42
0.0000001
 43
0.0000001
 44
0.0000000001
 40
0.0
 40
0.0
 40
0.0
 40
0.0
 40
0.1286583215
 40
0.2703136878
 40
0.417429293
 40
0.5617691287
 40
0.6954408117
 40
0.8127129847
 40
0.8646719982
 40
0.912513003
 40
0.9571378773
 40
1.0
 40
1.0
 40
1.0
 40
1.0
 10
30.7834616925
 20
48.143529258
 30
0.0
 10
30.7834616925
 20
48.1862557613
 30
0.0
 10
30.7714823025
 20
48.2761228848
 30
0.0
 10
30.7268930519
 20
48.4080737912
 30
0.0
 10
30.6580921394
 20
48.5351626938
 30
0.0
 10
30.5707425155
 20
48.6470022855
 30
0.0
 10
30.4718921638
 20
48.7345357207
 30
0.0
 10
30.3824328182
 20
48.7834900564
 30
0.0
 10
30.3124358655
 20
48.8020696455
 30
0.0
 10
30.2642709595
 20
48.8056524133
 30
0.0
 10
30.2194190452
 20
48.7990425883
 30
0.0
 10
30.1922512496
 20
48.7877521144
 30
0.0
 10
30.1799186654
 20
48.7806443796
 30
0.0
  0
SPLINE
  5
2C9
100
AcDbEntity
  8
0
100
AcDbSpline
 62
7
  6
BYLAYER
 70
0
 71
3
 72
17
 73
13
 74
0
 42
0.0000001
 43
0.0000001
 44
0.0000000001
 40
0.0
 40
0.0
 40
0.0
 40
0.0
 40
0.1286583215
 40
0.2703136878
 40
0.417429293
 40
0.5617691287
 40
0.6954408117
 40
0.8127129847
 40
0.8646719982
 40
0.912513003
 40
0.9571378773
 40
1.0
 40
1.0
 40
1.0
 40
1.0
 10
30.7834616925
 20
23.6484567441
 30
0.0
 10
30.7834616925
 20
23.6911832474
 30
0.0
 10
30.7714823025
 20
23.7810503709
 30
0.0
 10
30.7268930519
 20
23.9130012774
 30
0.0
 10
30.6580921394
 20
24.0400901799
 30
0.0
 10
30.5707425155
 20
24.1519297716
 30
0.0
 10
30.4718921638
 20
24.2394632068
 30
0.0
 10
30.3824328182
 20
24.2884175425
 30
0.0
 10
30.3124358655
 20
24.3069971316
 30
0.0
 10
30.2642709595
 20
24.3105798994
 30
0.0
 10
30.2194190452
 20
24.3039700744
 30
0.0
 10
30.1922512496
 20
24.2926796005
 30
0.0
 10
30.1799186654
 20
24.2855718657
 30
0.0
  0
SPLINE
  5
2CA
100
AcDbEntity
  8
0
100
AcDbSpline
 62
7
  6
BYLAYER
 70
0
 71
3
 72
17
 73
13
 74
0
 42
0.0000001
 43
0.0000001
 44
0.0000000001
 40
0.0
 40
0.0
 40
0.0
 40
0.0
 40
0.1286583215
 40
0.2703136878
 40
0.417429293
 40
0.5617691287
 40
0.6954408117
 40
0.8127129847
 40
0.8646719982
 40
0.912513003
 40
0.9571378773
 40
1.0
 40
1.0
 40
1.0
 40
1.0
 10
24.9144509737
 20
51.5319275205
 30
0.0
 10
24.9144509737
 20
51.5746540238
 30
0.0
 10
24.9024715838
 20
51.6645211473
 30
0.0
 10
24.8578823332
 20
51.7964720538
 30
0.0
 10
24.7890814207
 20
51.9235609564
 30
0.0
 10
24.7017317968
 20
52.0354005481
 30
0.0
 10
24.6028814451
 20
52.1229339832
 30
0.0
 10
24.5134220995
 20
52.1718883189
 30
0.0
 10
24.4434251467
 20
52.190467908
 30
0.0
 10
24.3952602408
 20
52.1940506758
 30
0.0
 10
24.3504083265
 20
52.1874408509
 30
0.0
 10
24.3232405309
 20
52.1761503769
 30
0.0
 10
24.3109079467
 20
52.1690426421
 30
0.0
  0
SPLINE
  5
2CB
100
AcDbEntity
  8
0
100
AcDbSpline
 62
7
  6
BYLAYER
 70
0
 71
3
 72
17
 73
13
 74
0
 42
0.0000001
 43
0.0000001
 44
0.0000000001
 40
0.0
 40
0.0
 40
0.0
 40
0.0
 40
0.1286583215
 40
0.2703136878
 40
0.417429293
 40
0.5617691287
 40
0.6954408117
 40
0.8127129847
 40
0.8646719982
 40
0.912513003
 40
0.9571378773
 40
1.0
 40
1.0
 40
1.0
 40
1.0
 10
24.9144509737
 20
27.0368550066
 30
0.0
 10
24.9144509737
 20
27.0795815099
 30
0.0
 10
24.9024715838
 20
27.1694486334
 30
0.0
 10
24.8578823332
 20
27.3013995399
 30
0.0
 10
24.7890814207
 20
27.4284884425
 30
0.0
 10
24.7017317968
 20
27.5403280342
 30
0.0
 10
24.6028814451
 20
27.6278614693
 30
0.0
 10
24.5134220995
 20
27.676815805
 30
0.0
 10
24.4434251467
 20
27.6953953941
 30
0.0
 10
24.3952602408
 20
27.698978162
 30
0.0
 10
24.3504083265
 20
27.692368337
 30
0.0
 10
24.3232405309
 20
27.681077863
 30
0.0
 10
24.3109079467
 20
27.6739701282
 30
0.0
  0
SPLINE
  5
2CC
100
AcDbEntity
  8
0
100
AcDbSpline
 62
7
  6
BYLAYER
 70
0
 71
3
 72
17
 73
13
 74
0
 42
0.0000001
 43
0.0000001
 44
0.0000000001
 40
0.0
 40
0.0
 40
0.0
 40
0.0
 40
0.1286583215
 40
0.2703136878
 40
0.417429293
 40
0.5617691287
 40
0.6954408117
 40
0.8127129847
 40
0.8646719982
 40
0.912513003
 40
0.9571378773
 40
1.0
 40
1.0
 40
1.0
 40
1.0
 10
20.6717926229
 20
48.2658551277
 30
0.0
 10
20.6717926229
 20
48.308581631
 30
0.0
 10
20.6598132329
 20
48.3984487545
 30
0.0
 10
20.6152239823
 20
48.530399661
 30
0.0
 10
20.5464230698
 20
48.6574885636
 30
0.0
 10
20.4590734459
 20
48.7693281553
 30
0.0
 10
20.3602230942
 20
48.8568615904
 30
0.0
 10
20.2707637486
 20
48.9058159261
 30
0.0
 10
20.2007667959
 20
48.9243955152
 30
0.0
 10
20.1526018899
 20
48.9279782831
 30
0.0
 10
20.1077499756
 20
48.9213684581
 30
0.0
 10
20.08058218
 20
48.9100779841
 30
0.0
 10
20.0682495958
 20
48.9029702493
 30
0.0
  0
SPLINE
  5
2CD
100
AcDbEntity
  8
0
100
AcDbSpline
 62
7
  6
BYLAYER
 70
0
 71
3
 72
17
 73
13
 74
0
 42
0.0000001
 43
0.0000001
 44
0.0000000001
 40
0.0
 40
0.0
 40
0.0
 40
0.0
 40
0.1286583215
 40
0.2703136878
 40
0.417429293
 40
0.5617691287
 40
0.6954408117
 40
0.8127129847
 40
0.8646719982
 40
0.912513003
 40
0.9571378773
 40
1.0
 40
1.0
 40
1.0
 40
1.0
 10
20.6717926229
 20
53.9813720476
 30
0.0
 10
20.6717926229
 20
54.0240985509
 30
0.0
 10
20.6598132329
 20
54.1139656744
 30
0.0
 10
20.6152239823
 20
54.2459165809
 30
0.0
 10
20.5464230698
 20
54.3730054835
 30
0.0
 10
20.4590734459
 20
54.4848450752
 30
0.0
 10
20.3602230942
 20
54.5723785103
 30
0.0
 10
20.2707637486
 20
54.621332846
 30
0.0
 10
20.2007667959
 20
54.6399124351
 30
0.0
 10
20.1526018899
 20
54.643495203
 30
0.0
 10
20.1077499756
 20
54.636885378
 30
0.0
 10
20.08058218
 20
54.625594904
 30
0.0
 10
20.0682495958
 20
54.6184871692
 30
0.0
  0
SPLINE
  5
2CE
100
AcDbEntity
  8
0
100
AcDbSpline
 62
7
  6
BYLAYER
 70
0
 71
3
 72
17
 73
13
 74
0
 42
0.0000001
 43
0.0000001
 44
0.0000000001
 40
0.0
 40
0.0
 40
0.0
 40
0.0
 40
0.1286583215
 40
0.2703136878
 40
0.417429293
 40
0.5617691287
 40
0.6954408117
 40
0.8127129847
 40
0.8646719982
 40
0.912513003
 40
0.9571378773
 40
1.0
 40
1.0
 40
1.0
 40
1.0
 10
20.6717926229
 20
35.2018164536
 30
0.0
 10
20.6717926229
 20
35.2445429569
 30
0.0
 10
20.6598132329
 20
35.3344100804
 30
0.0
 10
20.6152239823
 20
35.4663609869
 30
0.0
 10
20.5464230698
 20
35.5934498895
 30
0.0
 10
20.4590734459
 20
35.7052894812
 30
0.0
 10
20.3602230942
 20
35.7928229163
 30
0.0
 10
20.2707637486
 20
35.8417772521
 30
0.0
 10
20.2007667959
 20
35.8603568411
 30
0.0
 10
20.1526018899
 20
35.863939609
 30
0.0
 10
20.1077499756
 20
35.857329784
 30
0.0
 10
20.08058218
 20
35.84603931
 30
0.0
 10
20.0682495958
 20
35.8389315753
 30
0.0
  0
SPLINE
  5
2CF
100
AcDbEntity
  8
0
100
AcDbSpline
 62
7
  6
BYLAYER
 70
0
 71
3
 72
17
 73
13
 74
0
 42
0.0000001
 43
0.0000001
 44
0.0000000001
 40
0.0
 40
0.0
 40
0.0
 40
0.0
 40
0.1286583215
 40
0.2703136878
 40
0.417429293
 40
0.5617691287
 40
0.6954408117
 40
0.8127129847
 40
0.8646719982
 40
0.912513003
 40
0.9571378773
 40
1.0
 40
1.0
 40
1.0
 40
1.0
 10
20.6717926229
 20
29.4862995337
 30
0.0
 10
20.6717926229
 20
29.529026037
 30
0.0
 10
20.6598132329
 20
29.6188931605
 30
0.0
 10
20.6152239823
 20
29.750844067
 30
0.0
 10
20.5464230698
 20
29.8779329696
 30
0.0
 10
20.4590734459
 20
29.9897725613
 30
0.0
 10
20.3602230942
 20
30.0773059964
 30
0.0
 10
20.2707637486
 20
30.1262603321
 30
0.0
 10
20.2007667959
 20
30.1448399212
 30
0.0
 10
20.1526018899
 20
30.1484226891
 30
0.0
 10
20.1077499756
 20
30.1418128641
 30
0.0
 10
20.08058218
 20
30.1305223901
 30
0.0
 10
20.0682495958
 20
30.1234146554
 30
0.0
  0
SPLINE
  5
2D0
100
AcDbEntity
  8
0
100
AcDbSpline
 62
7
  6
BYLAYER
 70
0
 71
3
 72
17
 73
13
 74
0
 42
0.0000001
 43
0.0000001
 44
0.0000000001
 40
0.0
 40
0.0
 40
0.0
 40
0.0
 40
0.1286583215
 40
0.2703136878
 40
0.417429293
 40
0.5617691287
 40
0.6954408117
 40
0.8127129847
 40
0.8646719982
 40
0.912513003
 40
0.9571378773
 40
1.0
 40
1.0
 40
1.0
 40
1.0
 10
34.1068774007
 20
40.5092807918
 30
0.0
 10
34.1068774007
 20
40.5520072951
 30
0.0
 10
34.0948980107
 20
40.6418744186
 30
0.0
 10
34.0503087601
 20
40.7738253251
 30
0.0
 10
33.9815078476
 20
40.9009142277
 30
0.0
 10
33.8941582237
 20
41.0127538194
 30
0.0
 10
33.795307872
 20
41.1002872545
 30
0.0
 10
33.7058485264
 20
41.1492415902
 30
0.0
 10
33.6358515736
 20
41.1678211793
 30
0.0
 10
33.5876866677
 20
41.1714039472
 30
0.0
 10
33.5428347534
 20
41.1647941222
 30
0.0
 10
33.5156669578
 20
41.1535036482
 30
0.0
 10
33.5033343736
 20
41.1463959134
 30
0.0
  0
SPLINE
  5
2D1
100
AcDbEntity
  8
0
100
AcDbSpline
 62
7
  6
BYLAYER
 70
0
 71
3
 72
17
 73
13
 74
0
 42
0.0000001
 43
0.0000001
 44
0.0000000001
 40
0.0
 40
0.0
 40
0.0
 40
0.0
 40
0.1286583215
 40
0.2703136878
 40
0.417429293
 40
0.5617691287
 40
0.6954408117
 40
0.8127129847
 40
0.8646719982
 40
0.912513003
 40
0.9571378773
 40
1.0
 40
1.0
 40
1.0
 40
1.0
 10
34.1068774007
 20
46.2247977117
 30
0.0
 10
34.1068774007
 20
46.267524215
 30
0.0
 10
34.0948980107
 20
46.3573913385
 30
0.0
 10
34.0503087601
 20
46.489342245
 30
0.0
 10
33.9815078476
 20
46.6164311476
 30
0.0
 10
33.8941582237
 20
46.7282707393
 30
0.0
 10
33.795307872
 20
46.8158041744
 30
0.0
 10
33.7058485264
 20
46.8647585101
 30
0.0
 10
33.6358515736
 20
46.8833380992
 30
0.0
 10
33.5876866677
 20
46.8869208671
 30
0.0
 10
33.5428347534
 20
46.8803110421
 30
0.0
 10
33.5156669578
 20
46.8690205681
 30
0.0
 10
33.5033343736
 20
46.8619128334
 30
0.0
  0
SPLINE
  5
2D2
100
AcDbEntity
  8
0
100
AcDbSpline
 62
7
  6
BYLAYER
 70
0
 71
3
 72
17
 73
13
 74
0
 42
0.0000001
 43
0.0000001
 44
0.0000000001
 40
0.0
 40
0.0
 40
0.0
 40
0.0
 40
0.1286583215
 40
0.2703136878
 40
0.417429293
 40
0.5617691287
 40
0.6954408117
 40
0.8127129847
 40
0.8646719982
 40
0.912513003
 40
0.9571378773
 40
1.0
 40
1.0
 40
1.0
 40
1.0
 10
34.1068774007
 20
27.4452421177
 30
0.0
 10
34.1068774007
 20
27.487968621
 30
0.0
 10
34.0948980107
 20
27.5778357445
 30
0.0
 10
34.0503087601
 20
27.709786651
 30
0.0
 10
33.9815078476
 20
27.8368755536
 30
0.0
 10
33.8941582237
 20
27.9487151453
 30
0.0
 10
33.795307872
 20
28.0362485804
 30
0.0
 10
33.7058485264
 20
28.0852029162
 30
0.0
 10
33.6358515736
 20
28.1037825052
 30
0.0
 10
33.5876866677
 20
28.1073652731
 30
0.0
 10
33.5428347534
 20
28.1007554481
 30
0.0
 10
33.5156669578
 20
28.0894649741
 30
0.0
 10
33.5033343736
 20
28.0823572394
 30
0.0
  0
SPLINE
  5
2D3
100
AcDbEntity
  8
0
100
AcDbSpline
 62
7
  6
BYLAYER
 70
0
 71
3
 72
17
 73
13
 74
0
 42
0.0000001
 43
0.0000001
 44
0.0000000001
 40
0.0
 40
0.0
 40
0.0
 40
0.0
 40
0.1286583215
 40
0.2703136878
 40
0.417429293
 40
0.5617691287
 40
0.6954408117
 40
0.8127129847
 40
0.8646719982
 40
0.912513003
 40
0.9571378773
 40
1.0
 40
1.0
 40
1.0
 40
1.0
 10
34.1068774007
 20
21.7297251978
 30
0.0
 10
34.1068774007
 20
21.7724517011
 30
0.0
 10
34.0948980107
 20
21.8623188246
 30
0.0
 10
34.0503087601
 20
21.9942697311
 30
0.0
 10
33.9815078476
 20
22.1213586337
 30
0.0
 10
33.8941582237
 20
22.2331982254
 30
0.0
 10
33.795307872
 20
22.3207316605
 30
0.0
 10
33.7058485264
 20
22.3696859963
 30
0.0
 10
33.6358515736
 20
22.3882655853
 30
0.0
 10
33.5876866677
 20
22.3918483532
 30
0.0
 10
33.5428347534
 20
22.3852385282
 30
0.0
 10
33.5156669578
 20
22.3739480542
 30
0.0
 10
33.5033343736
 20
22.3668403195
 30
0.0
  0
SPLINE
  5
2D4
100
AcDbEntity
  8
0
100
AcDbSpline
 62
7
  6
BYLAYER
 70
0
 71
3
 72
17
 73
13
 74
0
 42
0.0000001
 43
0.0000001
 44
0.0000000001
 40
0.0
 40
0.0
 40
0.0
 40
0.0
 40
0.1286583215
 40
0.2703136878
 40
0.417429293
 40
0.5617691287
 40
0.6954408117
 40
0.8127129847
 40
0.8646719982
 40
0.912513003
 40
0.9571378773
 40
1.0
 40
1.0
 40
1.0
 40
1.0
 10
20.6717926229
 20
41.7338357907
 30
0.0
 10
20.6717926229
 20
41.776562294
 30
0.0
 10
20.6598132329
 20
41.8664294175
 30
0.0
 10
20.6152239823
 20
41.9983803239
 30
0.0
 10
20.5464230698
 20
42.1254692265
 30
0.0
 10
20.4590734459
 20
42.2373088182
 30
0.0
 10
20.3602230942
 20
42.3248422534
 30
0.0
 10
20.2707637486
 20
42.3737965891
 30
0.0
 10
20.2007667959
 20
42.3923761782
 30
0.0
 10
20.1526018899
 20
42.395958946
 30
0.0
 10
20.1077499756
 20
42.389349121
 30
0.0
 10
20.08058218
 20
42.3780586471
 30
0.0
 10
20.0682495958
 20
42.3709509123
 30
0.0
  0
SPLINE
  5
2D5
100
AcDbEntity
  8
0
100
AcDbSpline
 62
7
  6
BYLAYER
 70
0
 71
3
 72
17
 73
13
 74
0
 42
0.0000001
 43
0.0000001
 44
0.0000000001
 40
0.0
 40
0.0
 40
0.0
 40
0.0
 40
0.1286583215
 40
0.2703136878
 40
0.417429293
 40
0.5617691287
 40
0.6954408117
 40
0.8127129847
 40
0.8646719982
 40
0.912513003
 40
0.9571378773
 40
1.0
 40
1.0
 40
1.0
 40
1.0
 10
34.1068774007
 20
33.9772614548
 30
0.0
 10
34.1068774007
 20
34.0199879581
 30
0.0
 10
34.0948980107
 20
34.1098550816
 30
0.0
 10
34.0503087601
 20
34.241805988
 30
0.0
 10
33.9815078476
 20
34.3688948906
 30
0.0
 10
33.8941582237
 20
34.4807344823
 30
0.0
 10
33.795307872
 20
34.5682679175
 30
0.0
 10
33.7058485264
 20
34.6172222532
 30
0.0
 10
33.6358515736
 20
34.6358018423
 30
0.0
 10
33.5876866677
 20
34.6393846101
 30
0.0
 10
33.5428347534
 20
34.6327747851
 30
0.0
 10
33.5156669578
 20
34.6214843112
 30
0.0
 10
33.5033343736
 20
34.6143765764
 30
0.0
  0
SPLINE
  5
2D6
100
AcDbEntity
  8
0
100
AcDbSpline
 62
7
  6
BYLAYER
 70
0
 71
3
 72
11
 73
7
 74
0
 42
0.0000001
 43
0.0000001
 44
0.0000000001
 40
0.0
 40
0.0
 40
0.0
 40
0.0
 40
0.2893955969
 40
0.5491264745
 40
0.7823127214
 40
1.0
 40
1.0
 40
1.0
 40
1.0
 10
27.3186240392
 20
38.3046239067
 30
0.0
 10
27.2967084524
 20
38.3172765905
 30
0.0
 10
27.2530453166
 20
38.3379941255
 30
0.0
 10
27.1859752542
 20
38.3542720398
 30
0.0
 10
27.1230017401
 20
38.3526581661
 30
0.0
 10
27.0851142241
 20
38.338896891
 30
0.0
 10
27.0686358234
 20
38.329367603
 30
0.0
  0
SPLINE
  5
2D7
100
AcDbEntity
  8
0
100
AcDbSpline
 62
7
  6
BYLAYER
 70
0
 71
3
 72
17
 73
13
 74
0
 42
0.0000001
 43
0.0000001
 44
0.0000000001
 40
0.0
 40
0.0
 40
0.0
 40
0.0
 40
0.1286583215
 40
0.2703136878
 40
0.417429293
 40
0.5617691287
 40
0.6954408117
 40
0.8127129847
 40
0.8646719982
 40
0.912513003
 40
0.9571378773
 40
1.0
 40
1.0
 40
1.0
 40
1.0
 10
23.853786386
 20
19.0759407585
 30
0.0
 10
23.853786386
 20
19.1186672618
 30
0.0
 10
23.8418069961
 20
19.2085343853
 30
0.0
 10
23.7972177455
 20
19.3404852918
 30
0.0
 10
23.728416833
 20
19.4675741944
 30
0.0
 10
23.641067209
 20
19.5794137861
 30
0.0
 10
23.5422168573
 20
19.6669472212
 30
0.0
 10
23.4527575117
 20
19.7159015569
 30
0.0
 10
23.382760559
 20
19.734481146
 30
0.0
 10
23.3345956531
 20
19.7380639139
 30
0.0
 10
23.2897437388
 20
19.7314540889
 30
0.0
 10
23.2625759432
 20
19.7201636149
 30
0.0
 10
23.250243359
 20
19.7130558802
 30
0.0
  0
SPLINE
  5
2D8
100
AcDbEntity
  8
0
100
AcDbSpline
 62
7
  6
BYLAYER
 70
0
 71
3
 72
17
 73
13
 74
0
 42
0.0000001
 43
0.0000001
 44
0.0000000001
 40
0.0
 40
0.0
 40
0.0
 40
0.0
 40
0.1286583215
 40
0.2703136878
 40
0.417429293
 40
0.5617691287
 40
0.6954408117
 40
0.8127129847
 40
0.8646719982
 40
0.912513003
 40
0.9571378773
 40
1.0
 40
1.0
 40
1.0
 40
1.0
 10
32.7633689229
 20
13.9321072516
 30
0.0
 10
32.7633689229
 20
13.9748337549
 30
0.0
 10
32.751389533
 20
14.0647008784
 30
0.0
 10
32.7068002823
 20
14.1966517848
 30
0.0
 10
32.6379993698
 20
14.3237406874
 30
0.0
 10
32.5506497459
 20
14.4355802791
 30
0.0
 10
32.4517993942
 20
14.5231137143
 30
0.0
 10
32.3623400486
 20
14.57206805
 30
0.0
 10
32.2923430959
 20
14.5906476391
 30
0.0
 10
32.2441781899
 20
14.5942304069
 30
0.0
 10
32.1993262756
 20
14.5876205819
 30
0.0
 10
32.17215848
 20
14.576330108
 30
0.0
 10
32.1598258958
 20
14.5692223732
 30
0.0
  0
SPLINE
  5
2D9
100
AcDbEntity
  8
0
100
AcDbSpline
 62
7
  6
BYLAYER
 70
0
 71
3
 72
17
 73
13
 74
0
 42
0.0000001
 43
0.0000001
 44
0.0000000001
 40
0.0
 40
0.0
 40
0.0
 40
0.0
 40
0.1286583215
 40
0.2703136878
 40
0.417429293
 40
0.5617691287
 40
0.6954408117
 40
0.8127129847
 40
0.8646719982
 40
0.912513003
 40
0.9571378773
 40
1.0
 40
1.0
 40
1.0
 40
1.0
 10
20.6717926229
 20
24.1790338224
 30
0.0
 10
20.6717926229
 20
24.2217603257
 30
0.0
 10
20.6598132329
 20
24.3116274492
 30
0.0
 10
20.6152239823
 20
24.4435783556
 30
0.0
 10
20.5464230698
 20
24.5706672582
 30
0.0
 10
20.4590734459
 20
24.6825068499
 30
0.0
 10
20.3602230942
 20
24.7700402851
 30
0.0
 10
20.2707637486
 20
24.8189946208
 30
0.0
 10
20.2007667959
 20
24.8375742099
 30
0.0
 10
20.1526018899
 20
24.8411569777
 30
0.0
 10
20.1077499756
 20
24.8345471527
 30
0.0
 10
20.08058218
 20
24.8232566788
 30
0.0
 10
20.0682495958
 20
24.816148944
 30
0.0
  0
SPLINE
  5
2DA
100
AcDbEntity
  8
0
100
AcDbSpline
 62
7
  6
BYLAYER
 70
0
 71
3
 72
17
 73
13
 74
0
 42
0.0000001
 43
0.0000001
 44
0.0000000001
 40
0.0
 40
0.0
 40
0.0
 40
0.0
 40
0.1286583215
 40
0.2703136878
 40
0.417429293
 40
0.5617691287
 40
0.6954408117
 40
0.8127129847
 40
0.8646719982
 40
0.912513003
 40
0.9571378773
 40
1.0
 40
1.0
 40
1.0
 40
1.0
 10
20.6717926229
 20
59.2886377589
 30
0.0
 10
20.6717926229
 20
59.3313642622
 30
0.0
 10
20.6598132329
 20
59.4212313857
 30
0.0
 10
20.6152239823
 20
59.5531822922
 30
0.0
 10
20.5464230698
 20
59.6802711948
 30
0.0
 10
20.4590734459
 20
59.7921107865
 30
0.0
 10
20.3602230942
 20
59.8796442216
 30
0.0
 10
20.2707637486
 20
59.9285985574
 30
0.0
 10
20.2007667959
 20
59.9471781464
 30
0.0
 10
20.1526018899
 20
59.9507609143
 30
0.0
 10
20.1077499756
 20
59.9441510893
 30
0.0
 10
20.08058218
 20
59.9328606153
 30
0.0
 10
20.0682495958
 20
59.9257528806
 30
0.0
  0
SPLINE
  5
2DB
100
AcDbEntity
  8
0
100
AcDbSpline
 62
7
  6
BYLAYER
 70
0
 71
3
 72
13
 73
9
 74
0
 42
0.0000001
 43
0.0000001
 44
0.0000000001
 40
0.0
 40
0.0
 40
0.0
 40
0.0
 40
0.1141762243
 40
0.2375705078
 40
0.5000006893
 40
0.7624304955
 40
0.8858242827
 40
1.0
 40
1.0
 40
1.0
 40
1.0
 10
36.0160736585
 20
8.8750459348
 30
0.0
 10
36.0402599774
 20
8.8610822729
 30
0.0
 10
36.0932064996
 20
8.8364578791
 30
0.0
 10
36.21049323
 20
8.8007746774
 30
0.0
 10
36.3696277073
 20
8.783533202
 30
0.0
 10
36.5287619787
 20
8.8007754621
 30
0.0
 10
36.6460481968
 20
8.8364592026
 30
0.0
 10
36.6989943289
 20
8.8610838602
 30
0.0
 10
36.7231804397
 20
8.8750476344
 30
0.0
  0
SPLINE
  5
2DC
100
AcDbEntity
  8
0
100
AcDbSpline
 62
7
  6
BYLAYER
 70
0
 71
3
 72
11
 73
7
 74
0
 42
0.0000001
 43
0.0000001
 44
0.0000000001
 40
0.0
 40
0.0
 40
0.0
 40
0.0
 40
0.2176907916
 40
0.4508868986
 40
0.7106214304
 40
1.0
 40
1.0
 40
1.0
 40
1.0
 10
30.6798949944
 20
47.9146548908
 30
0.0
 10
30.6963879916
 20
47.924160429
 30
0.0
 10
30.7272488983
 20
47.950095616
 30
0.0
 10
30.7601361655
 20
48.0038266372
 30
0.0
 10
30.7795718049
 20
48.070052428
 30
0.0
 10
30.7834616925
 20
48.1182243391
 30
0.0
 10
30.7834616925
 20
48.143529258
 30
0.0
  0
SPLINE
  5
2DD
100
AcDbEntity
  8
0
100
AcDbSpline
 62
7
  6
BYLAYER
 70
0
 71
3
 72
15
 73
11
 74
0
 42
0.0000001
 43
0.0000001
 44
0.0000000001
 40
0.0
 40
0.0
 40
0.0
 40
0.0
 40
0.1141242661
 40
0.2373486253
 40
0.3669740476
 40
0.5000015346
 40
0.6330288076
 40
0.7626536034
 40
0.8858770013
 40
1.0
 40
1.0
 40
1.0
 40
1.0
 10
42.5214319049
 20
50.9196586873
 30
0.0
 10
42.5214319049
 20
50.8581901498
 30
0.0
 10
42.5101455196
 20
50.7302354221
 30
0.0
 10
42.4652856078
 20
50.5372077913
 30
0.0
 10
42.3933358069
 20
50.3416848401
 30
0.0
 10
42.2971035128
 20
50.1510261212
 30
0.0
 10
42.1801054471
 20
49.9723568439
 30
0.0
 10
42.0467538029
 20
49.8122851829
 30
0.0
 10
41.9020183816
 20
49.676922224
 30
0.0
 10
41.7968504873
 20
49.6031712491
 30
0.0
 10
41.743617684
 20
49.5724374592
 30
0.0
  0
SPLINE
  5
2DE
100
AcDbEntity
  8
0
100
AcDbSpline
 62
7
  6
BYLAYER
 70
0
 71
3
 72
15
 73
11
 74
0
 42
0.0000001
 43
0.0000001
 44
0.0000000001
 40
0.0
 40
0.0
 40
0.0
 40
0.0
 40
0.1140721413
 40
0.2373577086
 40
0.3669859069
 40
0.4999983978
 40
0.6330121693
 40
0.7626417287
 40
0.8859240501
 40
1.0
 40
1.0
 40
1.0
 40
1.0
 10
38.4909400312
 20
47.6945143502
 30
0.0
 10
38.4425657591
 20
47.6665917165
 30
0.0
 10
38.3469798787
 20
47.5995069537
 30
0.0
 10
38.2153613637
 20
47.476489695
 30
0.0
 10
38.0941091213
 20
47.3309512285
 30
0.0
 10
37.9878184932
 20
47.1684970572
 30
0.0
 10
37.9002755232
 20
46.9952185003
 30
0.0
 10
37.8348585958
 20
46.8174430795
 30
0.0
 10
37.794140476
 20
46.6419455745
 30
0.0
 10
37.7838406961
 20
46.5256243107
 30
0.0
 10
37.7838361956
 20
46.4697677804
 30
0.0
  0
SPLINE
  5
2DF
100
AcDbEntity
  8
0
100
AcDbSpline
 62
7
  6
BYLAYER
 70
0
 71
3
 72
11
 73
7
 74
0
 42
0.0000001
 43
0.0000001
 44
0.0000000001
 40
0.0
 40
0.0
 40
0.0
 40
0.0
 40
0.2895387317
 40
0.5491175569
 40
0.7822551239
 40
1.0
 40
1.0
 40
1.0
 40
1.0
 10
37.7838361956
 20
20.5049909157
 30
0.0
 10
37.7838402847
 20
20.4543525159
 30
0.0
 10
37.7915722011
 20
20.3579967791
 30
0.0
 10
37.8305189931
 20
20.2255834741
 30
0.0
 10
37.8962280203
 20
20.1181030189
 30
0.0
 10
37.9579962676
 20
20.0662940646
 30
0.0
 10
37.9909764719
 20
20.0472531906
 30
0.0
  0
SPLINE
  5
2E0
100
AcDbEntity
  8
0
100
AcDbSpline
 62
7
  6
BYLAYER
 70
0
 71
3
 72
12
 73
8
 74
0
 42
0.0000001
 43
0.0000001
 44
0.0000000001
 40
0.0
 40
0.0
 40
0.0
 40
0.0
 40
0.1058872666
 40
0.2243937967
 40
0.4858540089
 40
0.7554476985
 40
1.0
 40
1.0
 40
1.0
 40
1.0
 10
38.7737668478
 20
7.2939719664
 30
0.0
 10
38.7883997357
 20
7.2988586783
 30
0.0
 10
38.8202897927
 20
7.3066217797
 30
0.0
 10
38.8906803608
 20
7.3150732734
 30
0.0
 10
38.9858923968
 20
7.3116854728
 30
0.0
 10
39.09698726
 20
7.2889251841
 30
0.0
 10
39.1671741209
 20
7.2606464046
 30
0.0
 10
39.1980309165
 20
7.2428316284
 30
0.0
  0
SPLINE
  5
2E1
100
AcDbEntity
  8
0
100
AcDbSpline
 62
7
  6
BYLAYER
 70
0
 71
3
 72
11
 73
7
 74
0
 42
0.0000001
 43
0.0000001
 44
0.0000000001
 40
0.0
 40
0.0
 40
0.0
 40
0.0
 40
0.2726019058
 40
0.5271168327
 40
0.7674038319
 40
1.0
 40
1.0
 40
1.0
 40
1.0
 10
35.6461921832
 20
6.3574450923
 30
0.0
 10
35.589227504
 20
6.3423805573
 30
0.0
 10
35.4766879835
 20
6.3212450932
 30
0.0
 10
35.3098718917
 20
6.3191898096
 30
0.0
 10
35.1543254544
 20
6.348873068
 30
0.0
 10
35.0596172815
 20
6.3899518727
 30
0.0
 10
35.0160828754
 20
6.4150994848
 30
0.0
  0
SPLINE
  5
2E2
100
AcDbEntity
  8
0
100
AcDbSpline
 62
7
  6
BYLAYER
 70
0
 71
3
 72
9
 73
5
 74
0
 42
0.0000001
 43
0.0000001
 44
0.0000000001
 40
0.0
 40
0.0
 40
0.0
 40
0.0
 40
0.5006736162
 40
1.0
 40
1.0
 40
1.0
 40
1.0
 10
16.2480255998
 20
27.0604207694
 30
0.0
 10
16.3095833649
 20
27.0959589995
 30
0.0
 10
16.4384809451
 20
27.1567479361
 30
0.0
 10
16.5731381249
 20
27.2024321427
 30
0.0
 10
16.6412648883
 20
27.2220258903
 30
0.0
  0
SPLINE
  5
2E3
100
AcDbEntity
  8
0
100
AcDbSpline
 62
7
  6
BYLAYER
 70
0
 71
3
 72
11
 73
7
 74
0
 42
0.0000001
 43
0.0000001
 44
0.0000000001
 40
0.0
 40
0.0
 40
0.0
 40
0.0
 40
0.2850326798
 40
0.5449945402
 40
0.7811769021
 40
1.0
 40
1.0
 40
1.0
 40
1.0
 10
40.4001174493
 20
6.5488223457
 30
0.0
 10
40.4187390012
 20
6.5380714309
 30
0.0
 10
40.4558716456
 20
6.5199765799
 30
0.0
 10
40.5128134344
 20
6.5034762688
 30
0.0
 10
40.567069568
 20
6.4996565145
 30
0.0
 10
40.6013102052
 20
6.5059508005
 30
0.0
 10
40.6169438791
 20
6.5112504022
 30
0.0
  0
SPLINE
  5
2E4
100
AcDbEntity
  8
0
100
AcDbSpline
 62
7
  6
BYLAYER
 70
0
 71
3
 72
8
 73
4
 74
0
 42
0.0000001
 43
0.0000001
 44
0.0000000001
 40
0.0
 40
0.0
 40
0.0
 40
0.0
 40
1.0
 40
1.0
 40
1.0
 40
1.0
 10
18.2504564131
 20
66.7187381226
 30
0.0
 10
18.2504564126
 20
66.7103022111
 30
0.0
 10
18.251557267
 20
66.7018070933
 30
0.0
 10
18.2536329549
 20
66.6936305341
 30
0.0
  0
SPLINE
  5
2E5
100
AcDbEntity
  8
0
100
AcDbSpline
 62
7
  6
BYLAYER
 70
0
 71
3
 72
9
 73
5
 74
0
 42
0.0000001
 43
0.0000001
 44
0.0000000001
 40
0.0
 40
0.0
 40
0.0
 40
0.0
 40
0.5006736241
 40
1.0
 40
1.0
 40
1.0
 40
1.0
 10
16.2480255996
 20
67.3956401759
 30
0.0
 10
16.309583363
 20
67.4311784051
 30
0.0
 10
16.4384809236
 20
67.4919673766
 30
0.0
 10
16.5731381293
 20
67.5376514889
 30
0.0
 10
16.6412648883
 20
67.5572452366
 30
0.0
  0
SPLINE
  5
2E6
100
AcDbEntity
  8
0
100
AcDbSpline
 62
7
  6
BYLAYER
 70
0
 71
3
 72
11
 73
7
 74
0
 42
0.0000001
 43
0.0000001
 44
0.0000000001
 40
0.0
 40
0.0
 40
0.0
 40
0.0
 40
0.2177442246
 40
0.4508817658
 40
0.7104588047
 40
1.0
 40
1.0
 40
1.0
 40
1.0
 10
27.0028697481
 20
74.2553180395
 30
0.0
 10
27.0193598442
 20
74.2457976846
 30
0.0
 10
27.0502440662
 20
74.2198931836
 30
0.0
 10
27.0830973212
 20
74.1661525998
 30
0.0
 10
27.1025739061
 20
74.0999470411
 30
0.0
 10
27.1064398967
 20
74.0517686234
 30
0.0
 10
27.1064398967
 20
74.0264491939
 30
0.0
  0
SPLINE
  5
2E7
100
AcDbEntity
  8
0
100
AcDbSpline
 62
7
  6
BYLAYER
 70
0
 71
3
 72
11
 73
7
 74
0
 42
0.0000001
 43
0.0000001
 44
0.0000000001
 40
0.0
 40
0.0
 40
0.0
 40
0.0
 40
0.2177456295
 40
0.4508837762
 40
0.7104602913
 40
1.0
 40
1.0
 40
1.0
 40
1.0
 10
26.4371819683
 20
74.5819106429
 30
0.0
 10
26.4206924141
 20
74.5914306732
 30
0.0
 10
26.3828175413
 20
74.6052239221
 30
0.0
 10
26.3198525996
 20
74.6068050622
 30
0.0
 10
26.2527814
 20
74.5905701865
 30
0.0
 10
26.2091265186
 20
74.5698300207
 30
0.0
 10
26.187200198
 20
74.5571709292
 30
0.0
  0
SPLINE
  5
2E8
100
AcDbEntity
  8
0
100
AcDbSpline
 62
7
  6
BYLAYER
 70
0
 71
3
 72
11
 73
7
 74
0
 42
0.0000001
 43
0.0000001
 44
0.0000000001
 40
0.0
 40
0.0
 40
0.0
 40
0.0
 40
0.2177442246
 40
0.4508817658
 40
0.7104588047
 40
1.0
 40
1.0
 40
1.0
 40
1.0
 10
24.8815405727
 20
75.480040303
 30
0.0
 10
24.8980306687
 20
75.4705199482
 30
0.0
 10
24.9289148908
 20
75.4446154471
 30
0.0
 10
24.9617681457
 20
75.3908748634
 30
0.0
 10
24.9812447307
 20
75.3246693047
 30
0.0
 10
24.9851107212
 20
75.276490887
 30
0.0
 10
24.9851107212
 20
75.2511714575
 30
0.0
  0
SPLINE
  5
2E9
100
AcDbEntity
  8
0
100
AcDbSpline
 62
7
  6
BYLAYER
 70
0
 71
3
 72
11
 73
7
 74
0
 42
0.0000001
 43
0.0000001
 44
0.0000000001
 40
0.0
 40
0.0
 40
0.0
 40
0.0
 40
0.2177456295
 40
0.4508837762
 40
0.7104602913
 40
1.0
 40
1.0
 40
1.0
 40
1.0
 10
24.3158527929
 20
75.8066329064
 30
0.0
 10
24.2993632387
 20
75.8161529368
 30
0.0
 10
24.2614883659
 20
75.8299461857
 30
0.0
 10
24.1985234242
 20
75.8315273258
 30
0.0
 10
24.1314522246
 20
75.81529245
 30
0.0
 10
24.0877973432
 20
75.7945522843
 30
0.0
 10
24.0658710225
 20
75.7818931927
 30
0.0
  0
SPLINE
  5
2EA
100
AcDbEntity
  8
0
100
AcDbSpline
 62
7
  6
BYLAYER
 70
0
 71
3
 72
11
 73
7
 74
0
 42
0.0000001
 43
0.0000001
 44
0.0000000001
 40
0.0
 40
0.0
 40
0.0
 40
0.0
 40
0.2176907916
 40
0.4508868986
 40
0.7106214304
 40
1.0
 40
1.0
 40
1.0
 40
1.0
 10
20.5682259248
 20
59.0597633918
 30
0.0
 10
20.584718922
 20
59.06926893
 30
0.0
 10
20.6155798287
 20
59.095204117
 30
0.0
 10
20.6484670959
 20
59.1489351382
 30
0.0
 10
20.6679027353
 20
59.215160929
 30
0.0
 10
20.6717926229
 20
59.26333284
 30
0.0
 10
20.6717926229
 20
59.2886377589
 30
0.0
  0
SPLINE
  5
2EB
100
AcDbEntity
  8
0
100
AcDbSpline
 62
7
  6
BYLAYER
 70
0
 71
3
 72
11
 73
7
 74
0
 42
0.0000001
 43
0.0000001
 44
0.0000000001
 40
0.0
 40
0.0
 40
0.0
 40
0.0
 40
0.2176907916
 40
0.4508868986
 40
0.7106214304
 40
1.0
 40
1.0
 40
1.0
 40
1.0
 10
20.5682259248
 20
23.9501594553
 30
0.0
 10
20.584718922
 20
23.9596649934
 30
0.0
 10
20.6155798287
 20
23.9856001805
 30
0.0
 10
20.6484670959
 20
24.0393312016
 30
0.0
 10
20.6679027353
 20
24.1055569924
 30
0.0
 10
20.6717926229
 20
24.1537289035
 30
0.0
 10
20.6717926229
 20
24.1790338224
 30
0.0
  0
SPLINE
  5
2EC
100
AcDbEntity
  8
0
100
AcDbSpline
 62
7
  6
BYLAYER
 70
0
 71
3
 72
11
 73
7
 74
0
 42
0.0000001
 43
0.0000001
 44
0.0000000001
 40
0.0
 40
0.0
 40
0.0
 40
0.0
 40
0.2177825102
 40
0.4509091639
 40
0.7102957096
 40
1.0
 40
1.0
 40
1.0
 40
1.0
 10
43.6371028984
 20
22.8047955721
 30
0.0
 10
43.6733882039
 20
22.783846711
 30
0.0
 10
43.7412766129
 20
22.7267735923
 30
0.0
 10
43.8135517745
 20
22.6086006526
 30
0.0
 10
43.8564789456
 20
22.4629672313
 30
0.0
 10
43.8649291956
 20
22.3569707734
 30
0.0
 10
43.8649291956
 20
22.301235563
 30
0.0
  0
SPLINE
  5
2ED
100
AcDbEntity
  8
0
100
AcDbSpline
 62
7
  6
BYLAYER
 70
0
 71
3
 72
9
 73
5
 74
0
 42
0.0000001
 43
0.0000001
 44
0.0000000001
 40
0.0
 40
0.0
 40
0.0
 40
0.0
 40
0.2663278576
 40
1.0
 40
1.0
 40
1.0
 40
1.0
 10
16.7473218724
 20
27.1795871679
 30
0.0
 10
16.7385205326
 20
27.1846685089
 30
0.0
 10
16.7048873395
 20
27.2026653768
 30
0.0
 10
16.6686402495
 20
27.2161523857
 30
0.0
 10
16.6412650693
 20
27.2220170355
 30
0.0
  0
SPLINE
  5
2EE
100
AcDbEntity
  8
0
100
AcDbSpline
 62
7
  6
BYLAYER
 70
0
 71
3
 72
9
 73
5
 74
0
 42
0.0000001
 43
0.0000001
 44
0.0000000001
 40
0.0
 40
0.0
 40
0.0
 40
0.0
 40
0.2663280544
 40
1.0
 40
1.0
 40
1.0
 40
1.0
 10
16.7473218724
 20
67.5148065741
 30
0.0
 10
16.7385205305
 20
67.5198879163
 30
0.0
 10
16.704887359
 20
67.537884793
 30
0.0
 10
16.6686402289
 20
67.5513716291
 30
0.0
 10
16.6412650693
 20
67.5572362729
 30
0.0
  0
SPLINE
  5
2EF
100
AcDbEntity
  8
0
100
AcDbSpline
 62
7
  6
BYLAYER
 70
0
 71
3
 72
14
 73
10
 74
0
 42
0.0000001
 43
0.0000001
 44
0.0000000001
 40
0.0
 40
0.0
 40
0.0
 40
0.0
 40
0.1245060057
 40
0.2534635534
 40
0.5154973438
 40
0.6446084207
 40
0.7695517889
 40
0.8885821119
 40
1.0
 40
1.0
 40
1.0
 40
1.0
 10
33.8240252675
 20
63.2022520774
 30
0.0
 10
33.7512992702
 20
63.1338541897
 30
0.0
 10
33.6107301454
 20
62.9864528102
 30
0.0
 10
33.3554425017
 20
62.6608118347
 30
0.0
 10
33.1443864338
 20
62.2978292766
 30
0.0
 10
32.9869894348
 20
61.9146185495
 30
0.0
 10
32.900469381
 20
61.6276663376
 30
0.0
 10
32.8471927818
 20
61.3471838356
 30
0.0
 10
32.8340798954
 20
61.1622646516
 30
0.0
 10
32.8340798954
 20
61.0729229345
 30
0.0
  0
SPLINE
  5
2F0
100
AcDbEntity
  8
0
100
AcDbSpline
 62
7
  6
BYLAYER
 70
0
 71
3
 72
13
 73
9
 74
0
 42
0.0000001
 43
0.0000001
 44
0.0000000001
 40
0.0
 40
0.0
 40
0.0
 40
0.0
 40
0.114175582
 40
0.23756922
 40
0.49999856
 40
0.7624286893
 40
0.8858231943
 40
1.0
 40
1.0
 40
1.0
 40
1.0
 10
20.7425006514
 20
71.4136909444
 30
0.0
 10
20.71831454
 20
71.3997271697
 30
0.0
 10
20.6705157785
 20
71.3661869491
 30
0.0
 10
20.5809695789
 20
71.2824560804
 30
0.0
 10
20.4864705768
 20
71.153262497
 30
0.0
 10
20.4218358964
 20
71.0068266487
 30
0.0
 10
20.394096066
 20
70.8874111846
 30
0.0
 10
20.3889487328
 20
70.8292456324
 30
0.0
 10
20.3889487328
 20
70.8013176589
 30
0.0
  0
SPLINE
  5
2F1
100
AcDbEntity
  8
0
100
AcDbSpline
 62
7
  6
BYLAYER
 70
0
 71
3
 72
11
 73
7
 74
0
 42
0.0000001
 43
0.0000001
 44
0.0000000001
 40
0.0
 40
0.0
 40
0.0
 40
0.0
 40
0.2692879541
 40
0.5517571364
 40
0.8013308784
 40
1.0
 40
1.0
 40
1.0
 40
1.0
 10
34.6738582901
 20
56.5134661721
 30
0.0
 10
34.6495035447
 20
56.5275270728
 30
0.0
 10
34.6003329139
 20
56.5575988656
 30
0.0
 10
34.5303330425
 20
56.6034959193
 30
0.0
 10
34.468332001
 20
56.6480071326
 30
0.0
 10
34.4319010808
 20
56.6775152034
 30
0.0
 10
34.4166194931
 20
56.6915483149
 30
0.0
  0
SPLINE
  5
2F2
100
AcDbEntity
  8
0
100
AcDbSpline
 62
7
  6
BYLAYER
 70
0
 71
3
 72
17
 73
13
 74
0
 42
0.0000001
 43
0.0000001
 44
0.0000000001
 40
0.0
 40
0.0
 40
0.0
 40
0.0
 40
0.1286583215
 40
0.2703136878
 40
0.417429293
 40
0.5617691287
 40
0.6954408117
 40
0.8127129847
 40
0.8646719982
 40
0.912513003
 40
0.9571378773
 40
1.0
 40
1.0
 40
1.0
 40
1.0
 10
24.2073412486
 20
51.940168275
 30
0.0
 10
24.2073412486
 20
51.8974417717
 30
0.0
 10
24.2193206385
 20
51.8075746482
 30
0.0
 10
24.2639098891
 20
51.6756237417
 30
0.0
 10
24.3327108016
 20
51.5485348391
 30
0.0
 10
24.4200604256
 20
51.4366952474
 30
0.0
 10
24.5189107773
 20
51.3491618123
 30
0.0
 10
24.6083701229
 20
51.3002074766
 30
0.0
 10
24.6783670756
 20
51.2816278875
 30
0.0
 10
24.7265319815
 20
51.2780451196
 30
0.0
 10
24.7713838959
 20
51.2846549446
 30
0.0
 10
24.7985516914
 20
51.2959454186
 30
0.0
 10
24.8108842756
 20
51.3030531534
 30
0.0
  0
SPLINE
  5
2F3
100
AcDbEntity
  8
0
100
AcDbSpline
 62
7
  6
BYLAYER
 70
0
 71
3
 72
17
 73
13
 74
0
 42
0.0000001
 43
0.0000001
 44
0.0000000001
 40
0.0
 40
0.0
 40
0.0
 40
0.0
 40
0.1286583215
 40
0.2703136878
 40
0.417429293
 40
0.5617691287
 40
0.6954408117
 40
0.8127129847
 40
0.8646719982
 40
0.912513003
 40
0.9571378773
 40
1.0
 40
1.0
 40
1.0
 40
1.0
 10
24.2073412486
 20
27.4450957611
 30
0.0
 10
24.2073412486
 20
27.4023692578
 30
0.0
 10
24.2193206385
 20
27.3125021343
 30
0.0
 10
24.2639098891
 20
27.1805512278
 30
0.0
 10
24.3327108016
 20
27.0534623252
 30
0.0
 10
24.4200604256
 20
26.9416227335
 30
0.0
 10
24.5189107773
 20
26.8540892984
 30
0.0
 10
24.6083701229
 20
26.8051349627
 30
0.0
 10
24.6783670756
 20
26.7865553736
 30
0.0
 10
24.7265319815
 20
26.7829726058
 30
0.0
 10
24.7713838959
 20
26.7895824307
 30
0.0
 10
24.7985516914
 20
26.8008729047
 30
0.0
 10
24.8108842756
 20
26.8079806395
 30
0.0
  0
SPLINE
  5
2F4
100
AcDbEntity
  8
0
100
AcDbSpline
 62
7
  6
BYLAYER
 70
0
 71
3
 72
11
 73
7
 74
0
 42
0.0000001
 43
0.0000001
 44
0.0000000001
 40
0.0
 40
0.0
 40
0.0
 40
0.0
 40
0.2176907916
 40
0.4508868986
 40
0.7106214304
 40
1.0
 40
1.0
 40
1.0
 40
1.0
 10
33.5033343736
 20
46.8619128334
 30
0.0
 10
33.4868413764
 20
46.8524072952
 30
0.0
 10
33.4559804697
 20
46.8264721081
 30
0.0
 10
33.4230932025
 20
46.772741087
 30
0.0
 10
33.4036575631
 20
46.7065152962
 30
0.0
 10
33.3997676755
 20
46.6583433851
 30
0.0
 10
33.3997676755
 20
46.6330384662
 30
0.0
  0
SPLINE
  5
2F5
100
AcDbEntity
  8
0
100
AcDbSpline
 62
7
  6
BYLAYER
 70
0
 71
3
 72
17
 73
13
 74
0
 42
0.0000001
 43
0.0000001
 44
0.0000000001
 40
0.0
 40
0.0
 40
0.0
 40
0.0
 40
0.1286583215
 40
0.2703136878
 40
0.417429293
 40
0.5617691287
 40
0.6954408117
 40
0.8127129847
 40
0.8646719982
 40
0.912513003
 40
0.9571378773
 40
1.0
 40
1.0
 40
1.0
 40
1.0
 10
19.9646828977
 20
48.6740958822
 30
0.0
 10
19.9646828977
 20
48.6313693789
 30
0.0
 10
19.9766622876
 20
48.5415022554
 30
0.0
 10
20.0212515382
 20
48.4095513489
 30
0.0
 10
20.0900524508
 20
48.2824624463
 30
0.0
 10
20.1774020747
 20
48.1706228546
 30
0.0
 10
20.2762524264
 20
48.0830894195
 30
0.0
 10
20.365711772
 20
48.0341350838
 30
0.0
 10
20.4357087247
 20
48.0155554947
 30
0.0
 10
20.4838736307
 20
48.0119727269
 30
0.0
 10
20.528725545
 20
48.0185825518
 30
0.0
 10
20.5558933405
 20
48.0298730258
 30
0.0
 10
20.5682259248
 20
48.0369807606
 30
0.0
  0
SPLINE
  5
2F6
100
AcDbEntity
  8
0
100
AcDbSpline
 62
7
  6
BYLAYER
 70
0
 71
3
 72
17
 73
13
 74
0
 42
0.0000001
 43
0.0000001
 44
0.0000000001
 40
0.0
 40
0.0
 40
0.0
 40
0.0
 40
0.1286583215
 40
0.2703136878
 40
0.417429293
 40
0.5617691287
 40
0.6954408117
 40
0.8127129847
 40
0.8646719982
 40
0.912513003
 40
0.9571378773
 40
1.0
 40
1.0
 40
1.0
 40
1.0
 10
19.9646828977
 20
54.3896128021
 30
0.0
 10
19.9646828977
 20
54.3468862988
 30
0.0
 10
19.9766622876
 20
54.2570191753
 30
0.0
 10
20.0212515382
 20
54.1250682688
 30
0.0
 10
20.0900524508
 20
53.9979793663
 30
0.0
 10
20.1774020747
 20
53.8861397745
 30
0.0
 10
20.2762524264
 20
53.7986063394
 30
0.0
 10
20.365711772
 20
53.7496520037
 30
0.0
 10
20.4357087247
 20
53.7310724146
 30
0.0
 10
20.4838736307
 20
53.7274896468
 30
0.0
 10
20.528725545
 20
53.7340994717
 30
0.0
 10
20.5558933405
 20
53.7453899457
 30
0.0
 10
20.5682259248
 20
53.7524976805
 30
0.0
  0
SPLINE
  5
2F7
100
AcDbEntity
  8
0
100
AcDbSpline
 62
7
  6
BYLAYER
 70
0
 71
3
 72
17
 73
13
 74
0
 42
0.0000001
 43
0.0000001
 44
0.0000000001
 40
0.0
 40
0.0
 40
0.0
 40
0.0
 40
0.1286583215
 40
0.2703136878
 40
0.417429293
 40
0.5617691287
 40
0.6954408117
 40
0.8127129847
 40
0.8646719982
 40
0.912513003
 40
0.9571378773
 40
1.0
 40
1.0
 40
1.0
 40
1.0
 10
19.9646828977
 20
35.6100572081
 30
0.0
 10
19.9646828977
 20
35.5673307048
 30
0.0
 10
19.9766622876
 20
35.4774635813
 30
0.0
 10
20.0212515382
 20
35.3455126749
 30
0.0
 10
20.0900524508
 20
35.2184237723
 30
0.0
 10
20.1774020747
 20
35.1065841806
 30
0.0
 10
20.2762524264
 20
35.0190507454
 30
0.0
 10
20.365711772
 20
34.9700964097
 30
0.0
 10
20.4357087247
 20
34.9515168206
 30
0.0
 10
20.4838736307
 20
34.9479340528
 30
0.0
 10
20.528725545
 20
34.9545438778
 30
0.0
 10
20.5558933405
 20
34.9658343517
 30
0.0
 10
20.5682259248
 20
34.9729420865
 30
0.0
  0
SPLINE
  5
2F8
100
AcDbEntity
  8
0
100
AcDbSpline
 62
7
  6
BYLAYER
 70
0
 71
3
 72
9
 73
5
 74
0
 42
0.0000001
 43
0.0000001
 44
0.0000000001
 40
0.0
 40
0.0
 40
0.0
 40
0.0
 40
0.2458631492
 40
1.0
 40
1.0
 40
1.0
 40
1.0
 10
18.238889237
 20
25.5938983412
 30
0.0
 10
18.2304384808
 20
25.6033294992
 30
0.0
 10
18.1970212855
 20
25.6425365258
 30
0.0
 10
18.1673625626
 20
25.6849237658
 30
0.0
 10
18.1472649626
 20
25.7181627255
 30
0.0
  0
SPLINE
  5
2F9
100
AcDbEntity
  8
0
100
AcDbSpline
 62
7
  6
BYLAYER
 70
0
 71
3
 72
17
 73
13
 74
0
 42
0.0000001
 43
0.0000001
 44
0.0000000001
 40
0.0
 40
0.0
 40
0.0
 40
0.0
 40
0.1286583215
 40
0.2703136878
 40
0.417429293
 40
0.5617691287
 40
0.6954408117
 40
0.8127129847
 40
0.8646719982
 40
0.912513003
 40
0.9571378773
 40
1.0
 40
1.0
 40
1.0
 40
1.0
 10
19.9646828977
 20
29.8945402882
 30
0.0
 10
19.9646828977
 20
29.8518137849
 30
0.0
 10
19.9766622876
 20
29.7619466614
 30
0.0
 10
20.0212515382
 20
29.629995755
 30
0.0
 10
20.0900524508
 20
29.5029068524
 30
0.0
 10
20.1774020747
 20
29.3910672607
 30
0.0
 10
20.2762524264
 20
29.3035338255
 30
0.0
 10
20.365711772
 20
29.2545794898
 30
0.0
 10
20.4357087247
 20
29.2359999007
 30
0.0
 10
20.4838736307
 20
29.2324171329
 30
0.0
 10
20.528725545
 20
29.2390269579
 30
0.0
 10
20.5558933405
 20
29.2503174318
 30
0.0
 10
20.5682259248
 20
29.2574251666
 30
0.0
  0
SPLINE
  5
2FA
100
AcDbEntity
  8
0
100
AcDbSpline
 62
7
  6
BYLAYER
 70
0
 71
3
 72
11
 73
7
 74
0
 42
0.0000001
 43
0.0000001
 44
0.0000000001
 40
0.0
 40
0.0
 40
0.0
 40
0.0
 40
0.2177448213
 40
0.4508828809
 40
0.710457473
 40
1.0
 40
1.0
 40
1.0
 40
1.0
 10
37.9909764719
 20
20.0472531906
 30
0.0
 10
38.0239554011
 20
20.0282130528
 30
0.0
 10
38.0997053399
 20
20.0006265296
 30
0.0
 10
38.2256344643
 20
19.9974671095
 30
0.0
 10
38.3597783762
 20
20.0299292072
 30
0.0
 10
38.4470893289
 20
20.0714100592
 30
0.0
 10
38.4909400312
 20
20.0967326518
 30
0.0
  0
SPLINE
  5
2FB
100
AcDbEntity
  8
0
100
AcDbSpline
 62
7
  6
BYLAYER
 70
0
 71
3
 72
17
 73
13
 74
0
 42
0.0000001
 43
0.0000001
 44
0.0000000001
 40
0.0
 40
0.0
 40
0.0
 40
0.0
 40
0.1286583215
 40
0.2703136878
 40
0.417429293
 40
0.5617691287
 40
0.6954408117
 40
0.8127129847
 40
0.8646719982
 40
0.912513003
 40
0.9571378773
 40
1.0
 40
1.0
 40
1.0
 40
1.0
 10
33.3997676755
 20
40.9175215463
 30
0.0
 10
33.3997676755
 20
40.874795043
 30
0.0
 10
33.4117470654
 20
40.7849279195
 30
0.0
 10
33.456336316
 20
40.6529770131
 30
0.0
 10
33.5251372286
 20
40.5258881105
 30
0.0
 10
33.6124868525
 20
40.4140485188
 30
0.0
 10
33.7113372042
 20
40.3265150836
 30
0.0
 10
33.8007965498
 20
40.2775607479
 30
0.0
 10
33.8707935025
 20
40.2589811588
 30
0.0
 10
33.9189584084
 20
40.255398391
 30
0.0
 10
33.9638103228
 20
40.262008216
 30
0.0
 10
33.9909781183
 20
40.2732986899
 30
0.0
 10
34.0033107025
 20
40.2804064247
 30
0.0
  0
SPLINE
  5
2FC
100
AcDbEntity
  8
0
100
AcDbSpline
 62
7
  6
BYLAYER
 70
0
 71
3
 72
17
 73
13
 74
0
 42
0.0000001
 43
0.0000001
 44
0.0000000001
 40
0.0
 40
0.0
 40
0.0
 40
0.0
 40
0.1286583215
 40
0.2703136878
 40
0.417429293
 40
0.5617691287
 40
0.6954408117
 40
0.8127129847
 40
0.8646719982
 40
0.912513003
 40
0.9571378773
 40
1.0
 40
1.0
 40
1.0
 40
1.0
 10
33.3997676755
 20
46.6330384662
 30
0.0
 10
33.3997676755
 20
46.5903119629
 30
0.0
 10
33.4117470654
 20
46.5004448394
 30
0.0
 10
33.456336316
 20
46.368493933
 30
0.0
 10
33.5251372286
 20
46.2414050304
 30
0.0
 10
33.6124868525
 20
46.1295654387
 30
0.0
 10
33.7113372042
 20
46.0420320035
 30
0.0
 10
33.8007965498
 20
45.9930776678
 30
0.0
 10
33.8707935025
 20
45.9744980787
 30
0.0
 10
33.9189584084
 20
45.9709153109
 30
0.0
 10
33.9638103228
 20
45.9775251359
 30
0.0
 10
33.9909781183
 20
45.9888156098
 30
0.0
 10
34.0033107025
 20
45.9959233446
 30
0.0
  0
SPLINE
  5
2FD
100
AcDbEntity
  8
0
100
AcDbSpline
 62
7
  6
BYLAYER
 70
0
 71
3
 72
11
 73
7
 74
0
 42
0.0000001
 43
0.0000001
 44
0.0000000001
 40
0.0
 40
0.0
 40
0.0
 40
0.0
 40
0.2176907916
 40
0.4508868986
 40
0.7106214304
 40
1.0
 40
1.0
 40
1.0
 40
1.0
 10
33.5033343736
 20
41.1463959134
 30
0.0
 10
33.4868413764
 20
41.1368903753
 30
0.0
 10
33.4559804697
 20
41.1109551882
 30
0.0
 10
33.4230932025
 20
41.0572241671
 30
0.0
 10
33.4036575631
 20
40.9909983763
 30
0.0
 10
33.3997676755
 20
40.9428264652
 30
0.0
 10
33.3997676755
 20
40.9175215463
 30
0.0
  0
SPLINE
  5
2FE
100
AcDbEntity
  8
0
100
AcDbSpline
 62
7
  6
BYLAYER
 70
0
 71
3
 72
17
 73
13
 74
0
 42
0.0000001
 43
0.0000001
 44
0.0000000001
 40
0.0
 40
0.0
 40
0.0
 40
0.0
 40
0.1286583215
 40
0.2703136878
 40
0.417429293
 40
0.5617691287
 40
0.6954408117
 40
0.8127129847
 40
0.8646719982
 40
0.912513003
 40
0.9571378773
 40
1.0
 40
1.0
 40
1.0
 40
1.0
 10
33.3997676755
 20
27.8534828723
 30
0.0
 10
33.3997676755
 20
27.810756369
 30
0.0
 10
33.4117470654
 20
27.7208892455
 30
0.0
 10
33.456336316
 20
27.588938339
 30
0.0
 10
33.5251372286
 20
27.4618494364
 30
0.0
 10
33.6124868525
 20
27.3500098447
 30
0.0
 10
33.7113372042
 20
27.2624764096
 30
0.0
 10
33.8007965498
 20
27.2135220738
 30
0.0
 10
33.8707935025
 20
27.1949424848
 30
0.0
 10
33.9189584084
 20
27.1913597169
 30
0.0
 10
33.9638103228
 20
27.1979695419
 30
0.0
 10
33.9909781183
 20
27.2092600159
 30
0.0
 10
34.0033107025
 20
27.2163677506
 30
0.0
  0
SPLINE
  5
2FF
100
AcDbEntity
  8
0
100
AcDbSpline
 62
7
  6
BYLAYER
 70
0
 71
3
 72
17
 73
13
 74
0
 42
0.0000001
 43
0.0000001
 44
0.0000000001
 40
0.0
 40
0.0
 40
0.0
 40
0.0
 40
0.1286583215
 40
0.2703136878
 40
0.417429293
 40
0.5617691287
 40
0.6954408117
 40
0.8127129847
 40
0.8646719982
 40
0.912513003
 40
0.9571378773
 40
1.0
 40
1.0
 40
1.0
 40
1.0
 10
33.3997676755
 20
22.1379659523
 30
0.0
 10
33.3997676755
 20
22.095239449
 30
0.0
 10
33.4117470654
 20
22.0053723256
 30
0.0
 10
33.456336316
 20
21.8734214191
 30
0.0
 10
33.5251372286
 20
21.7463325165
 30
0.0
 10
33.6124868525
 20
21.6344929248
 30
0.0
 10
33.7113372042
 20
21.5469594896
 30
0.0
 10
33.8007965498
 20
21.4980051539
 30
0.0
 10
33.8707935025
 20
21.4794255649
 30
0.0
 10
33.9189584084
 20
21.475842797
 30
0.0
 10
33.9638103228
 20
21.482452622
 30
0.0
 10
33.9909781183
 20
21.4937430959
 30
0.0
 10
34.0033107025
 20
21.5008508307
 30
0.0
  0
SPLINE
  5
300
100
AcDbEntity
  8
0
100
AcDbSpline
 62
7
  6
BYLAYER
 70
0
 71
3
 72
9
 73
5
 74
0
 42
0.0000001
 43
0.0000001
 44
0.0000000001
 40
0.0
 40
0.0
 40
0.0
 40
0.0
 40
0.4931274965
 40
1.0
 40
1.0
 40
1.0
 40
1.0
 10
40.6169438791
 20
6.5112504022
 30
0.0
 10
40.6345282167
 20
6.5172112521
 30
0.0
 10
40.6684571793
 20
6.5353074828
 30
0.0
 10
40.6944861398
 20
6.563464244
 30
0.0
 10
40.7053685708
 20
6.5791422283
 30
0.0
  0
SPLINE
  5
301
100
AcDbEntity
  8
0
100
AcDbSpline
 62
7
  6
BYLAYER
 70
0
 71
3
 72
9
 73
5
 74
0
 42
0.0000001
 43
0.0000001
 44
0.0000000001
 40
0.0
 40
0.0
 40
0.0
 40
0.0
 40
0.2246095508
 40
1.0
 40
1.0
 40
1.0
 40
1.0
 10
40.7053685708
 20
6.5791422283
 30
0.0
 10
40.7135021442
 20
6.5908600178
 30
0.0
 10
40.7443211453
 20
6.6468259646
 30
0.0
 10
40.7536723118
 20
6.7124044805
 30
0.0
 10
40.7536723118
 20
6.7616462287
 30
0.0
  0
SPLINE
  5
302
100
AcDbEntity
  8
0
100
AcDbSpline
 62
7
  6
BYLAYER
 70
0
 71
3
 72
9
 73
5
 74
0
 42
0.0000001
 43
0.0000001
 44
0.0000000001
 40
0.0
 40
0.0
 40
0.0
 40
0.0
 40
0.2481670428
 40
1.0
 40
1.0
 40
1.0
 40
1.0
 10
40.7733742821
 20
6.5644264856
 30
0.0
 10
40.7794245232
 20
6.5664974047
 30
0.0
 10
40.8034536122
 20
6.5758445252
 30
0.0
 10
40.8258890084
 20
6.5892044151
 30
0.0
 10
40.8412745547
 20
6.6009779788
 30
0.0
  0
SPLINE
  5
303
100
AcDbEntity
  8
0
100
AcDbSpline
 62
7
  6
BYLAYER
 70
0
 71
3
 72
9
 73
5
 74
0
 42
0.0000001
 43
0.0000001
 44
0.0000000001
 40
0.0
 40
0.0
 40
0.0
 40
0.0
 40
0.4708220218
 40
1.0
 40
1.0
 40
1.0
 40
1.0
 10
40.8623722354
 20
6.6190136369
 30
0.0
 10
40.8897751316
 20
6.6450809503
 30
0.0
 10
40.9362516111
 20
6.7131306176
 30
0.0
 10
40.9585535705
 20
6.7914786313
 30
0.0
 10
40.965286345
 20
6.833450707
 30
0.0
  0
SPLINE
  5
304
100
AcDbEntity
  8
0
100
AcDbSpline
 62
7
  6
BYLAYER
 70
0
 71
3
 72
17
 73
13
 74
0
 42
0.0000001
 43
0.0000001
 44
0.0000000001
 40
0.0
 40
0.0
 40
0.0
 40
0.0
 40
0.1286583215
 40
0.2703136878
 40
0.417429293
 40
0.5617691287
 40
0.6954408117
 40
0.8127129847
 40
0.8646719982
 40
0.912513003
 40
0.9571378773
 40
1.0
 40
1.0
 40
1.0
 40
1.0
 10
19.9646828977
 20
42.1420765452
 30
0.0
 10
19.9646828977
 20
42.0993500419
 30
0.0
 10
19.9766622876
 20
42.0094829184
 30
0.0
 10
20.0212515382
 20
41.8775320119
 30
0.0
 10
20.0900524508
 20
41.7504431093
 30
0.0
 10
20.1774020747
 20
41.6386035176
 30
0.0
 10
20.2762524264
 20
41.5510700825
 30
0.0
 10
20.365711772
 20
41.5021157467
 30
0.0
 10
20.4357087247
 20
41.4835361577
 30
0.0
 10
20.4838736307
 20
41.4799533898
 30
0.0
 10
20.528725545
 20
41.4865632148
 30
0.0
 10
20.5558933405
 20
41.4978536888
 30
0.0
 10
20.5682259248
 20
41.5049614235
 30
0.0
  0
SPLINE
  5
305
100
AcDbEntity
  8
0
100
AcDbSpline
 62
7
  6
BYLAYER
 70
0
 71
3
 72
12
 73
8
 74
0
 42
0.0000001
 43
0.0000001
 44
0.0000000001
 40
0.0
 40
0.0
 40
0.0
 40
0.0
 40
0.1081611504
 40
0.2183683754
 40
0.4513230984
 40
0.7105122274
 40
1.0
 40
1.0
 40
1.0
 40
1.0
 10
35.0160828754
 20
6.4150994848
 30
0.0
 10
34.9832971915
 20
6.4340381067
 30
0.0
 10
34.9202814521
 20
6.4780803539
 30
0.0
 10
34.8071700026
 20
6.5892737793
 30
0.0
 10
34.6951153659
 20
6.7718942993
 30
0.0
 10
34.6172708929
 20
7.0365819151
 30
0.0
 10
34.6018542083
 20
7.2293276395
 30
0.0
 10
34.6018542083
 20
7.330664805
 30
0.0
  0
SPLINE
  5
306
100
AcDbEntity
  8
0
100
AcDbSpline
 62
7
  6
BYLAYER
 70
0
 71
3
 72
17
 73
13
 74
0
 42
0.0000001
 43
0.0000001
 44
0.0000000001
 40
0.0
 40
0.0
 40
0.0
 40
0.0
 40
0.1286583215
 40
0.2703136878
 40
0.417429293
 40
0.5617691287
 40
0.6954408117
 40
0.8127129847
 40
0.8646719982
 40
0.912513003
 40
0.9571378773
 40
1.0
 40
1.0
 40
1.0
 40
1.0
 10
33.3997676755
 20
34.3855022093
 30
0.0
 10
33.3997676755
 20
34.342775706
 30
0.0
 10
33.4117470654
 20
34.2529085825
 30
0.0
 10
33.456336316
 20
34.120957676
 30
0.0
 10
33.5251372286
 20
33.9938687734
 30
0.0
 10
33.6124868525
 20
33.8820291817
 30
0.0
 10
33.7113372042
 20
33.7944957466
 30
0.0
 10
33.8007965498
 20
33.7455414109
 30
0.0
 10
33.8707935025
 20
33.7269618218
 30
0.0
 10
33.9189584084
 20
33.7233790539
 30
0.0
 10
33.9638103228
 20
33.7299888789
 30
0.0
 10
33.9909781183
 20
33.7412793529
 30
0.0
 10
34.0033107025
 20
33.7483870877
 30
0.0
  0
SPLINE
  5
307
100
AcDbEntity
  8
0
100
AcDbSpline
 62
7
  6
BYLAYER
 70
0
 71
3
 72
11
 73
7
 74
0
 42
0.0000001
 43
0.0000001
 44
0.0000000001
 40
0.0
 40
0.0
 40
0.0
 40
0.0
 40
0.2893955969
 40
0.5491264745
 40
0.7823127214
 40
1.0
 40
1.0
 40
1.0
 40
1.0
 10
27.3186240392
 20
37.4881214896
 30
0.0
 10
27.3405396261
 20
37.4754688059
 30
0.0
 10
27.3842027619
 20
37.4547512708
 30
0.0
 10
27.4512728243
 20
37.4384733565
 30
0.0
 10
27.5142463384
 20
37.4400872302
 30
0.0
 10
27.5521338544
 20
37.4538485053
 30
0.0
 10
27.568612255
 20
37.4633777934
 30
0.0
  0
SPLINE
  5
308
100
AcDbEntity
  8
0
100
AcDbSpline
 62
7
  6
BYLAYER
 70
0
 71
3
 72
11
 73
7
 74
0
 42
0.0000001
 43
0.0000001
 44
0.0000000001
 40
0.0
 40
0.0
 40
0.0
 40
0.0
 40
0.2176907916
 40
0.4508868986
 40
0.7106214304
 40
1.0
 40
1.0
 40
1.0
 40
1.0
 10
20.0682495958
 20
24.816148944
 30
0.0
 10
20.0517565986
 20
24.8066434059
 30
0.0
 10
20.0208956919
 20
24.7807082188
 30
0.0
 10
19.9880084247
 20
24.7269771977
 30
0.0
 10
19.9685727853
 20
24.6607514068
 30
0.0
 10
19.9646828977
 20
24.6125794958
 30
0.0
 10
19.9646828977
 20
24.5872745769
 30
0.0
  0
SPLINE
  5
309
100
AcDbEntity
  8
0
100
AcDbSpline
 62
7
  6
BYLAYER
 70
0
 71
3
 72
17
 73
13
 74
0
 42
0.0000001
 43
0.0000001
 44
0.0000000001
 40
0.0
 40
0.0
 40
0.0
 40
0.0
 40
0.1286583215
 40
0.2703136878
 40
0.417429293
 40
0.5617691287
 40
0.6954408117
 40
0.8127129847
 40
0.8646719982
 40
0.912513003
 40
0.9571378773
 40
1.0
 40
1.0
 40
1.0
 40
1.0
 10
23.1466766609
 20
19.484181513
 30
0.0
 10
23.1466766609
 20
19.4414550097
 30
0.0
 10
23.1586560508
 20
19.3515878862
 30
0.0
 10
23.2032453014
 20
19.2196369798
 30
0.0
 10
23.2720462139
 20
19.0925480772
 30
0.0
 10
23.3593958379
 20
18.9807084855
 30
0.0
 10
23.4582461896
 20
18.8931750503
 30
0.0
 10
23.5477055352
 20
18.8442207146
 30
0.0
 10
23.6177024879
 20
18.8256411255
 30
0.0
 10
23.6658673938
 20
18.8220583577
 30
0.0
 10
23.7107193081
 20
18.8286681827
 30
0.0
 10
23.7378871037
 20
18.8399586566
 30
0.0
 10
23.7502196879
 20
18.8470663914
 30
0.0
  0
SPLINE
  5
30A
100
AcDbEntity
  8
0
100
AcDbSpline
 62
7
  6
BYLAYER
 70
0
 71
3
 72
13
 73
9
 74
0
 42
0.0000001
 43
0.0000001
 44
0.0000000001
 40
0.0
 40
0.0
 40
0.0
 40
0.0
 40
0.1166628104
 40
0.2434780585
 40
0.5119748133
 40
0.7737955153
 40
0.8927505885
 40
1.0
 40
1.0
 40
1.0
 40
1.0
 10
27.4629603398
 20
37.5714535942
 30
0.0
 10
27.4359714235
 20
37.5870352998
 30
0.0
 10
27.3827972576
 20
37.6251482026
 30
0.0
 10
27.2847460012
 20
37.721040021
 30
0.0
 10
27.1853984792
 20
37.8680998611
 30
0.0
 10
27.1242562885
 20
38.0327803629
 30
0.0
 10
27.1071857483
 20
38.1625009556
 30
0.0
 10
27.1100457824
 20
38.2233601805
 30
0.0
 10
27.1147767701
 20
38.2516162112
 30
0.0
  0
SPLINE
  5
30B
100
AcDbEntity
  8
0
100
AcDbSpline
 62
7
  6
BYLAYER
 70
0
 71
3
 72
9
 73
5
 74
0
 42
0.0000001
 43
0.0000001
 44
0.0000000001
 40
0.0
 40
0.0
 40
0.0
 40
0.0
 40
0.2664124694
 40
1.0
 40
1.0
 40
1.0
 40
1.0
 10
27.1147767701
 20
38.2516162112
 30
0.0
 10
27.1162459852
 20
38.260391163
 30
0.0
 10
27.1229926833
 20
38.2930841623
 30
0.0
 10
27.1350454185
 20
38.3248799875
 30
0.0
 10
27.1474179968
 20
38.346025041
 30
0.0
  0
SPLINE
  5
30C
100
AcDbEntity
  8
0
100
AcDbSpline
 62
7
  6
BYLAYER
 70
0
 71
3
 72
11
 73
7
 74
0
 42
0.0000001
 43
0.0000001
 44
0.0000000001
 40
0.0
 40
0.0
 40
0.0
 40
0.0
 40
0.2176907916
 40
0.4508868986
 40
0.7106214304
 40
1.0
 40
1.0
 40
1.0
 40
1.0
 10
20.0682495958
 20
30.1234146554
 30
0.0
 10
20.0517565986
 20
30.1139091172
 30
0.0
 10
20.0208956919
 20
30.0879739301
 30
0.0
 10
19.9880084247
 20
30.034242909
 30
0.0
 10
19.9685727853
 20
29.9680171182
 30
0.0
 10
19.9646828977
 20
29.9198452071
 30
0.0
 10
19.9646828977
 20
29.8945402882
 30
0.0
  0
SPLINE
  5
30D
100
AcDbEntity
  8
0
100
AcDbSpline
 62
7
  6
BYLAYER
 70
0
 71
3
 72
17
 73
13
 74
0
 42
0.0000001
 43
0.0000001
 44
0.0000000001
 40
0.0
 40
0.0
 40
0.0
 40
0.0
 40
0.1286583215
 40
0.2703136878
 40
0.417429293
 40
0.5617691287
 40
0.6954408117
 40
0.8127129847
 40
0.8646719982
 40
0.912513003
 40
0.9571378773
 40
1.0
 40
1.0
 40
1.0
 40
1.0
 10
32.0562591977
 20
14.3403480061
 30
0.0
 10
32.0562591977
 20
14.2976215028
 30
0.0
 10
32.0682385876
 20
14.2077543793
 30
0.0
 10
32.1128278383
 20
14.0758034728
 30
0.0
 10
32.1816287508
 20
13.9487145702
 30
0.0
 10
32.2689783747
 20
13.8368749785
 30
0.0
 10
32.3678287264
 20
13.7493415434
 30
0.0
 10
32.457288072
 20
13.7003872076
 30
0.0
 10
32.5272850247
 20
13.6818076186
 30
0.0
 10
32.5754499307
 20
13.6782248507
 30
0.0
 10
32.620301845
 20
13.6848346757
 30
0.0
 10
32.6474696406
 20
13.6961251497
 30
0.0
 10
32.6598022248
 20
13.7032328844
 30
0.0
  0
SPLINE
  5
30E
100
AcDbEntity
  8
0
100
AcDbSpline
 62
7
  6
BYLAYER
 70
0
 71
3
 72
17
 73
13
 74
0
 42
0.0000001
 43
0.0000001
 44
0.0000000001
 40
0.0
 40
0.0
 40
0.0
 40
0.0
 40
0.0428572867
 40
0.087478901
 40
0.135317672
 40
0.1872741418
 40
0.304541533
 40
0.4382073532
 40
0.5825485752
 40
0.7296733781
 40
0.8713415196
 40
1.0
 40
1.0
 40
1.0
 40
1.0
 10
27.0686358234
 20
38.329367603
 30
0.0
 10
27.0563149521
 20
38.322242571
 30
0.0
 10
27.0329520173
 20
38.3043649565
 30
0.0
 10
27.0048073938
 20
38.2688261629
 30
0.0
 10
26.9838249565
 20
38.2253272479
 30
0.0
 10
26.9649143556
 20
38.1554213342
 30
0.0
 10
26.9625767413
 20
38.0534739682
 30
0.0
 10
26.9889531394
 20
37.9241012995
 30
0.0
 10
27.0421339469
 20
37.7925315315
 30
0.0
 10
27.1177965818
 20
37.6693938212
 30
0.0
 10
27.2097799107
 20
37.5647959312
 30
0.0
 10
27.2816212601
 20
37.5094845708
 30
0.0
 10
27.3186240392
 20
37.4881214896
 30
0.0
  0
SPLINE
  5
30F
100
AcDbEntity
  8
0
100
AcDbSpline
 62
7
  6
BYLAYER
 70
0
 71
3
 72
17
 73
13
 74
0
 42
0.0000001
 43
0.0000001
 44
0.0000000001
 40
0.0
 40
0.0
 40
0.0
 40
0.0
 40
0.1286583215
 40
0.2703136878
 40
0.417429293
 40
0.5617691287
 40
0.6954408117
 40
0.8127129847
 40
0.8646719982
 40
0.912513003
 40
0.9571378773
 40
1.0
 40
1.0
 40
1.0
 40
1.0
 10
19.9646828977
 20
24.5872745769
 30
0.0
 10
19.9646828977
 20
24.5445480736
 30
0.0
 10
19.9766622876
 20
24.4546809501
 30
0.0
 10
20.0212515382
 20
24.3227300436
 30
0.0
 10
20.0900524508
 20
24.195641141
 30
0.0
 10
20.1774020747
 20
24.0838015493
 30
0.0
 10
20.2762524264
 20
23.9962681142
 30
0.0
 10
20.365711772
 20
23.9473137785
 30
0.0
 10
20.4357087247
 20
23.9287341894
 30
0.0
 10
20.4838736307
 20
23.9251514215
 30
0.0
 10
20.528725545
 20
23.9317612465
 30
0.0
 10
20.5558933405
 20
23.9430517205
 30
0.0
 10
20.5682259248
 20
23.9501594553
 30
0.0
  0
SPLINE
  5
310
100
AcDbEntity
  8
0
100
AcDbSpline
 62
7
  6
BYLAYER
 70
0
 71
3
 72
17
 73
13
 74
0
 42
0.0000001
 43
0.0000001
 44
0.0000000001
 40
0.0
 40
0.0
 40
0.0
 40
0.0
 40
0.1286583215
 40
0.2703136878
 40
0.417429293
 40
0.5617691287
 40
0.6954408117
 40
0.8127129847
 40
0.8646719982
 40
0.912513003
 40
0.9571378773
 40
1.0
 40
1.0
 40
1.0
 40
1.0
 10
19.9646828977
 20
59.6968785135
 30
0.0
 10
19.9646828977
 20
59.6541520102
 30
0.0
 10
19.9766622876
 20
59.5642848867
 30
0.0
 10
20.0212515382
 20
59.4323339802
 30
0.0
 10
20.0900524508
 20
59.3052450776
 30
0.0
 10
20.1774020747
 20
59.1934054859
 30
0.0
 10
20.2762524264
 20
59.1058720508
 30
0.0
 10
20.365711772
 20
59.056917715
 30
0.0
 10
20.4357087247
 20
59.038338126
 30
0.0
 10
20.4838736307
 20
59.0347553581
 30
0.0
 10
20.528725545
 20
59.0413651831
 30
0.0
 10
20.5558933405
 20
59.0526556571
 30
0.0
 10
20.5682259248
 20
59.0597633918
 30
0.0
  0
SPLINE
  5
311
100
AcDbEntity
  8
0
100
AcDbSpline
 62
7
  6
BYLAYER
 70
0
 71
3
 72
9
 73
5
 74
0
 42
0.0000001
 43
0.0000001
 44
0.0000000001
 40
0.0
 40
0.0
 40
0.0
 40
0.0
 40
0.2442893728
 40
1.0
 40
1.0
 40
1.0
 40
1.0
 10
27.6282923963
 20
37.523388458
 30
0.0
 10
27.6251935151
 20
37.5232839192
 30
0.0
 10
27.6124996646
 20
37.5231339904
 30
0.0
 10
27.5997986853
 20
37.5240788596
 30
0.0
 10
27.5902891897
 20
37.5253331657
 30
0.0
  0
SPLINE
  5
312
100
AcDbEntity
  8
0
100
AcDbSpline
 62
7
  6
BYLAYER
 70
0
 71
3
 72
9
 73
5
 74
0
 42
0.0000001
 43
0.0000001
 44
0.0000000001
 40
0.0
 40
0.0
 40
0.0
 40
0.0
 40
0.2316801842
 40
1.0
 40
1.0
 40
1.0
 40
1.0
 10
27.5902891897
 20
37.5253331657
 30
0.0
 10
27.5798819195
 20
37.5267058886
 30
0.0
 10
27.5353339714
 20
37.535451083
 30
0.0
 10
27.4931090293
 20
37.554047634
 30
0.0
 10
27.4629603398
 20
37.5714535942
 30
0.0
  0
SPLINE
  5
313
100
AcDbEntity
  8
0
100
AcDbSpline
 62
7
  6
BYLAYER
 70
0
 71
3
 72
11
 73
7
 74
0
 42
0.0000001
 43
0.0000001
 44
0.0000000001
 40
0.0
 40
0.0
 40
0.0
 40
0.0
 40
0.2176907916
 40
0.4508868986
 40
0.7106214304
 40
1.0
 40
1.0
 40
1.0
 40
1.0
 10
30.1799186654
 20
24.2855718657
 30
0.0
 10
30.1634256682
 20
24.2760663276
 30
0.0
 10
30.1325647615
 20
24.2501311405
 30
0.0
 10
30.0996774943
 20
24.1964001194
 30
0.0
 10
30.0802418549
 20
24.1301743285
 30
0.0
 10
30.0763519673
 20
24.0820024175
 30
0.0
 10
30.0763519673
 20
24.0566974986
 30
0.0
  0
SPLINE
  5
314
100
AcDbEntity
  8
0
100
AcDbSpline
 62
7
  6
BYLAYER
 70
0
 71
3
 72
11
 73
7
 74
0
 42
0.0000001
 43
0.0000001
 44
0.0000000001
 40
0.0
 40
0.0
 40
0.0
 40
0.0
 40
0.2176907916
 40
0.4508868986
 40
0.7106214304
 40
1.0
 40
1.0
 40
1.0
 40
1.0
 10
20.0682495958
 20
35.8389315753
 30
0.0
 10
20.0517565986
 20
35.8294260371
 30
0.0
 10
20.0208956919
 20
35.8034908501
 30
0.0
 10
19.9880084247
 20
35.7497598289
 30
0.0
 10
19.9685727853
 20
35.6835340381
 30
0.0
 10
19.9646828977
 20
35.635362127
 30
0.0
 10
19.9646828977
 20
35.6100572081
 30
0.0
  0
SPLINE
  5
315
100
AcDbEntity
  8
0
100
AcDbSpline
 62
7
  6
BYLAYER
 70
0
 71
3
 72
11
 73
7
 74
0
 42
0.0000001
 43
0.0000001
 44
0.0000000001
 40
0.0
 40
0.0
 40
0.0
 40
0.0
 40
0.2176907916
 40
0.4508868986
 40
0.7106214304
 40
1.0
 40
1.0
 40
1.0
 40
1.0
 10
20.0682495958
 20
54.6184871692
 30
0.0
 10
20.0517565986
 20
54.6089816311
 30
0.0
 10
20.0208956919
 20
54.583046444
 30
0.0
 10
19.9880084247
 20
54.5293154229
 30
0.0
 10
19.9685727853
 20
54.4630896321
 30
0.0
 10
19.9646828977
 20
54.414917721
 30
0.0
 10
19.9646828977
 20
54.3896128021
 30
0.0
  0
SPLINE
  5
316
100
AcDbEntity
  8
0
100
AcDbSpline
 62
7
  6
BYLAYER
 70
0
 71
3
 72
11
 73
7
 74
0
 42
0.0000001
 43
0.0000001
 44
0.0000000001
 40
0.0
 40
0.0
 40
0.0
 40
0.0
 40
0.289702809
 40
0.549088757
 40
0.7822160314
 40
1.0
 40
1.0
 40
1.0
 40
1.0
 10
43.0871149747
 20
22.7503196526
 30
0.0
 10
43.1353809961
 20
22.7781858868
 30
0.0
 10
43.2313976635
 20
22.8238638038
 30
0.0
 10
43.378977351
 20
22.8595029622
 30
0.0
 10
43.5174504289
 20
22.8559980325
 30
0.0
 10
43.6008187872
 20
22.8257437438
 30
0.0
 10
43.6371028984
 20
22.8047955721
 30
0.0
  0
SPLINE
  5
317
100
AcDbEntity
  8
0
100
AcDbSpline
 62
7
  6
BYLAYER
 70
0
 71
3
 72
11
 73
7
 74
0
 42
0.0000001
 43
0.0000001
 44
0.0000000001
 40
0.0
 40
0.0
 40
0.0
 40
0.0
 40
0.2176907916
 40
0.4508868986
 40
0.7106214304
 40
1.0
 40
1.0
 40
1.0
 40
1.0
 10
20.0682495958
 20
48.9029702493
 30
0.0
 10
20.0517565986
 20
48.8934647112
 30
0.0
 10
20.0208956919
 20
48.8675295241
 30
0.0
 10
19.9880084247
 20
48.813798503
 30
0.0
 10
19.9685727853
 20
48.7475727122
 30
0.0
 10
19.9646828977
 20
48.6994008011
 30
0.0
 10
19.9646828977
 20
48.6740958822
 30
0.0
  0
SPLINE
  5
318
100
AcDbEntity
  8
0
100
AcDbSpline
 62
7
  6
BYLAYER
 70
0
 71
3
 72
11
 73
7
 74
0
 42
0.0000001
 43
0.0000001
 44
0.0000000001
 40
0.0
 40
0.0
 40
0.0
 40
0.0
 40
0.2176907916
 40
0.4508868986
 40
0.7106214304
 40
1.0
 40
1.0
 40
1.0
 40
1.0
 10
30.1799186654
 20
48.7806443796
 30
0.0
 10
30.1634256682
 20
48.7711388415
 30
0.0
 10
30.1325647615
 20
48.7452036544
 30
0.0
 10
30.0996774943
 20
48.6914726333
 30
0.0
 10
30.0802418549
 20
48.6252468424
 30
0.0
 10
30.0763519673
 20
48.5770749314
 30
0.0
 10
30.0763519673
 20
48.5517700125
 30
0.0
  0
SPLINE
  5
319
100
AcDbEntity
  8
0
100
AcDbSpline
 62
7
  6
BYLAYER
 70
0
 71
3
 72
11
 73
7
 74
0
 42
0.0000001
 43
0.0000001
 44
0.0000000001
 40
0.0
 40
0.0
 40
0.0
 40
0.0
 40
0.2177460211
 40
0.4508843679
 40
0.7104607696
 40
1.0
 40
1.0
 40
1.0
 40
1.0
 10
15.0831293052
 20
26.3878367712
 30
0.0
 10
15.0996190136
 20
26.3973570481
 30
0.0
 10
15.1374942658
 20
26.4111507714
 30
0.0
 10
15.200459971
 20
26.4127324675
 30
0.0
 10
15.2675320593
 20
26.396497972
 30
0.0
 10
15.311187566
 20
26.3757579206
 30
0.0
 10
15.333114198
 20
26.3630988602
 30
0.0
  0
SPLINE
  5
31A
100
AcDbEntity
  8
0
100
AcDbSpline
 62
7
  6
BYLAYER
 70
0
 71
3
 72
8
 73
4
 74
0
 42
0.0000001
 43
0.0000001
 44
0.0000000001
 40
0.0
 40
0.0
 40
0.0
 40
0.0
 40
1.0
 40
1.0
 40
1.0
 40
1.0
 10
18.2536330285
 20
66.7438460002
 30
0.0
 10
18.2515572938
 20
66.735669351
 30
0.0
 10
18.2504564135
 20
66.7271741327
 30
0.0
 10
18.2504564131
 20
66.7187381226
 30
0.0
  0
SPLINE
  5
31B
100
AcDbEntity
  8
0
100
AcDbSpline
 62
7
  6
BYLAYER
 70
0
 71
3
 72
11
 73
7
 74
0
 42
0.0000001
 43
0.0000001
 44
0.0000000001
 40
0.0
 40
0.0
 40
0.0
 40
0.0
 40
0.2176907916
 40
0.4508868986
 40
0.7106214304
 40
1.0
 40
1.0
 40
1.0
 40
1.0
 10
24.3109079467
 20
27.6739701282
 30
0.0
 10
24.2944149495
 20
27.6644645901
 30
0.0
 10
24.2635540428
 20
27.638529403
 30
0.0
 10
24.2306667756
 20
27.5847983819
 30
0.0
 10
24.2112311362
 20
27.5185725911
 30
0.0
 10
24.2073412486
 20
27.47040068
 30
0.0
 10
24.2073412486
 20
27.4450957611
 30
0.0
  0
SPLINE
  5
31C
100
AcDbEntity
  8
0
100
AcDbSpline
 62
7
  6
BYLAYER
 70
0
 71
3
 72
11
 73
7
 74
0
 42
0.0000001
 43
0.0000001
 44
0.0000000001
 40
0.0
 40
0.0
 40
0.0
 40
0.0
 40
0.2176907916
 40
0.4508868986
 40
0.7106214304
 40
1.0
 40
1.0
 40
1.0
 40
1.0
 10
32.1598258958
 20
14.5692223732
 30
0.0
 10
32.1433328986
 20
14.559716835
 30
0.0
 10
32.1124719919
 20
14.533781648
 30
0.0
 10
32.0795847247
 20
14.4800506269
 30
0.0
 10
32.0601490853
 20
14.413824836
 30
0.0
 10
32.0562591977
 20
14.365652925
 30
0.0
 10
32.0562591977
 20
14.3403480061
 30
0.0
  0
SPLINE
  5
31D
100
AcDbEntity
  8
0
100
AcDbSpline
 62
7
  6
BYLAYER
 70
0
 71
3
 72
11
 73
7
 74
0
 42
0.0000001
 43
0.0000001
 44
0.0000000001
 40
0.0
 40
0.0
 40
0.0
 40
0.0
 40
0.2176907916
 40
0.4508868986
 40
0.7106214304
 40
1.0
 40
1.0
 40
1.0
 40
1.0
 10
24.3109079467
 20
52.1690426421
 30
0.0
 10
24.2944149495
 20
52.159537104
 30
0.0
 10
24.2635540428
 20
52.1336019169
 30
0.0
 10
24.2306667756
 20
52.0798708958
 30
0.0
 10
24.2112311362
 20
52.0136451049
 30
0.0
 10
24.2073412486
 20
51.9654731939
 30
0.0
 10
24.2073412486
 20
51.940168275
 30
0.0
  0
SPLINE
  5
31E
100
AcDbEntity
  8
0
100
AcDbSpline
 62
7
  6
BYLAYER
 70
0
 71
3
 72
11
 73
7
 74
0
 42
0.0000001
 43
0.0000001
 44
0.0000000001
 40
0.0
 40
0.0
 40
0.0
 40
0.0
 40
0.2176907916
 40
0.4508868986
 40
0.7106214304
 40
1.0
 40
1.0
 40
1.0
 40
1.0
 10
23.250243359
 20
19.7130558802
 30
0.0
 10
23.2337503617
 20
19.703550342
 30
0.0
 10
23.202889455
 20
19.6776151549
 30
0.0
 10
23.1700021878
 20
19.6238841338
 30
0.0
 10
23.1505665484
 20
19.557658343
 30
0.0
 10
23.1466766609
 20
19.5094864319
 30
0.0
 10
23.1466766609
 20
19.484181513
 30
0.0
  0
SPLINE
  5
31F
100
AcDbEntity
  8
0
100
AcDbSpline
 62
7
  6
BYLAYER
 70
0
 71
3
 72
11
 73
7
 74
0
 42
0.0000001
 43
0.0000001
 44
0.0000000001
 40
0.0
 40
0.0
 40
0.0
 40
0.0
 40
0.2177460211
 40
0.4508843679
 40
0.7104607696
 40
1.0
 40
1.0
 40
1.0
 40
1.0
 10
15.0831293052
 20
66.7230561774
 30
0.0
 10
15.0996190136
 20
66.7325764543
 30
0.0
 10
15.1374942658
 20
66.7463701776
 30
0.0
 10
15.200459971
 20
66.7479518737
 30
0.0
 10
15.2675320593
 20
66.7317173782
 30
0.0
 10
15.311187566
 20
66.7109773268
 30
0.0
 10
15.333114198
 20
66.6983182664
 30
0.0
  0
SPLINE
  5
320
100
AcDbEntity
  8
0
100
AcDbSpline
 62
7
  6
BYLAYER
 70
0
 71
3
 72
11
 73
7
 74
0
 42
0.0000001
 43
0.0000001
 44
0.0000000001
 40
0.0
 40
0.0
 40
0.0
 40
0.0
 40
0.2176907916
 40
0.4508868986
 40
0.7106214304
 40
1.0
 40
1.0
 40
1.0
 40
1.0
 10
33.5033343736
 20
34.6143765764
 30
0.0
 10
33.4868413764
 20
34.6048710383
 30
0.0
 10
33.4559804697
 20
34.5789358512
 30
0.0
 10
33.4230932025
 20
34.5252048301
 30
0.0
 10
33.4036575631
 20
34.4589790392
 30
0.0
 10
33.3997676755
 20
34.4108071282
 30
0.0
 10
33.3997676755
 20
34.3855022093
 30
0.0
  0
SPLINE
  5
321
100
AcDbEntity
  8
0
100
AcDbSpline
 62
7
  6
BYLAYER
 70
0
 71
3
 72
14
 73
10
 74
0
 42
0.0000001
 43
0.0000001
 44
0.0000000001
 40
0.0
 40
0.0
 40
0.0
 40
0.0
 40
0.2885990968
 40
0.4218638281
 40
0.5479800783
 40
0.6676492977
 40
0.7818898623
 40
0.8920902456
 40
1.0
 40
1.0
 40
1.0
 40
1.0
 10
36.9352892167
 20
56.7168150478
 30
0.0
 10
36.7427099449
 20
56.6056300171
 30
0.0
 10
36.4472407237
 20
56.4643018297
 30
0.0
 10
36.0421034057
 20
56.3430289275
 30
0.0
 10
35.7539137286
 20
56.291332759
 30
0.0
 10
35.4760583588
 20
56.2771831232
 30
0.0
 10
35.211002388
 20
56.3008249398
 30
0.0
 10
34.961386676
 20
56.3623857485
 30
0.0
 10
34.806039927
 20
56.4288273885
 30
0.0
 10
34.7325902912
 20
56.4677952246
 30
0.0
  0
SPLINE
  5
322
100
AcDbEntity
  8
0
100
AcDbSpline
 62
7
  6
BYLAYER
 70
0
 71
3
 72
14
 73
10
 74
0
 42
0.0000001
 43
0.0000001
 44
0.0000000001
 40
0.0
 40
0.0
 40
0.0
 40
0.0
 40
0.111650982
 40
0.2311239543
 40
0.3565884251
 40
0.4861613668
 40
0.7483152359
 40
0.8766775803
 40
1.0
 40
1.0
 40
1.0
 40
1.0
 10
33.6826115656
 20
60.5830340291
 30
0.0
 10
33.6826115656
 20
60.675300498
 30
0.0
 10
33.6966072329
 20
60.8664384143
 30
0.0
 10
33.7532680868
 20
61.1561962061
 30
0.0
 10
33.8451636815
 20
61.4523547084
 30
0.0
 10
34.0118579049
 20
61.8464218643
 30
0.0
 10
34.2346500767
 20
62.2175973164
 30
0.0
 10
34.5033699997
 20
62.5469962205
 30
0.0
 10
34.6508309629
 20
62.6943804188
 30
0.0
 10
34.7269495405
 20
62.7621441655
 30
0.0
  0
SPLINE
  5
323
100
AcDbEntity
  8
0
100
AcDbSpline
 62
7
  6
BYLAYER
 70
0
 71
3
 72
11
 73
7
 74
0
 42
0.0000001
 43
0.0000001
 44
0.0000000001
 40
0.0
 40
0.0
 40
0.0
 40
0.0
 40
0.2372428334
 40
0.4999989082
 40
0.7627555772
 40
1.0
 40
1.0
 40
1.0
 40
1.0
 10
22.9345355002
 20
63.452809027
 30
0.0
 10
22.9144573877
 20
63.4644008684
 30
0.0
 10
22.8764640019
 20
63.4963797348
 30
0.0
 10
22.8321195084
 20
63.5569780192
 30
0.0
 10
22.8018117274
 20
63.625680625
 30
0.0
 10
22.7931135552
 20
63.6745734298
 30
0.0
 10
22.7931135552
 20
63.6977576613
 30
0.0
  0
SPLINE
  5
324
100
AcDbEntity
  8
0
100
AcDbSpline
 62
7
  6
BYLAYER
 70
0
 71
3
 72
14
 73
10
 74
0
 42
0.0000001
 43
0.0000001
 44
0.0000000001
 40
0.0
 40
0.0
 40
0.0
 40
0.0
 40
0.111417921
 40
0.2304483105
 40
0.3553917142
 40
0.4845027933
 40
0.7465365528
 40
0.8754940289
 40
1.0
 40
1.0
 40
1.0
 40
1.0
 10
21.8031681831
 20
67.441478705
 30
0.0
 10
21.8031681831
 20
67.5308204485
 30
0.0
 10
21.816281106
 20
67.7157397098
 30
0.0
 10
21.8695577086
 20
67.996222321
 30
0.0
 10
21.9560778267
 20
68.2831746022
 30
0.0
 10
22.1134748571
 20
68.666385322
 30
0.0
 10
22.3245309298
 20
69.0293677806
 30
0.0
 10
22.5798184926
 20
69.35500868
 30
0.0
 10
22.7203875782
 20
69.5024099792
 30
0.0
 10
22.7931135552
 20
69.5708078479
 30
0.0
  0
SPLINE
  5
325
100
AcDbEntity
  8
0
100
AcDbSpline
 62
7
  6
BYLAYER
 70
0
 71
3
 72
14
 73
10
 74
0
 42
0.0000001
 43
0.0000001
 44
0.0000000001
 40
0.0
 40
0.0
 40
0.0
 40
0.0
 40
0.123322445
 40
0.2516848502
 40
0.5138387608
 40
0.6434117071
 40
0.7688761465
 40
0.8883490512
 40
1.0
 40
1.0
 40
1.0
 40
1.0
 10
21.9989754002
 20
70.1104785579
 30
0.0
 10
21.9228567696
 20
70.042714764
 30
0.0
 10
21.7753956377
 20
69.8953304954
 30
0.0
 10
21.5066753433
 20
69.5659314836
 30
0.0
 10
21.2838830175
 20
69.1947557625
 30
0.0
 10
21.1171886648
 20
68.800688421
 30
0.0
 10
21.0252930585
 20
68.5045298453
 30
0.0
 10
20.9686321514
 20
68.214772027
 30
0.0
 10
20.9546365129
 20
68.0236340971
 30
0.0
 10
20.9546365129
 20
67.9313676104
 30
0.0
  0
SPLINE
  5
326
100
AcDbEntity
  8
0
100
AcDbSpline
 62
7
  6
BYLAYER
 70
0
 71
3
 72
13
 73
9
 74
0
 42
0.0000001
 43
0.0000001
 44
0.0000000001
 40
0.0
 40
0.0
 40
0.0
 40
0.0
 40
0.114176888
 40
0.2375715548
 40
0.5000017735
 40
0.762431024
 40
0.8858245003
 40
1.0
 40
1.0
 40
1.0
 40
1.0
 10
20.9546365129
 20
70.4747250552
 30
0.0
 10
20.9546365129
 20
70.5026530489
 30
0.0
 10
20.9597838784
 20
70.5608186585
 30
0.0
 10
20.987523712
 20
70.6802342044
 30
0.0
 10
21.0521584613
 20
70.8266700743
 30
0.0
 10
21.1466574792
 20
70.9558635871
 30
0.0
 10
21.2362036096
 20
71.0395944123
 30
0.0
 10
21.2840023375
 20
71.0731345762
 30
0.0
 10
21.3081884315
 20
71.0870983407
 30
0.0
  0
SPLINE
  5
327
100
AcDbEntity
  8
0
100
AcDbSpline
 62
7
  6
BYLAYER
 70
0
 71
3
 72
11
 73
7
 74
0
 42
0.0000001
 43
0.0000001
 44
0.0000000001
 40
0.0
 40
0.0
 40
0.0
 40
0.0
 40
0.2895396729
 40
0.5491163863
 40
0.7822545095
 40
1.0
 40
1.0
 40
1.0
 40
1.0
 10
26.7528879781
 20
74.2305783255
 30
0.0
 10
26.7748142957
 20
74.2432374154
 30
0.0
 10
26.8184691995
 20
74.2639775592
 30
0.0
 10
26.8855404035
 20
74.2802124731
 30
0.0
 10
26.9485053456
 20
74.2786313017
 30
0.0
 10
26.9863802097
 20
74.2648380724
 30
0.0
 10
27.0028697481
 20
74.2553180395
 30
0.0
  0
SPLINE
  5
328
100
AcDbEntity
  8
0
100
AcDbSpline
 62
7
  6
BYLAYER
 70
0
 71
3
 72
13
 73
9
 74
0
 42
0.0000001
 43
0.0000001
 44
0.0000000001
 40
0.0
 40
0.0
 40
0.0
 40
0.0
 40
0.114176888
 40
0.2375715548
 40
0.5000017735
 40
0.762431024
 40
0.8858245003
 40
1.0
 40
1.0
 40
1.0
 40
1.0
 10
18.8333073375
 20
71.6994473188
 30
0.0
 10
18.8333073375
 20
71.7273753125
 30
0.0
 10
18.838454703
 20
71.7855409221
 30
0.0
 10
18.8661945365
 20
71.9049564679
 30
0.0
 10
18.9308292859
 20
72.0513923378
 30
0.0
 10
19.0253283038
 20
72.1805858507
 30
0.0
 10
19.1148744341
 20
72.2643166758
 30
0.0
 10
19.1626731621
 20
72.2978568398
 30
0.0
 10
19.1868592561
 20
72.3118206043
 30
0.0
  0
SPLINE
  5
329
100
AcDbEntity
  8
0
100
AcDbSpline
 62
7
  6
BYLAYER
 70
0
 71
3
 72
11
 73
7
 74
0
 42
0.0000001
 43
0.0000001
 44
0.0000000001
 40
0.0
 40
0.0
 40
0.0
 40
0.0
 40
0.2176907916
 40
0.4508868986
 40
0.7106214304
 40
1.0
 40
1.0
 40
1.0
 40
1.0
 10
20.0682495958
 20
42.3709509123
 30
0.0
 10
20.0517565986
 20
42.3614453742
 30
0.0
 10
20.0208956919
 20
42.3355101871
 30
0.0
 10
19.9880084247
 20
42.281779166
 30
0.0
 10
19.9685727853
 20
42.2155533751
 30
0.0
 10
19.9646828977
 20
42.1673814641
 30
0.0
 10
19.9646828977
 20
42.1420765452
 30
0.0
  0
SPLINE
  5
32A
100
AcDbEntity
  8
0
100
AcDbSpline
 62
7
  6
BYLAYER
 70
0
 71
3
 72
11
 73
7
 74
0
 42
0.0000001
 43
0.0000001
 44
0.0000000001
 40
0.0
 40
0.0
 40
0.0
 40
0.0
 40
0.2895396729
 40
0.5491163863
 40
0.7822545095
 40
1.0
 40
1.0
 40
1.0
 40
1.0
 10
24.6315588026
 20
75.4553005891
 30
0.0
 10
24.6534851202
 20
75.4679596789
 30
0.0
 10
24.697140024
 20
75.4886998227
 30
0.0
 10
24.7642112281
 20
75.5049347367
 30
0.0
 10
24.8271761702
 20
75.5033535653
 30
0.0
 10
24.8650510343
 20
75.4895603359
 30
0.0
 10
24.8815405727
 20
75.480040303
 30
0.0
  0
SPLINE
  5
32B
100
AcDbEntity
  8
0
100
AcDbSpline
 62
7
  6
BYLAYER
 70
0
 71
3
 72
15
 73
11
 74
0
 42
0.0000001
 43
0.0000001
 44
0.0000000001
 40
0.0
 40
0.0
 40
0.0
 40
0.0
 40
0.1080476029
 40
0.218139153
 40
0.332068896
 40
0.4513908543
 40
0.5772866891
 40
0.7105412359
 40
0.8515158358
 40
1.0
 40
1.0
 40
1.0
 40
1.0
 10
37.3723644082
 20
54.9426593558
 30
0.0
 10
37.4461755662
 20
54.9000692438
 30
0.0
 10
37.602858919
 20
54.8266716454
 30
0.0
 10
37.8563674963
 20
54.7565588749
 30
0.0
 10
38.1265592555
 20
54.7264807602
 30
0.0
 10
38.4105489616
 20
54.7363602709
 30
0.0
 10
38.7056908048
 20
54.7858897453
 30
0.0
 10
39.0092866761
 20
54.8743882707
 30
0.0
 10
39.3182930493
 20
55.0009459313
 30
0.0
 10
39.5208859532
 20
55.1069455393
 30
0.0
 10
39.6223061723
 20
55.1655001806
 30
0.0
  0
SPLINE
  5
32C
100
AcDbEntity
  8
0
100
AcDbSpline
 62
7
  6
BYLAYER
 70
0
 71
3
 72
11
 73
7
 74
0
 42
0.0000001
 43
0.0000001
 44
0.0000000001
 40
0.0
 40
0.0
 40
0.0
 40
0.0
 40
0.2176907916
 40
0.4508868986
 40
0.7106214304
 40
1.0
 40
1.0
 40
1.0
 40
1.0
 10
33.5033343736
 20
22.3668403195
 30
0.0
 10
33.4868413764
 20
22.3573347813
 30
0.0
 10
33.4559804697
 20
22.3313995943
 30
0.0
 10
33.4230932025
 20
22.2776685731
 30
0.0
 10
33.4036575631
 20
22.2114427823
 30
0.0
 10
33.3997676755
 20
22.1632708712
 30
0.0
 10
33.3997676755
 20
22.1379659523
 30
0.0
  0
SPLINE
  5
32D
100
AcDbEntity
  8
0
100
AcDbSpline
 62
7
  6
BYLAYER
 70
0
 71
3
 72
13
 73
9
 74
0
 42
0.0000001
 43
0.0000001
 44
0.0000000001
 40
0.0
 40
0.0
 40
0.0
 40
0.0
 40
0.1141757996
 40
0.2375697486
 40
0.4999996443
 40
0.7624297362
 40
0.885823858
 40
1.0
 40
1.0
 40
1.0
 40
1.0
 10
36.7231804397
 20
54.7572778963
 30
0.0
 10
36.6989943115
 20
54.743314112
 30
0.0
 10
36.6460481135
 20
54.7186894538
 30
0.0
 10
36.5287618231
 20
54.683005675
 30
0.0
 10
36.3696274985
 20
54.6657634639
 30
0.0
 10
36.2104930743
 20
54.6830049883
 30
0.0
 10
36.0932064163
 20
54.7186881517
 30
0.0
 10
36.04025996
 20
54.7433125449
 30
0.0
 10
36.0160736585
 20
54.7572761966
 30
0.0
  0
SPLINE
  5
32E
100
AcDbEntity
  8
0
100
AcDbSpline
 62
7
  6
BYLAYER
 70
0
 71
3
 72
11
 73
7
 74
0
 42
0.0000001
 43
0.0000001
 44
0.0000000001
 40
0.0
 40
0.0
 40
0.0
 40
0.0
 40
0.2372444228
 40
0.5000010918
 40
0.7627571666
 40
1.0
 40
1.0
 40
1.0
 40
1.0
 10
18.8333073375
 20
64.8408270149
 30
0.0
 10
18.8333073375
 20
64.8176427834
 30
0.0
 10
18.8420055097
 20
64.7687499785
 30
0.0
 10
18.8723132907
 20
64.7000473728
 30
0.0
 10
18.9166577842
 20
64.6394490883
 30
0.0
 10
18.95465117
 20
64.607470222
 30
0.0
 10
18.9747292825
 20
64.5958783806
 30
0.0
  0
SPLINE
  5
32F
100
AcDbEntity
  8
0
100
AcDbSpline
 62
7
  6
BYLAYER
 70
0
 71
3
 72
11
 73
7
 74
0
 42
0.0000001
 43
0.0000001
 44
0.0000000001
 40
0.0
 40
0.0
 40
0.0
 40
0.0
 40
0.2176907916
 40
0.4508868986
 40
0.7106214304
 40
1.0
 40
1.0
 40
1.0
 40
1.0
 10
20.0682495958
 20
59.9257528806
 30
0.0
 10
20.0517565986
 20
59.9162473424
 30
0.0
 10
20.0208956919
 20
59.8903121554
 30
0.0
 10
19.9880084247
 20
59.8365811342
 30
0.0
 10
19.9685727853
 20
59.7703553434
 30
0.0
 10
19.9646828977
 20
59.7221834324
 30
0.0
 10
19.9646828977
 20
59.6968785135
 30
0.0
  0
SPLINE
  5
330
100
AcDbEntity
  8
0
100
AcDbSpline
 62
7
  6
BYLAYER
 70
0
 71
3
 72
11
 73
7
 74
0
 42
0.0000001
 43
0.0000001
 44
0.0000000001
 40
0.0
 40
0.0
 40
0.0
 40
0.0
 40
0.2372444228
 40
0.5000010918
 40
0.7627571666
 40
1.0
 40
1.0
 40
1.0
 40
1.0
 10
21.8031681831
 20
63.1262158459
 30
0.0
 10
21.8031681831
 20
63.1030316144
 30
0.0
 10
21.8118663553
 20
63.0541388095
 30
0.0
 10
21.8421741363
 20
62.9854362038
 30
0.0
 10
21.8865186298
 20
62.9248379194
 30
0.0
 10
21.9245120156
 20
62.892859053
 30
0.0
 10
21.9445901281
 20
62.8812672116
 30
0.0
  0
SPLINE
  5
331
100
AcDbEntity
  8
0
100
AcDbSpline
 62
7
  6
BYLAYER
 70
0
 71
3
 72
11
 73
7
 74
0
 42
0.0000001
 43
0.0000001
 44
0.0000000001
 40
0.0
 40
0.0
 40
0.0
 40
0.0
 40
0.2176907916
 40
0.4508868986
 40
0.7106214304
 40
1.0
 40
1.0
 40
1.0
 40
1.0
 10
33.5033343736
 20
28.0823572394
 30
0.0
 10
33.4868413764
 20
28.0728517012
 30
0.0
 10
33.4559804697
 20
28.0469165142
 30
0.0
 10
33.4230932025
 20
27.993185493
 30
0.0
 10
33.4036575631
 20
27.9269597022
 30
0.0
 10
33.3997676755
 20
27.8787877911
 30
0.0
 10
33.3997676755
 20
27.8534828723
 30
0.0
  0
SPLINE
  5
332
100
AcDbEntity
  8
0
100
AcDbSpline
 62
7
  6
BYLAYER
 70
0
 71
3
 72
11
 73
7
 74
0
 42
0.0000001
 43
0.0000001
 44
0.0000000001
 40
0.0
 40
0.0
 40
0.0
 40
0.0
 40
0.2372444228
 40
0.5000010918
 40
0.7627571666
 40
1.0
 40
1.0
 40
1.0
 40
1.0
 10
33.6826115656
 20
56.26777117
 30
0.0
 10
33.6826115656
 20
56.2445869385
 30
0.0
 10
33.6913097378
 20
56.1956941336
 30
0.0
 10
33.7216175188
 20
56.1269915279
 30
0.0
 10
33.7659620123
 20
56.0663932434
 30
0.0
 10
33.8039553981
 20
56.0344143771
 30
0.0
 10
33.8240335106
 20
56.0228225357
 30
0.0
  0
SPLINE
  5
333
100
AcDbEntity
  8
0
100
AcDbSpline
 62
7
  6
BYLAYER
 70
0
 71
3
 72
17
 73
13
 74
0
 42
0.0000001
 43
0.0000001
 44
0.0000000001
 40
0.0
 40
0.0
 40
0.0
 40
0.0
 40
0.1286583215
 40
0.2703136878
 40
0.417429293
 40
0.5617691287
 40
0.6954408117
 40
0.8127129847
 40
0.8646719982
 40
0.912513003
 40
0.9571378773
 40
1.0
 40
1.0
 40
1.0
 40
1.0
 10
30.0763519673
 20
48.5517700125
 30
0.0
 10
30.0763519673
 20
48.5090435092
 30
0.0
 10
30.0883313572
 20
48.4191763857
 30
0.0
 10
30.1329206078
 20
48.2872254792
 30
0.0
 10
30.2017215204
 20
48.1601365766
 30
0.0
 10
30.2890711443
 20
48.0482969849
 30
0.0
 10
30.387921496
 20
47.9607635498
 30
0.0
 10
30.4773808416
 20
47.911809214
 30
0.0
 10
30.5473777943
 20
47.893229625
 30
0.0
 10
30.5955427003
 20
47.8896468571
 30
0.0
 10
30.6403946146
 20
47.8962566821
 30
0.0
 10
30.6675624101
 20
47.9075471561
 30
0.0
 10
30.6798949944
 20
47.9146548908
 30
0.0
  0
SPLINE
  5
334
100
AcDbEntity
  8
0
100
AcDbSpline
 62
7
  6
BYLAYER
 70
0
 71
3
 72
17
 73
13
 74
0
 42
0.0000001
 43
0.0000001
 44
0.0000000001
 40
0.0
 40
0.0
 40
0.0
 40
0.0
 40
0.1286583215
 40
0.2703136878
 40
0.417429293
 40
0.5617691287
 40
0.6954408117
 40
0.8127129847
 40
0.8646719982
 40
0.912513003
 40
0.9571378773
 40
1.0
 40
1.0
 40
1.0
 40
1.0
 10
30.0763519673
 20
24.0566974986
 30
0.0
 10
30.0763519673
 20
24.0139709953
 30
0.0
 10
30.0883313572
 20
23.9241038718
 30
0.0
 10
30.1329206078
 20
23.7921529653
 30
0.0
 10
30.2017215204
 20
23.6650640627
 30
0.0
 10
30.2890711443
 20
23.553224471
 30
0.0
 10
30.387921496
 20
23.4656910359
 30
0.0
 10
30.4773808416
 20
23.4167367002
 30
0.0
 10
30.5473777943
 20
23.3981571111
 30
0.0
 10
30.5955427003
 20
23.3945743432
 30
0.0
 10
30.6403946146
 20
23.4011841682
 30
0.0
 10
30.6675624101
 20
23.4124746422
 30
0.0
 10
30.6798949944
 20
23.419582377
 30
0.0
  0
ELLIPSE
  5
335
100
AcDbEntity
  8
0
100
AcDbEllipse
 62
7
  6
BYLAYER
 10
43.511374333
 20
12.059927705
 30
0.0
 11
-0.1625262946
 21
0.6065684921
 31
0.0
 40
0.5176405787
 41
-2.6639264464
 42
-2.0484445272
  0
ELLIPSE
  5
336
100
AcDbEntity
  8
0
100
AcDbEllipse
 62
7
  6
BYLAYER
 10
22.0803666592
 20
16.1927484857
 30
0.0
 11
1.1424683015
 21
1.6466836285
 31
0.0
 40
0.6252380434
 41
-3.8750591454
 42
-3.0896473726
  0
ELLIPSE
  5
337
100
AcDbEntity
  8
0
100
AcDbEllipse
 62
7
  6
BYLAYER
 10
20.9269147762
 20
13.0905994671
 30
0.0
 11
0.2856170754
 21
0.4116709071
 31
0.0
 40
0.6252380434
 41
-3.8750591454
 42
-2.3042628186
  0
ENDSEC
  0
SECTION
  2
OBJECTS
  0
DICTIONARY
  5
C
100
AcDbDictionary
280
0
281
1
  3
ACAD_GROUP
350
D
  3
ACAD_MLINESTYLE
350
17
  3
ACAD_LAYOUT
350
1A
  3
ACAD_PLOTSETTINGS
350
19
  3
ACAD_PLOTSTYLENAME
350
E
  0
DICTIONARY
  5
D
102
{ACAD_REACTORS
330
C
102
}
100
AcDbDictionary
280
0
281
1
  0
ACDBDICTIONARYWDFLT
  5
E
102
{ACAD_REACTORS
330
C
102
}
100
AcDbDictionary
281
1
  3
Normal
350
F
100
AcDbDictionaryWithDefault
340
F
  0
DICTIONARY
  5
17
102
{ACAD_REACTORS
330
C
102
}
100
AcDbDictionary
280
0
281
1
  3
Standard
350
18
  0
DICTIONARY
  5
19
102
{ACAD_REACTORS
330
C
102
}
100
AcDbDictionary
281
1
  0
DICTIONARY
  5
1A
102
{ACAD_REACTORS
330
C
102
}
100
AcDbDictionary
281
1
  3
Model
350
338
  3
Layout1
350
339
  0
ACDBPLACEHOLDER
  5
F
102
{ACAD_REACTORS
330
E
102
}
  0
MLINESTYLE
  5
18
102
{ACAD_REACTORS
330
17
102
}
100
AcDbMlineStyle
  2
STANDARD
 70
0
  3

 62
256
 51
90.0
 52
90.0
 71
2
 49
0.5
 62
256
  6
BYLAYER
 49
-0.5
 62
256
  6
BYLAYER
  0
LAYOUT
  5
338
102
{ACAD_REACTORS
330
1A
102
}
100
AcDbPlotSettings
  1

  2
none_device
  4

  6

 40
0.0
 41
0.0
 42
0.0
 43
0.0
 44
210.0
 45
297.0
 46
0.0
 47
0.0
 48
0.0
 49
0.0
140
0.0
141
0.0
142
1.0
143
1.0
 70
1024
 72
1
 73
0
 74
0
  7

 75
0
147
1.0
148
0.0
149
0.0
100
AcDbLayout
  1
Model
 70
0
 71
0
 10
0.0
 20
0.0
 11
210.0
 21
297.0
 12
0.0
 22
0.0
 32
0.0
 14
0.0
 24
0.0
 34
0.0
 15
0.0
 25
0.0
 35
0.0
146
0.0
 13
0.0
 23
0.0
 33
0.0
 16
1.0
 26
0.0
 36
0.0
 17
0.0
 27
1.0
 37
0.0
 76
0
330
210
345
0
346
0
  0
LAYOUT
  5
339
102
{ACAD_REACTORS
330
1A
102
}
100
AcDbPlotSettings
  1

  2
none_device
  4

  6

 40
0.0
 41
0.0
 42
0.0
 43
0.0
 44
210.0
 45
297.0
 46
0.0
 47
0.0
 48
0.0
 49
0.0
140
0.0
141
0.0
142
1.0
143
1.0
 70
0
 72
1
 73
0
 74
0
  7

 75
0
147
1.0
148
0.0
149
0.0
100
AcDbLayout
  1
Layout1
 70
0
 71
1
 10
0.0
 20
0.0
 11
210.0
 21
297.0
 12
0.0
 22
0.0
 32
0.0
 14
0.0
 24
0.0
 34
0.0
 15
0.0
 25
0.0
 35
0.0
146
0.0
 13
0.0
 23
0.0
 33
0.0
 16
1.0
 26
0.0
 36
0.0
 17
0.0
 27
1.0
 37
0.0
 76
0
330
211
345
0
346
0
  0
ENDSEC
  0
EOF
