999
DXF file: C:\Users\sesa63760\Dev\_Creo\CAD\MCADPD0004092_3D-CAD\drw0001_3.dxf
999
Pro/ENGINEER 2019471 by Parametric Technology Corporation
  0
SECTION
  2
HEADER
  9
$ACADVER
  1
AC1024
  9
$DWGCODEPAGE
  3
ANSI_1252
  9
$EXTMAX
 10
75.8441586598
 20
107.2653101045
 30
0.0
  9
$EXTMIN
 10
0.0
 20
0.0
 30
0.0
  9
$LIMMIN
 10
0.0
 20
0.0
  9
$LIMMAX
 10
75.8441586598
 20
107.2653101045
  9
$VIEWCTR
 10
37.9220793299
 20
53.6326550523
  9
$VIEWSIZE
 40
107.2653101045
  9
$CLAYER
  8
0
  9
$LTSCALE
 40
6.9921091031
  9
$CELTYPE
  6
BYLAYER
  9
$DIMSCALE
 40
1.0
  9
$DIMASZ
 40
0.9029066507
  9
$DIMEXO
 40
1.0
  9
$DIMDLI
 40
4.830911744
  9
$DIMEXE
 40
1.0
  9
$DIMCEN
 40
1.1441633078
  9
$DIMLFAC
 40
1.0
  9
$DIMBLK
  1
_FILLED
  9
$DIMALT
 70
0
  9
$DIMALTF
 40
0.0393700787
  9
$DIMTXT
 40
1.264069311
  9
$DIMTOL
 70
1
  9
$DIMLIM
 70
0
  9
$DIMTFAC
 40
1.0
  9
$DIMTP
 40
0.01
  9
$DIMTM
 40
0.01
  9
$DIMGAP
 40
0.625
  9
$DIMDSEP
 70
46
  9
$AUNITS
 70
0
  9
$PDMODE
 70
3
  9
$PDSIZE
 40
0.3125
  9
$HANDSEED
  5
25D
  9
$TILEMODE
 70
1
  9
$MEASUREMENT
 70
1
  9
$INSUNITS
 70
4
  0
ENDSEC
  0
SECTION
  2
CLASSES
  0
CLASS
  1
ACDBDICTIONARYWDFLT
  2
AcDbDictionaryWithDefault
  3
AutoCAD 2000
 90
0
 91
1
280
0
281
0
  0
CLASS
  1
ACDBPLACEHOLDER
  2
AcDbPlaceHolder
  3
AutoCAD 2000
 90
0
 91
1
280
0
281
0
  0
CLASS
  1
LAYOUT
  2
AcDbLayout
  3
AutoCAD 2000
 90
0
 91
0
280
0
281
0
  0
ENDSEC
  0
SECTION
  2
TABLES
  0
TABLE
  2
VPORT
  5
8
100
AcDbSymbolTable
 70
2
  0
VPORT
  5
1F4
100
AcDbSymbolTableRecord
100
AcDbViewportTableRecord
  2
*ACTIVE
 70
0
 10
0.0
 20
0.0
 11
1.0
 21
1.0
 12
37.9220793299
 22
53.6326550523
 13
0.0
 23
0.0
 14
1.0
 24
1.0
 15
0.0
 25
0.0
 16
0.0
 26
0.0
 36
1.0
 17
0.0
 27
0.0
 37
0.0
 40
107.2653101045
 41
0.7070707071
 42
50.0
 43
0.0
 44
0.0
 50
0.0
 51
0.0
 71
0
 72
100
 73
1
 74
1
 75
0
 76
0
 77
0
 78
0
  0
ENDTAB
  0
TABLE
  2
LTYPE
  5
5
100
AcDbSymbolTable
 70
6
  0
LTYPE
  5
14
100
AcDbSymbolTableRecord
100
AcDbLinetypeTableRecord
  2
BYBLOCK
 70
0
  3

 72
65
 73
0
 40
0.0
  0
LTYPE
  5
15
100
AcDbSymbolTableRecord
100
AcDbLinetypeTableRecord
  2
BYLAYER
 70
0
  3

 72
65
 73
0
 40
0.0
  0
LTYPE
  5
16
100
AcDbSymbolTableRecord
100
AcDbLinetypeTableRecord
  2
CONTINUOUS
 70
64
  3
Solid line
 72
65
 73
0
 40
0.0
  0
LTYPE
  5
1F5
100
AcDbSymbolTableRecord
100
AcDbLinetypeTableRecord
  2
CENTER
 70
64
  3
____ _ ____ _ ____ _ ____ _ ____ _ ____ _ ____
 72
65
 73
4
 40
0.6
 49
0.375
 74
0
 49
-0.075
 74
0
 49
0.075
 74
0
 49
-0.075
 74
0
  0
LTYPE
  5
1F6
100
AcDbSymbolTableRecord
100
AcDbLinetypeTableRecord
  2
HIDDEN
 70
64
  3
- - - - - - - - - - - - - - - - - - - -
 72
65
 73
2
 40
0.2
 49
0.1
 74
0
 49
-0.1
 74
0
  0
LTYPE
  5
1F7
100
AcDbSymbolTableRecord
100
AcDbLinetypeTableRecord
  2
PHANTOM
 70
64
  3
_____ _ _ _____ _ _ _____ _ _ _____
 72
65
 73
6
 40
0.8
 49
0.45
 74
0
 49
-0.05
 74
0
 49
0.1
 74
0
 49
-0.05
 74
0
 49
0.1
 74
0
 49
-0.05
 74
0
  0
LTYPE
  5
1F8
100
AcDbSymbolTableRecord
100
AcDbLinetypeTableRecord
  2
DOT
 70
64
  3
. . . . . . . . . . . . . . . . . . . .
 72
65
 73
2
 40
0.2
 49
0.1
 74
0
 49
-0.1
 74
0
  0
LTYPE
  5
1F9
100
AcDbSymbolTableRecord
100
AcDbLinetypeTableRecord
  2
DASHED
 70
64
  3
- - - - - - - - - - - - - - - - - - - -
 72
65
 73
2
 40
0.2
 49
0.1
 74
0
 49
-0.1
 74
0
  0
ENDTAB
  0
TABLE
  2
LAYER
  5
2
100
AcDbSymbolTable
 70
36
  0
LAYER
  5
10
100
AcDbSymbolTableRecord
100
AcDbLayerTableRecord
  2
0
 70
0
 62
7
  6
CONTINUOUS
370
-3
390
F
  0
LAYER
  5
1FA
100
AcDbSymbolTableRecord
100
AcDbLayerTableRecord
  2
DEFAULT_1
 70
0
 62
7
  6
CENTER
370
-3
390
F
  0
LAYER
  5
1FB
100
AcDbSymbolTableRecord
100
AcDbLayerTableRecord
  2
DEFAULT_2
 70
0
 62
7
  6
HIDDEN
370
-3
390
F
  0
LAYER
  5
1FC
100
AcDbSymbolTableRecord
100
AcDbLayerTableRecord
  2
DEFAULT_3
 70
0
 62
7
  6
PHANTOM
370
-3
390
F
  0
LAYER
  5
1FD
100
AcDbSymbolTableRecord
100
AcDbLayerTableRecord
  2
00_COMPONENTS
 70
0
 62
7
  6
CONTINUOUS
370
-3
390
F
  0
LAYER
  5
1FE
100
AcDbSymbolTableRecord
100
AcDbLayerTableRecord
  2
01_1_DEFAULT_DATUMS
 70
0
 62
7
  6
CONTINUOUS
370
-3
390
F
  0
LAYER
  5
1FF
100
AcDbSymbolTableRecord
100
AcDbLayerTableRecord
  2
01_PLANES
 70
0
 62
7
  6
CONTINUOUS
370
-3
390
F
  0
LAYER
  5
200
100
AcDbSymbolTableRecord
100
AcDbLayerTableRecord
  2
02_COORD_SYS
 70
0
 62
7
  6
CONTINUOUS
370
-3
390
F
  0
LAYER
  5
201
100
AcDbSymbolTableRecord
100
AcDbLayerTableRecord
  2
03_AXES
 70
0
 62
7
  6
CONTINUOUS
370
-3
390
F
  0
LAYER
  5
202
100
AcDbSymbolTableRecord
100
AcDbLayerTableRecord
  2
04_POINTS
 70
0
 62
7
  6
CONTINUOUS
370
-3
390
F
  0
LAYER
  5
203
100
AcDbSymbolTableRecord
100
AcDbLayerTableRecord
  2
05_CURVES
 70
0
 62
7
  6
CONTINUOUS
370
-3
390
F
  0
LAYER
  5
204
100
AcDbSymbolTableRecord
100
AcDbLayerTableRecord
  2
06_SURFS
 70
0
 62
7
  6
CONTINUOUS
370
-3
390
F
  0
LAYER
  5
205
100
AcDbSymbolTableRecord
100
AcDbLayerTableRecord
  2
07_COSMETICS
 70
0
 62
7
  6
CONTINUOUS
370
-3
390
F
  0
LAYER
  5
206
100
AcDbSymbolTableRecord
100
AcDbLayerTableRecord
  2
10_NOTES
 70
0
 62
7
  6
CONTINUOUS
370
-3
390
F
  0
LAYER
  5
207
100
AcDbSymbolTableRecord
100
AcDbLayerTableRecord
  2
11_NOTES_PUB
 70
0
 62
7
  6
CONTINUOUS
370
-3
390
F
  0
LAYER
  5
208
100
AcDbSymbolTableRecord
100
AcDbLayerTableRecord
  2
13_REF_GTOL
 70
0
 62
7
  6
CONTINUOUS
370
-3
390
F
  0
LAYER
  5
209
100
AcDbSymbolTableRecord
100
AcDbLayerTableRecord
  2
16_MISC
 70
0
 62
7
  6
CONTINUOUS
370
-3
390
F
  0
LAYER
  5
20A
100
AcDbSymbolTableRecord
100
AcDbLayerTableRecord
  2
17_NO_PRINT
 70
0
 62
7
  6
CONTINUOUS
370
-3
390
F
  0
LAYER
  5
20B
100
AcDbSymbolTableRecord
100
AcDbLayerTableRecord
  2
18_DATUM_CAMS_JOINTS
 70
0
 62
7
  6
CONTINUOUS
370
-3
390
F
  0
LAYER
  5
20C
100
AcDbSymbolTableRecord
100
AcDbLayerTableRecord
  2
19_DATUM_FUNCTIONAL
 70
0
 62
7
  6
CONTINUOUS
370
-3
390
F
  0
LAYER
  5
20D
100
AcDbSymbolTableRecord
100
AcDbLayerTableRecord
  2
20_DATUM_KINEMATIC_SCHEME
 70
0
 62
7
  6
CONTINUOUS
370
-3
390
F
  0
ENDTAB
  0
TABLE
  2
STYLE
  5
3
100
AcDbSymbolTable
 70
1
  0
STYLE
  5
11
100
AcDbSymbolTableRecord
100
AcDbTextStyleTableRecord
  2
STANDARD
 70
0
 40
0.0
 41
1.0
 50
0.0
 71
0
 42
0.2
  3
ARIAL.TTF
  4

  0
STYLE
  5
20E
100
AcDbSymbolTableRecord
100
AcDbTextStyleTableRecord
  2
TEXTSTYLE_1
 70
0
 40
0.0
 41
0.8
 50
0.0
 71
0
 42
0.2
  3
gdt
  4

  0
ENDTAB
  0
TABLE
  2
VIEW
  5
6
100
AcDbSymbolTable
 70
0
  0
ENDTAB
  0
TABLE
  2
UCS
  5
7
100
AcDbSymbolTable
 70
0
  0
ENDTAB
  0
TABLE
  2
APPID
  5
9
100
AcDbSymbolTable
 70
1
  0
APPID
  5
20F
100
AcDbSymbolTableRecord
100
AcDbRegAppTableRecord
  2
ACAD
 70
0
  0
ENDTAB
  0
TABLE
  2
BLOCK_RECORD
  5
1
100
AcDbSymbolTable
 70
0
  0
BLOCK_RECORD
  5
210
100
AcDbSymbolTableRecord
100
AcDbBlockTableRecord
  2
*Model_Space
  0
BLOCK_RECORD
  5
211
100
AcDbSymbolTableRecord
100
AcDbBlockTableRecord
  2
*Paper_Space
  0
BLOCK_RECORD
  5
212
100
AcDbSymbolTableRecord
100
AcDbBlockTableRecord
  2
_FILLED
  0
ENDTAB
  0
TABLE
  2
DIMSTYLE
  5
A
100
AcDbSymbolTable
 70
1
100
AcDbDimStyleTable
 71
0
  0
DIMSTYLE
105
213
100
AcDbSymbolTableRecord
100
AcDbDimStyleTableRecord
  2
STANDARD
 70
0
  3

  4

 40
1.0
 41
0.9029066507
 42
1.0
 43
0.38
 44
1.0
 45
0.0
 46
0.0
 47
0.01
 48
0.01
140
1.264069311
141
0.09
142
0.0
143
25.4
144
1.0
145
0.0
146
1.0
147
0.625
 71
1
 72
0
 73
0
 74
0
 75
0
 76
0
 77
1
 78
8
 79
2
170
0
171
1
172
0
173
0
174
0
175
0
176
0
177
0
178
0
270
2
179
2
271
2
272
2
273
2
274
2
275
0
280
0
281
0
282
0
283
1
284
8
285
0
286
0
287
3
288
0
340
11
278
46
341
212
342
212
343
212
344
212
  0
ENDTAB
  0
ENDSEC
  0
SECTION
  2
BLOCKS
  0
BLOCK
  5
20
100
AcDbEntity
  8
0
100
AcDbBlockBegin
  2
*Model_Space
 70
0
 10
0.0
 20
0.0
 30
0.0
  3
*Model_Space
  1

  0
ENDBLK
  5
21
100
AcDbEntity
  8
0
100
AcDbBlockEnd
  0
BLOCK
  5
1C
100
AcDbEntity
  8
0
100
AcDbBlockBegin
  2
*Paper_Space
 70
0
 10
0.0
 20
0.0
 30
0.0
  3
*Paper_Space
  1

  0
ENDBLK
  5
1D
100
AcDbEntity
  8
0
100
AcDbBlockEnd
  0
BLOCK
  5
214
100
AcDbEntity
  8
0
100
AcDbBlockBegin
  2
_FILLED
 70
64
 10
0.0
 20
0.0
  3
_FILLED
  1

  0
SOLID
  5
215
100
AcDbEntity
  8
0
  6
BYBLOCK
 62
0
100
AcDbTrace
 10
0.0
 20
0.0
 11
-1.0
 21
0.25
 12
-1.0
 22
-0.25
 13
-1.0
 23
-0.25
  0
ENDBLK
  5
216
100
AcDbEntity
  8
0
  6
BYBLOCK
 62
0
100
AcDbBlockEnd
  0
ENDSEC
  0
SECTION
  2
ENTITIES
  0
LINE
  5
217
100
AcDbEntity
  8
0
100
AcDbLine
 62
7
  6
BYLAYER
 10
10.8725077112
 20
19.0452384307
 11
60.9722660446
 21
19.0452384307
  0
LINE
  5
218
100
AcDbEntity
  8
0
100
AcDbLine
 62
7
  6
BYLAYER
 10
60.9722900188
 20
21.3555780052
 11
20.6983336045
 21
21.3555780052
  0
LINE
  5
219
100
AcDbEntity
  8
0
100
AcDbLine
 62
7
  6
BYLAYER
 10
22.1602800179
 20
22.0452384307
 11
10.8725077112
 21
22.0452384307
  0
LINE
  5
21A
100
AcDbEntity
  8
0
100
AcDbLine
 62
7
  6
BYLAYER
 10
8.9722900188
 20
39.6452384307
 11
8.9722900188
 21
58.4266516988
  0
LINE
  5
21B
100
AcDbEntity
  8
0
100
AcDbLine
 62
7
  6
BYLAYER
 10
9.0722900188
 20
38.7452384307
 11
9.0722900188
 21
39.6452384307
  0
LINE
  5
21C
100
AcDbEntity
  8
0
100
AcDbLine
 62
7
  6
BYLAYER
 10
10.8722900188
 20
22.0452384307
 11
10.8722900188
 21
19.0452384307
  0
LINE
  5
21D
100
AcDbEntity
  8
0
100
AcDbLine
 62
7
  6
BYLAYER
 10
53.7879385887
 20
25.4900292456
 11
24.1566414489
 21
25.4900292456
  0
LINE
  5
21E
100
AcDbEntity
  8
0
100
AcDbLine
 62
7
  6
BYLAYER
 10
11.8157438003
 20
22.0452384307
 11
11.8157438003
 21
19.0452384307
  0
LINE
  5
21F
100
AcDbEntity
  8
0
100
AcDbLine
 62
7
  6
BYLAYER
 10
13.6222900188
 20
59.292798154
 11
13.6222900188
 21
88.7452384307
  0
LINE
  5
220
100
AcDbEntity
  8
0
100
AcDbLine
 62
7
  6
BYLAYER
 10
25.6602854526
 20
28.0954427698
 11
52.284294585
 21
28.0954427698
  0
LINE
  5
221
100
AcDbEntity
  8
0
100
AcDbLine
 62
7
  6
BYLAYER
 10
21.7222900188
 20
36.3452384307
 11
20.0151832376
 21
38.0523452119
  0
LINE
  5
222
100
AcDbEntity
  8
0
100
AcDbLine
 62
7
  6
BYLAYER
 10
15.2222900188
 20
39.6452384307
 11
15.2222900188
 21
38.7452384307
  0
LINE
  5
223
100
AcDbEntity
  8
0
100
AcDbLine
 62
7
  6
BYLAYER
 10
16.02792447
 20
83.6752437115
 11
16.027925135
 21
88.7452384307
  0
LINE
  5
224
100
AcDbEntity
  8
0
100
AcDbLine
 62
7
  6
BYLAYER
 10
20.6983340687
 20
21.3555725602
 11
20.6983331403
 21
19.0452384307
  0
LINE
  5
225
100
AcDbEntity
  8
0
100
AcDbLine
 62
7
  6
BYLAYER
 10
52.284294585
 20
33.8452384307
 11
25.6602854526
 21
33.8452384307
  0
LINE
  5
226
100
AcDbEntity
  8
0
100
AcDbLine
 62
7
  6
BYLAYER
 10
21.7225729417
 20
36.3452384307
 11
56.222007096
 21
36.3452384307
  0
LINE
  5
227
100
AcDbEntity
  8
0
100
AcDbLine
 62
7
  6
BYLAYER
 10
57.9293968
 20
38.0523452119
 11
20.0151832376
 21
38.0523452119
  0
LINE
  5
228
100
AcDbEntity
  8
0
100
AcDbLine
 62
7
  6
BYLAYER
 10
9.0722900188
 20
38.7452384307
 11
68.6722900188
 21
38.7452384307
  0
LINE
  5
229
100
AcDbEntity
  8
0
100
AcDbLine
 62
7
  6
BYLAYER
 10
53.7879385887
 20
25.4900292456
 11
60.9722900188
 21
21.3555780052
  0
LINE
  5
22A
100
AcDbEntity
  8
0
100
AcDbLine
 62
7
  6
BYLAYER
 10
25.6602854526
 20
28.0954427698
 11
25.6602854526
 21
33.8452384307
  0
LINE
  5
22B
100
AcDbEntity
  8
0
100
AcDbLine
 62
7
  6
BYLAYER
 10
8.9722900188
 20
39.6452384307
 11
68.9722900188
 21
39.6452384307
  0
LINE
  5
22C
100
AcDbEntity
  8
0
100
AcDbLine
 62
7
  6
BYLAYER
 10
28.5506529975
 20
58.0674888355
 11
28.5506529975
 21
59.5952384307
  0
LINE
  5
22D
100
AcDbEntity
  8
0
100
AcDbLine
 62
7
  6
BYLAYER
 10
47.1067844715
 20
58.2074803405
 11
68.9722900188
 21
58.2074803405
  0
LINE
  5
22E
100
AcDbEntity
  8
0
100
AcDbLine
 62
7
  6
BYLAYER
 10
24.1234194852
 20
58.3452384307
 11
21.0776878975
 21
58.3452384307
  0
LINE
  5
22F
100
AcDbEntity
  8
0
100
AcDbLine
 62
7
  6
BYLAYER
 10
21.3476759401
 20
58.6252853507
 11
9.9731559299
 21
58.6254107337
  0
LINE
  5
230
100
AcDbEntity
  8
0
100
AcDbLine
 62
7
  6
BYLAYER
 10
28.5506529975
 20
58.6252558886
 11
25.422862064
 21
58.6252633859
  0
LINE
  5
231
100
AcDbEntity
  8
0
100
AcDbLine
 62
7
  6
BYLAYER
 10
13.6222900188
 20
59.2927981539
 11
28.5506529975
 21
59.2927981539
  0
LINE
  5
232
100
AcDbEntity
  8
0
100
AcDbLine
 62
7
  6
BYLAYER
 10
68.9722900188
 20
59.5952384307
 11
28.5506529975
 21
59.5952384307
  0
LINE
  5
233
100
AcDbEntity
  8
0
100
AcDbLine
 62
7
  6
BYLAYER
 10
47.1067844715
 20
58.2074803405
 11
47.1067844715
 21
59.5952384307
  0
LINE
  5
234
100
AcDbEntity
  8
0
100
AcDbLine
 62
7
  6
BYLAYER
 10
8.9722900188
 20
58.427358822
 11
9.9723903183
 21
58.6252611853
  0
LINE
  5
235
100
AcDbEntity
  8
0
100
AcDbLine
 62
7
  6
BYLAYER
 10
9.9731560904
 20
58.6254107672
 11
13.6222900188
 21
59.292798154
  0
LINE
  5
236
100
AcDbEntity
  8
0
100
AcDbLine
 62
7
  6
BYLAYER
 10
52.284294585
 20
28.0954427698
 11
52.284294585
 21
33.8452384307
  0
LINE
  5
237
100
AcDbEntity
  8
0
100
AcDbLine
 62
7
  6
BYLAYER
 10
60.3196115417
 20
68.8463555321
 11
17.624968496
 21
68.8463555321
  0
LINE
  5
238
100
AcDbEntity
  8
0
100
AcDbLine
 62
7
  6
BYLAYER
 10
24.1566414489
 20
25.4900292456
 11
18.1706988467
 21
22.0452384307
  0
LINE
  5
239
100
AcDbEntity
  8
0
100
AcDbLine
 62
7
  6
BYLAYER
 10
61.3734614124
 20
71.3324875151
 11
16.5711292069
 21
71.3324875151
  0
LINE
  5
23A
100
AcDbEntity
  8
0
100
AcDbLine
 62
7
  6
BYLAYER
 10
60.9722900188
 20
19.0452384307
 11
60.9722900188
 21
21.3555780052
  0
LINE
  5
23B
100
AcDbEntity
  8
0
100
AcDbLine
 62
7
  6
BYLAYER
 10
61.9166549027
 20
88.7452384307
 11
61.9166515156
 21
83.6752457938
  0
LINE
  5
23C
100
AcDbEntity
  8
0
100
AcDbLine
 62
7
  6
BYLAYER
 10
62.5222900188
 20
38.7452384307
 11
62.5222900188
 21
39.6452384307
  0
LINE
  5
23D
100
AcDbEntity
  8
0
100
AcDbLine
 62
7
  6
BYLAYER
 10
56.2222900188
 20
36.3452384307
 11
57.9293968
 21
38.0523452119
  0
LINE
  5
23E
100
AcDbEntity
  8
0
100
AcDbLine
 62
7
  6
BYLAYER
 10
64.3222900188
 20
59.5952384307
 11
64.3222900188
 21
88.7452384307
  0
LINE
  5
23F
100
AcDbEntity
  8
0
100
AcDbLine
 62
7
  6
BYLAYER
 10
68.6722900188
 20
39.6452384307
 11
68.6722900188
 21
38.7452384307
  0
LINE
  5
240
100
AcDbEntity
  8
0
100
AcDbLine
 62
7
  6
BYLAYER
 10
68.9722900188
 20
39.6452384307
 11
68.9722900188
 21
59.5952384307
  0
LINE
  5
241
100
AcDbEntity
  8
0
100
AcDbLine
 62
7
  6
BYLAYER
 10
61.9166515156
 20
83.6752457938
 11
16.02792447
 21
83.6752437115
  0
LINE
  5
242
100
AcDbEntity
  8
0
100
AcDbLine
 62
7
  6
BYLAYER
 10
13.6223023959
 20
88.7452384307
 11
64.3222776418
 21
88.7452384307
  0
ARC
  5
243
100
AcDbEntity
  8
0
100
AcDbCircle
 62
7
  6
BYLAYER
 10
-2558.3376620092
 20
192.8084727317
 40
2622.5260241402
100
AcDbArc
 50
357.3450972202
 51
357.6150169832
  0
ARC
  5
244
100
AcDbEntity
  8
0
100
AcDbCircle
 62
7
  6
BYLAYER
 10
2636.2766602679
 20
192.8084057656
 40
2622.5204436524
100
AcDbArc
 50
182.3849860417
 51
182.654907592
  0
ARC
  5
245
100
AcDbEntity
  8
0
100
AcDbCircle
 62
7
  6
BYLAYER
 10
86.7500297151
 20
-116.7657922906
 40
153.1023772709
100
AcDbArc
 50
114.9528901861
 51
115.5578219012
  0
ARC
  5
246
100
AcDbEntity
  8
0
100
AcDbCircle
 62
7
  6
BYLAYER
 10
21.9360094214
 20
73.2084404076
 40
15.0233513123
100
AcDbArc
 50
273.9510370949
 51
277.7907625955
  0
ARC
  5
247
100
AcDbEntity
  8
0
100
AcDbCircle
 62
7
  6
BYLAYER
 10
22.0589531015
 20
72.2979011305
 40
14.1045509378
100
AcDbArc
 50
277.7973435606
 51
278.4160939703
  0
ARC
  5
248
100
AcDbEntity
  8
0
100
AcDbCircle
 62
7
  6
BYLAYER
 10
22.0934993988
 20
70.7531156705
 40
12.5630162622
100
AcDbArc
 50
271.4799898756
 51
274.0060658912
  0
ARC
  5
249
100
AcDbEntity
  8
0
100
AcDbCircle
 62
7
  6
BYLAYER
 10
22.6602900188
 20
28.0902085467
 40
3.0
100
AcDbArc
 50
299.9195700857
 51
0.0999663499
  0
ARC
  5
24A
100
AcDbEntity
  8
0
100
AcDbCircle
 62
7
  6
BYLAYER
 10
55.2842900188
 20
28.0902085467
 40
3.0
100
AcDbArc
 50
179.9000336501
 51
240.0804299143
  0
ARC
  5
24B
100
AcDbEntity
  8
0
100
AcDbCircle
 62
7
  6
BYLAYER
 10
23.1602900188
 20
33.8452384307
 40
2.5
100
AcDbArc
 50
0.0
 51
90.0
  0
ARC
  5
24C
100
AcDbEntity
  8
0
100
AcDbCircle
 62
7
  6
BYLAYER
 10
54.7842900188
 20
33.8452384307
 40
2.5
100
AcDbArc
 50
90.0
 51
180.0
  0
ARC
  5
24D
100
AcDbEntity
  8
0
100
AcDbCircle
 62
7
  6
BYLAYER
 10
57.2222900188
 20
38.7594519931
 40
1.0
100
AcDbArc
 50
315.0000000004
 51
360.0
  0
ARC
  5
24E
100
AcDbEntity
  8
0
100
AcDbCircle
 62
7
  6
BYLAYER
 10
20.7222900188
 20
38.7594519931
 40
1.0
100
AcDbArc
 50
180.0
 51
224.9999999996
  0
SPLINE
  5
24F
100
AcDbEntity
  8
0
100
AcDbSpline
 62
7
  6
BYLAYER
 70
0
 71
3
 72
13
 73
9
 74
0
 42
0.0000001
 43
0.0000001
 44
0.0000000001
 40
0.0
 40
0.0
 40
0.0
 40
0.0
 40
0.3787015255
 40
0.5357487598
 40
0.6702246303
 40
0.7821937358
 40
0.8726354491
 40
1.0
 40
1.0
 40
1.0
 40
1.0
 10
25.4230466364
 20
58.6252621652
 30
0.0
 10
25.4915476188
 20
58.6475756118
 30
0.0
 10
25.5876968198
 20
58.6818220072
 30
0.0
 10
25.7041528579
 20
58.7339947313
 30
0.0
 10
25.7719442522
 20
58.769955026
 30
0.0
 10
25.8257336052
 20
58.8055921042
 30
0.0
 10
25.8726239124
 20
58.846076105
 30
0.0
 10
25.8968982305
 20
58.8853797145
 30
0.0
 10
25.8968941853
 20
58.9096093383
 30
0.0
  0
SPLINE
  5
250
100
AcDbEntity
  8
0
100
AcDbSpline
 62
7
  6
BYLAYER
 70
0
 71
3
 72
10
 73
6
 74
0
 42
0.0000001
 43
0.0000001
 44
0.0000000001
 40
0.0
 40
0.0
 40
0.0
 40
0.0
 40
0.2061725985
 40
0.4455895223
 40
1.0
 40
1.0
 40
1.0
 40
1.0
 10
25.4230466364
 20
58.6252621652
 30
0.0
 10
25.3360819953
 20
58.5969606139
 30
0.0
 10
25.1458664384
 20
58.5427366175
 30
0.0
 10
24.7138815058
 20
58.4415954805
 30
0.0
 10
24.366605435
 20
58.3812512588
 30
0.0
 10
24.1233313722
 20
58.3452384307
 30
0.0
  0
SPLINE
  5
251
100
AcDbEntity
  8
0
100
AcDbSpline
 62
7
  6
BYLAYER
 70
0
 71
3
 72
9
 73
5
 74
0
 42
0.0000001
 43
0.0000001
 44
0.0000000001
 40
0.0
 40
0.0
 40
0.0
 40
0.0
 40
0.5396037358
 40
1.0
 40
1.0
 40
1.0
 40
1.0
 10
21.0776987642
 20
58.3452384307
 30
0.0
 10
21.0685921659
 20
58.3534159646
 30
0.0
 10
21.0531683571
 20
58.3708147688
 30
0.0
 10
21.0469275912
 20
58.3937241007
 30
0.0
 10
21.0469290525
 20
58.4041668758
 30
0.0
  0
SPLINE
  5
252
100
AcDbEntity
  8
0
100
AcDbSpline
 62
7
  6
BYLAYER
 70
0
 71
3
 72
9
 73
5
 74
0
 42
0.0000001
 43
0.0000001
 44
0.0000000001
 40
0.0
 40
0.0
 40
0.0
 40
0.0
 40
0.2149866194
 40
1.0
 40
1.0
 40
1.0
 40
1.0
 10
21.0469290525
 20
58.4041668758
 30
0.0
 10
21.0469298342
 20
58.4097534946
 30
0.0
 10
21.0505231071
 20
58.435815608
 30
0.0
 10
21.0669132617
 20
58.4582081241
 30
0.0
 10
21.0809030009
 20
58.4730545882
 30
0.0
  0
SPLINE
  5
253
100
AcDbEntity
  8
0
100
AcDbSpline
 62
7
  6
BYLAYER
 70
0
 71
3
 72
10
 73
6
 74
0
 42
0.0000001
 43
0.0000001
 44
0.0000000001
 40
0.0
 40
0.0
 40
0.0
 40
0.0
 40
0.1815155179
 40
0.4080814228
 40
1.0
 40
1.0
 40
1.0
 40
1.0
 10
21.0809030009
 20
58.4730545882
 30
0.0
 10
21.0937282263
 20
58.4866652242
 30
0.0
 10
21.1262914793
 20
58.5137002758
 30
0.0
 10
21.2138012494
 20
58.5683113122
 30
0.0
 10
21.291300143
 20
58.6025871689
 30
0.0
 10
21.3479126414
 20
58.6252612451
 30
0.0
  0
SPLINE
  5
254
100
AcDbEntity
  8
0
100
AcDbSpline
 62
7
  6
BYLAYER
 70
0
 71
3
 72
9
 73
5
 74
0
 42
0.0000001
 43
0.0000001
 44
0.0000000001
 40
0.0
 40
0.0
 40
0.0
 40
0.0
 40
0.5000088872
 40
1.0
 40
1.0
 40
1.0
 40
1.0
 10
68.9722926659
 20
55.5557651184
 30
0.0
 10
65.3609322712
 20
56.2255079338
 30
0.0
 10
58.0971420567
 20
57.3529688692
 30
0.0
 10
50.7742862566
 20
58.0101205385
 30
0.0
 10
47.1067844715
 20
58.2074803405
 30
0.0
  0
SPLINE
  5
255
100
AcDbEntity
  8
0
100
AcDbSpline
 62
7
  6
BYLAYER
 70
0
 71
3
 72
14
 73
10
 74
0
 42
0.0000001
 43
0.0000001
 44
0.0000000001
 40
0.0
 40
0.0
 40
0.0
 40
0.0
 40
0.0543450645
 40
0.1294540644
 40
0.226300277
 40
0.3444382427
 40
0.4827940117
 40
0.6396211932
 40
1.0
 40
1.0
 40
1.0
 40
1.0
 10
21.0777008227
 20
58.3452384307
 30
0.0
 10
21.0960707481
 20
58.3287432609
 30
0.0
 10
21.1484936689
 20
58.2997775241
 30
0.0
 10
21.2461358644
 20
58.2674960833
 30
0.0
 10
21.3753382438
 20
58.2401489412
 30
0.0
 10
21.5344271961
 20
58.2183383932
 30
0.0
 10
21.7216070863
 20
58.2024999117
 30
0.0
 10
22.0191762034
 20
58.1891387237
 30
0.0
 10
22.2543069558
 20
58.1901538147
 30
0.0
 10
22.4179747697
 20
58.1942903537
 30
0.0
  0
SPLINE
  5
256
100
AcDbEntity
  8
0
100
AcDbSpline
 62
7
  6
BYLAYER
 70
0
 71
3
 72
9
 73
5
 74
0
 42
0.0000001
 43
0.0000001
 44
0.0000000001
 40
0.0
 40
0.0
 40
0.0
 40
0.0
 40
0.4999937995
 40
1.0
 40
1.0
 40
1.0
 40
1.0
 10
28.5506529975
 20
58.0674888355
 30
0.0
 10
25.2672457295
 20
57.8423608031
 30
0.0
 10
18.7131990082
 20
57.1857186498
 30
0.0
 10
12.2083068686
 20
56.1558992982
 30
0.0
 10
8.9722873718
 20
55.5557651184
 30
0.0
  0
SPLINE
  5
257
100
AcDbEntity
  8
0
100
AcDbSpline
 62
7
  6
BYLAYER
 70
0
 71
3
 72
26
 73
22
 74
0
 42
0.0000001
 43
0.0000001
 44
0.0000000001
 40
0.0
 40
0.0
 40
0.0
 40
0.0
 40
0.0069900865
 40
0.0152403828
 40
0.0257944136
 40
0.0391220876
 40
0.0554178895
 40
0.0747389571
 40
0.0970374831
 40
0.1222272536
 40
0.1807473284
 40
0.2488948765
 40
0.3248736583
 40
0.406604268
 40
0.4918194859
 40
0.5781850386
 40
0.7451357367
 40
0.8214283563
 40
0.8903701843
 40
0.9503720871
 40
1.0
 40
1.0
 40
1.0
 40
1.0
 10
25.8968941853
 20
58.9096093383
 30
0.0
 10
25.8968923724
 20
58.9204677874
 30
0.0
 10
25.8901985798
 20
58.9443885219
 30
0.0
 10
25.8627401997
 20
58.9747287557
 30
0.0
 10
25.8204316709
 20
59.0017687465
 30
0.0
 10
25.7628969294
 20
59.0264320616
 30
0.0
 10
25.6901050756
 20
59.0487115713
 30
0.0
 10
25.6022656414
 20
59.0684473979
 30
0.0
 10
25.4998569375
 20
59.0855231359
 30
0.0
 10
25.3363572888
 20
59.105491429
 30
0.0
 10
25.1008422568
 20
59.1214155792
 30
0.0
 10
24.7860363039
 20
59.1276804536
 30
0.0
 10
24.4351705079
 20
59.1214381716
 30
0.0
 10
24.0582176611
 20
59.1028081196
 30
0.0
 10
23.6658507647
 20
59.0723098172
 30
0.0
 10
23.1427973716
 20
59.0175579408
 30
0.0
 10
22.6356473671
 20
58.9447726043
 30
0.0
 10
22.159233627
 20
58.8538155888
 30
0.0
 10
21.8483158218
 20
58.7828547867
 30
0.0
 10
21.5808378604
 20
58.7090344382
 30
0.0
 10
21.4194693046
 20
58.6539470245
 30
0.0
 10
21.3479126414
 20
58.6252612451
 30
0.0
  0
SPLINE
  5
258
100
AcDbEntity
  8
0
100
AcDbSpline
 62
7
  6
BYLAYER
 70
0
 71
3
 72
13
 73
9
 74
0
 42
0.0000001
 43
0.0000001
 44
0.0000000001
 40
0.0
 40
0.0
 40
0.0
 40
0.0
 40
0.2991180756
 40
0.4398819778
 40
0.5722220481
 40
0.6948819999
 40
0.8071093697
 40
1.0
 40
1.0
 40
1.0
 40
1.0
 10
61.3734549237
 20
71.3325034596
 30
0.0
 10
61.3599454664
 20
71.0534103131
 30
0.0
 10
61.3119153919
 20
70.6432091799
 30
0.0
 10
61.1848827
 20
70.1233973262
 30
0.0
 10
61.0642424197
 20
69.7734151534
 30
0.0
 10
60.9170814069
 20
69.4620763807
 30
0.0
 10
60.7004104956
 20
69.1271384012
 30
0.0
 10
60.4826866042
 20
68.9229990872
 30
0.0
 10
60.3196115417
 20
68.8463555321
 30
0.0
  0
SPLINE
  5
259
100
AcDbEntity
  8
0
100
AcDbSpline
 62
7
  6
BYLAYER
 70
0
 71
3
 72
13
 73
9
 74
0
 42
0.0000001
 43
0.0000001
 44
0.0000000001
 40
0.0
 40
0.0
 40
0.0
 40
0.0
 40
0.1928859691
 40
0.3051047007
 40
0.4277411899
 40
0.5600633645
 40
0.7008369034
 40
1.0
 40
1.0
 40
1.0
 40
1.0
 10
17.624968496
 20
68.8463555321
 30
0.0
 10
17.4618992715
 20
68.9229963434
 30
0.0
 10
17.2441822209
 20
69.1271236187
 30
0.0
 10
17.027556863
 20
69.4620426325
 30
0.0
 10
16.8803670892
 20
69.7733092419
 30
0.0
 10
16.7597140789
 20
70.1232541021
 30
0.0
 10
16.6327123017
 20
70.643101772
 30
0.0
 10
16.5846393771
 20
71.0533430493
 30
0.0
 10
16.5711280357
 20
71.3324749546
 30
0.0
  0
ELLIPSE
  5
25A
100
AcDbEntity
  8
0
100
AcDbEllipse
 62
7
  6
BYLAYER
 10
38.9722900188
 20
71.1106148589
 30
0.0
 11
25.35
 21
0.0
 31
0.0
 40
0.165616967
 41
3.711217403
 42
5.7135605578
  0
ENDSEC
  0
SECTION
  2
OBJECTS
  0
DICTIONARY
  5
C
100
AcDbDictionary
280
0
281
1
  3
ACAD_GROUP
350
D
  3
ACAD_MLINESTYLE
350
17
  3
ACAD_LAYOUT
350
1A
  3
ACAD_PLOTSETTINGS
350
19
  3
ACAD_PLOTSTYLENAME
350
E
  0
DICTIONARY
  5
D
102
{ACAD_REACTORS
330
C
102
}
100
AcDbDictionary
280
0
281
1
  0
ACDBDICTIONARYWDFLT
  5
E
102
{ACAD_REACTORS
330
C
102
}
100
AcDbDictionary
281
1
  3
Normal
350
F
100
AcDbDictionaryWithDefault
340
F
  0
DICTIONARY
  5
17
102
{ACAD_REACTORS
330
C
102
}
100
AcDbDictionary
280
0
281
1
  3
Standard
350
18
  0
DICTIONARY
  5
19
102
{ACAD_REACTORS
330
C
102
}
100
AcDbDictionary
281
1
  0
DICTIONARY
  5
1A
102
{ACAD_REACTORS
330
C
102
}
100
AcDbDictionary
281
1
  3
Model
350
25B
  3
Layout1
350
25C
  0
ACDBPLACEHOLDER
  5
F
102
{ACAD_REACTORS
330
E
102
}
  0
MLINESTYLE
  5
18
102
{ACAD_REACTORS
330
17
102
}
100
AcDbMlineStyle
  2
STANDARD
 70
0
  3

 62
256
 51
90.0
 52
90.0
 71
2
 49
0.5
 62
256
  6
BYLAYER
 49
-0.5
 62
256
  6
BYLAYER
  0
LAYOUT
  5
25B
102
{ACAD_REACTORS
330
1A
102
}
100
AcDbPlotSettings
  1

  2
none_device
  4

  6

 40
0.0
 41
0.0
 42
0.0
 43
0.0
 44
210.0
 45
297.0
 46
0.0
 47
0.0
 48
0.0
 49
0.0
140
0.0
141
0.0
142
1.0
143
1.0
 70
1024
 72
1
 73
0
 74
0
  7

 75
0
147
1.0
148
0.0
149
0.0
100
AcDbLayout
  1
Model
 70
0
 71
0
 10
0.0
 20
0.0
 11
210.0
 21
297.0
 12
0.0
 22
0.0
 32
0.0
 14
0.0
 24
0.0
 34
0.0
 15
0.0
 25
0.0
 35
0.0
146
0.0
 13
0.0
 23
0.0
 33
0.0
 16
1.0
 26
0.0
 36
0.0
 17
0.0
 27
1.0
 37
0.0
 76
0
330
210
345
0
346
0
  0
LAYOUT
  5
25C
102
{ACAD_REACTORS
330
1A
102
}
100
AcDbPlotSettings
  1

  2
none_device
  4

  6

 40
0.0
 41
0.0
 42
0.0
 43
0.0
 44
210.0
 45
297.0
 46
0.0
 47
0.0
 48
0.0
 49
0.0
140
0.0
141
0.0
142
1.0
143
1.0
 70
0
 72
1
 73
0
 74
0
  7

 75
0
147
1.0
148
0.0
149
0.0
100
AcDbLayout
  1
Layout1
 70
0
 71
1
 10
0.0
 20
0.0
 11
210.0
 21
297.0
 12
0.0
 22
0.0
 32
0.0
 14
0.0
 24
0.0
 34
0.0
 15
0.0
 25
0.0
 35
0.0
146
0.0
 13
0.0
 23
0.0
 33
0.0
 16
1.0
 26
0.0
 36
0.0
 17
0.0
 27
1.0
 37
0.0
 76
0
330
211
345
0
346
0
  0
ENDSEC
  0
EOF
