999
DXF file: C:\Users\sesa63760\Dev\_Creo\CAD\MCADID0003823_3D-CAD\drw0001_4.dxf
999
Pro/ENGINEER 2019471 by Parametric Technology Corporation
  0
SECTION
  2
HEADER
  9
$ACADVER
  1
AC1024
  9
$DWGCODEPAGE
  3
ANSI_1252
  9
$EXTMAX
 10
53.5347004528
 20
75.713362069
 30
0.0
  9
$EXTMIN
 10
0.0
 20
0.0
 30
0.0
  9
$LIMMIN
 10
0.0
 20
0.0
  9
$LIMMAX
 10
53.5347004528
 20
75.713362069
  9
$VIEWCTR
 10
26.7673502264
 20
37.8566810345
  9
$VIEWSIZE
 40
75.713362069
  9
$CLAYER
  8
0
  9
$LTSCALE
 40
4.9353895275
  9
$CELTYPE
  6
BYLAYER
  9
$DIMSCALE
 40
1.0
  9
$DIMASZ
 40
0.6373178625
  9
$DIMEXO
 40
1.0
  9
$DIMDLI
 40
3.4099054917
  9
$DIMEXE
 40
1.0
  9
$DIMCEN
 40
0.8076091954
  9
$DIMLFAC
 40
1.0
  9
$DIMBLK
  1
_FILLED
  9
$DIMALT
 70
0
  9
$DIMALTF
 40
0.0393700787
  9
$DIMTXT
 40
0.8922450075
  9
$DIMTOL
 70
1
  9
$DIMLIM
 70
0
  9
$DIMTFAC
 40
1.0
  9
$DIMTP
 40
0.01
  9
$DIMTM
 40
0.01
  9
$DIMGAP
 40
0.625
  9
$DIMDSEP
 70
46
  9
$AUNITS
 70
0
  9
$PDMODE
 70
3
  9
$PDSIZE
 40
0.3125
  9
$HANDSEED
  5
275
  9
$TILEMODE
 70
1
  9
$MEASUREMENT
 70
1
  9
$INSUNITS
 70
4
  0
ENDSEC
  0
SECTION
  2
CLASSES
  0
CLASS
  1
ACDBDICTIONARYWDFLT
  2
AcDbDictionaryWithDefault
  3
AutoCAD 2000
 90
0
 91
1
280
0
281
0
  0
CLASS
  1
ACDBPLACEHOLDER
  2
AcDbPlaceHolder
  3
AutoCAD 2000
 90
0
 91
1
280
0
281
0
  0
CLASS
  1
LAYOUT
  2
AcDbLayout
  3
AutoCAD 2000
 90
0
 91
0
280
0
281
0
  0
ENDSEC
  0
SECTION
  2
TABLES
  0
TABLE
  2
VPORT
  5
8
100
AcDbSymbolTable
 70
2
  0
VPORT
  5
1F4
100
AcDbSymbolTableRecord
100
AcDbViewportTableRecord
  2
*ACTIVE
 70
0
 10
0.0
 20
0.0
 11
1.0
 21
1.0
 12
26.7673502264
 22
37.8566810345
 13
0.0
 23
0.0
 14
1.0
 24
1.0
 15
0.0
 25
0.0
 16
0.0
 26
0.0
 36
1.0
 17
0.0
 27
0.0
 37
0.0
 40
75.713362069
 41
0.7070707071
 42
50.0
 43
0.0
 44
0.0
 50
0.0
 51
0.0
 71
0
 72
100
 73
1
 74
1
 75
0
 76
0
 77
0
 78
0
  0
ENDTAB
  0
TABLE
  2
LTYPE
  5
5
100
AcDbSymbolTable
 70
6
  0
LTYPE
  5
14
100
AcDbSymbolTableRecord
100
AcDbLinetypeTableRecord
  2
BYBLOCK
 70
0
  3

 72
65
 73
0
 40
0.0
  0
LTYPE
  5
15
100
AcDbSymbolTableRecord
100
AcDbLinetypeTableRecord
  2
BYLAYER
 70
0
  3

 72
65
 73
0
 40
0.0
  0
LTYPE
  5
16
100
AcDbSymbolTableRecord
100
AcDbLinetypeTableRecord
  2
CONTINUOUS
 70
64
  3
Solid line
 72
65
 73
0
 40
0.0
  0
LTYPE
  5
1F5
100
AcDbSymbolTableRecord
100
AcDbLinetypeTableRecord
  2
CENTER
 70
64
  3
____ _ ____ _ ____ _ ____ _ ____ _ ____ _ ____
 72
65
 73
4
 40
0.6
 49
0.375
 74
0
 49
-0.075
 74
0
 49
0.075
 74
0
 49
-0.075
 74
0
  0
LTYPE
  5
1F6
100
AcDbSymbolTableRecord
100
AcDbLinetypeTableRecord
  2
HIDDEN
 70
64
  3
- - - - - - - - - - - - - - - - - - - -
 72
65
 73
2
 40
0.2
 49
0.1
 74
0
 49
-0.1
 74
0
  0
LTYPE
  5
1F7
100
AcDbSymbolTableRecord
100
AcDbLinetypeTableRecord
  2
PHANTOM
 70
64
  3
_____ _ _ _____ _ _ _____ _ _ _____
 72
65
 73
6
 40
0.8
 49
0.45
 74
0
 49
-0.05
 74
0
 49
0.1
 74
0
 49
-0.05
 74
0
 49
0.1
 74
0
 49
-0.05
 74
0
  0
LTYPE
  5
1F8
100
AcDbSymbolTableRecord
100
AcDbLinetypeTableRecord
  2
DOT
 70
64
  3
. . . . . . . . . . . . . . . . . . . .
 72
65
 73
2
 40
0.2
 49
0.1
 74
0
 49
-0.1
 74
0
  0
LTYPE
  5
1F9
100
AcDbSymbolTableRecord
100
AcDbLinetypeTableRecord
  2
DASHED
 70
64
  3
- - - - - - - - - - - - - - - - - - - -
 72
65
 73
2
 40
0.2
 49
0.1
 74
0
 49
-0.1
 74
0
  0
ENDTAB
  0
TABLE
  2
LAYER
  5
2
100
AcDbSymbolTable
 70
36
  0
LAYER
  5
10
100
AcDbSymbolTableRecord
100
AcDbLayerTableRecord
  2
0
 70
0
 62
7
  6
CONTINUOUS
370
-3
390
F
  0
LAYER
  5
1FA
100
AcDbSymbolTableRecord
100
AcDbLayerTableRecord
  2
DEFAULT_1
 70
0
 62
7
  6
CENTER
370
-3
390
F
  0
LAYER
  5
1FB
100
AcDbSymbolTableRecord
100
AcDbLayerTableRecord
  2
DEFAULT_2
 70
0
 62
7
  6
HIDDEN
370
-3
390
F
  0
LAYER
  5
1FC
100
AcDbSymbolTableRecord
100
AcDbLayerTableRecord
  2
DEFAULT_3
 70
0
 62
7
  6
PHANTOM
370
-3
390
F
  0
LAYER
  5
1FD
100
AcDbSymbolTableRecord
100
AcDbLayerTableRecord
  2
00_COMPONENTS
 70
0
 62
7
  6
CONTINUOUS
370
-3
390
F
  0
LAYER
  5
1FE
100
AcDbSymbolTableRecord
100
AcDbLayerTableRecord
  2
01_1_DEFAULT_DATUMS
 70
0
 62
7
  6
CONTINUOUS
370
-3
390
F
  0
LAYER
  5
1FF
100
AcDbSymbolTableRecord
100
AcDbLayerTableRecord
  2
01_PLANES
 70
0
 62
7
  6
CONTINUOUS
370
-3
390
F
  0
LAYER
  5
200
100
AcDbSymbolTableRecord
100
AcDbLayerTableRecord
  2
02_COORD_SYS
 70
0
 62
7
  6
CONTINUOUS
370
-3
390
F
  0
LAYER
  5
201
100
AcDbSymbolTableRecord
100
AcDbLayerTableRecord
  2
03_AXES
 70
0
 62
7
  6
CONTINUOUS
370
-3
390
F
  0
LAYER
  5
202
100
AcDbSymbolTableRecord
100
AcDbLayerTableRecord
  2
04_POINTS
 70
0
 62
7
  6
CONTINUOUS
370
-3
390
F
  0
LAYER
  5
203
100
AcDbSymbolTableRecord
100
AcDbLayerTableRecord
  2
05_CURVES
 70
0
 62
7
  6
CONTINUOUS
370
-3
390
F
  0
LAYER
  5
204
100
AcDbSymbolTableRecord
100
AcDbLayerTableRecord
  2
06_SURFS
 70
0
 62
7
  6
CONTINUOUS
370
-3
390
F
  0
LAYER
  5
205
100
AcDbSymbolTableRecord
100
AcDbLayerTableRecord
  2
07_COSMETICS
 70
0
 62
7
  6
CONTINUOUS
370
-3
390
F
  0
LAYER
  5
206
100
AcDbSymbolTableRecord
100
AcDbLayerTableRecord
  2
10_NOTES
 70
0
 62
7
  6
CONTINUOUS
370
-3
390
F
  0
LAYER
  5
207
100
AcDbSymbolTableRecord
100
AcDbLayerTableRecord
  2
11_NOTES_PUB
 70
0
 62
7
  6
CONTINUOUS
370
-3
390
F
  0
LAYER
  5
208
100
AcDbSymbolTableRecord
100
AcDbLayerTableRecord
  2
13_REF_GTOL
 70
0
 62
7
  6
CONTINUOUS
370
-3
390
F
  0
LAYER
  5
209
100
AcDbSymbolTableRecord
100
AcDbLayerTableRecord
  2
16_MISC
 70
0
 62
7
  6
CONTINUOUS
370
-3
390
F
  0
LAYER
  5
20A
100
AcDbSymbolTableRecord
100
AcDbLayerTableRecord
  2
17_NO_PRINT
 70
0
 62
7
  6
CONTINUOUS
370
-3
390
F
  0
LAYER
  5
20B
100
AcDbSymbolTableRecord
100
AcDbLayerTableRecord
  2
18_DATUM_CAMS_JOINTS
 70
0
 62
7
  6
CONTINUOUS
370
-3
390
F
  0
LAYER
  5
20C
100
AcDbSymbolTableRecord
100
AcDbLayerTableRecord
  2
19_DATUM_FUNCTIONAL
 70
0
 62
7
  6
CONTINUOUS
370
-3
390
F
  0
LAYER
  5
20D
100
AcDbSymbolTableRecord
100
AcDbLayerTableRecord
  2
20_DATUM_KINEMATIC_SCHEME
 70
0
 62
7
  6
CONTINUOUS
370
-3
390
F
  0
ENDTAB
  0
TABLE
  2
STYLE
  5
3
100
AcDbSymbolTable
 70
1
  0
STYLE
  5
11
100
AcDbSymbolTableRecord
100
AcDbTextStyleTableRecord
  2
STANDARD
 70
0
 40
0.0
 41
1.0
 50
0.0
 71
0
 42
0.2
  3
ARIAL.TTF
  4

  0
STYLE
  5
20E
100
AcDbSymbolTableRecord
100
AcDbTextStyleTableRecord
  2
TEXTSTYLE_1
 70
0
 40
0.0
 41
0.8
 50
0.0
 71
0
 42
0.2
  3
gdt
  4

  0
ENDTAB
  0
TABLE
  2
VIEW
  5
6
100
AcDbSymbolTable
 70
0
  0
ENDTAB
  0
TABLE
  2
UCS
  5
7
100
AcDbSymbolTable
 70
0
  0
ENDTAB
  0
TABLE
  2
APPID
  5
9
100
AcDbSymbolTable
 70
1
  0
APPID
  5
20F
100
AcDbSymbolTableRecord
100
AcDbRegAppTableRecord
  2
ACAD
 70
0
  0
ENDTAB
  0
TABLE
  2
BLOCK_RECORD
  5
1
100
AcDbSymbolTable
 70
0
  0
BLOCK_RECORD
  5
210
100
AcDbSymbolTableRecord
100
AcDbBlockTableRecord
  2
*Model_Space
  0
BLOCK_RECORD
  5
211
100
AcDbSymbolTableRecord
100
AcDbBlockTableRecord
  2
*Paper_Space
  0
BLOCK_RECORD
  5
212
100
AcDbSymbolTableRecord
100
AcDbBlockTableRecord
  2
_FILLED
  0
ENDTAB
  0
TABLE
  2
DIMSTYLE
  5
A
100
AcDbSymbolTable
 70
1
100
AcDbDimStyleTable
 71
0
  0
DIMSTYLE
105
213
100
AcDbSymbolTableRecord
100
AcDbDimStyleTableRecord
  2
STANDARD
 70
0
  3

  4

 40
1.0
 41
0.6373178625
 42
1.0
 43
0.38
 44
1.0
 45
0.0
 46
0.0
 47
0.01
 48
0.01
140
0.8922450075
141
0.09
142
0.0
143
25.4
144
1.0
145
0.0
146
1.0
147
0.625
 71
1
 72
0
 73
0
 74
0
 75
0
 76
0
 77
1
 78
8
 79
2
170
0
171
1
172
0
173
0
174
0
175
0
176
0
177
0
178
0
270
2
179
2
271
2
272
2
273
2
274
2
275
0
280
0
281
0
282
0
283
1
284
8
285
0
286
0
287
3
288
0
340
11
278
46
341
212
342
212
343
212
344
212
  0
ENDTAB
  0
ENDSEC
  0
SECTION
  2
BLOCKS
  0
BLOCK
  5
20
100
AcDbEntity
  8
0
100
AcDbBlockBegin
  2
*Model_Space
 70
0
 10
0.0
 20
0.0
 30
0.0
  3
*Model_Space
  1

  0
ENDBLK
  5
21
100
AcDbEntity
  8
0
100
AcDbBlockEnd
  0
BLOCK
  5
1C
100
AcDbEntity
  8
0
100
AcDbBlockBegin
  2
*Paper_Space
 70
0
 10
0.0
 20
0.0
 30
0.0
  3
*Paper_Space
  1

  0
ENDBLK
  5
1D
100
AcDbEntity
  8
0
100
AcDbBlockEnd
  0
BLOCK
  5
214
100
AcDbEntity
  8
0
100
AcDbBlockBegin
  2
_FILLED
 70
64
 10
0.0
 20
0.0
  3
_FILLED
  1

  0
SOLID
  5
215
100
AcDbEntity
  8
0
  6
BYBLOCK
 62
0
100
AcDbTrace
 10
0.0
 20
0.0
 11
-1.0
 21
0.25
 12
-1.0
 22
-0.25
 13
-1.0
 23
-0.25
  0
ENDBLK
  5
216
100
AcDbEntity
  8
0
  6
BYBLOCK
 62
0
100
AcDbBlockEnd
  0
ENDSEC
  0
SECTION
  2
ENTITIES
  0
LINE
  5
217
100
AcDbEntity
  8
0
100
AcDbLine
 62
7
  6
BYLAYER
 10
15.9623933299
 20
34.375
 11
15.9623933299
 21
40.875
  0
LINE
  5
218
100
AcDbEntity
  8
0
100
AcDbLine
 62
7
  6
BYLAYER
 10
38.1234321559
 20
31.4666
 11
37.5347545038
 21
31.4666
  0
LINE
  5
219
100
AcDbEntity
  8
0
100
AcDbLine
 62
7
  6
BYLAYER
 10
35.4456321559
 20
31.4666
 11
34.8569545038
 21
31.4666
  0
LINE
  5
21A
100
AcDbEntity
  8
0
100
AcDbLine
 62
7
  6
BYLAYER
 10
38.1234321559
 20
31.4737001504
 11
37.5347545038
 21
31.4737001504
  0
LINE
  5
21B
100
AcDbEntity
  8
0
100
AcDbLine
 62
7
  6
BYLAYER
 10
35.4456321559
 20
31.4737001504
 11
34.8569545038
 21
31.4737001504
  0
LINE
  5
21C
100
AcDbEntity
  8
0
100
AcDbLine
 62
7
  6
BYLAYER
 10
24.5623933299
 20
41.625
 11
23.9623933299
 21
41.025
  0
LINE
  5
21D
100
AcDbEntity
  8
0
100
AcDbLine
 62
7
  6
BYLAYER
 10
23.9623933299
 20
34.225
 11
24.5623933299
 21
33.625
  0
LINE
  5
21E
100
AcDbEntity
  8
0
100
AcDbLine
 62
7
  6
BYLAYER
 10
23.9623933299
 20
34.225
 11
23.9623933299
 21
41.025
  0
LINE
  5
21F
100
AcDbEntity
  8
0
100
AcDbLine
 62
7
  6
BYLAYER
 10
24.5623933299
 20
33.625
 11
24.5623933299
 21
41.625
  0
LINE
  5
220
100
AcDbEntity
  8
0
100
AcDbLine
 62
7
  6
BYLAYER
 10
24.5623933299
 20
33.625
 11
34.4623933299
 21
33.625
  0
LINE
  5
221
100
AcDbEntity
  8
0
100
AcDbLine
 62
7
  6
BYLAYER
 10
35.8401933299
 20
33.625
 11
37.1401933299
 21
33.625
  0
LINE
  5
222
100
AcDbEntity
  8
0
100
AcDbLine
 62
7
  6
BYLAYER
 10
38.5179933299
 20
33.625
 11
48.3623933299
 21
33.625
  0
LINE
  5
223
100
AcDbEntity
  8
0
100
AcDbLine
 62
7
  6
BYLAYER
 10
34.8569545038
 20
34.2933216782
 11
35.4456321559
 21
34.2933216782
  0
LINE
  5
224
100
AcDbEntity
  8
0
100
AcDbLine
 62
7
  6
BYLAYER
 10
37.5347545038
 20
34.2933216782
 11
38.1234321559
 21
34.2933216782
  0
LINE
  5
225
100
AcDbEntity
  8
0
100
AcDbLine
 62
7
  6
BYLAYER
 10
15.9623933299
 20
34.375
 11
23.9623933299
 21
34.375
  0
LINE
  5
226
100
AcDbEntity
  8
0
100
AcDbLine
 62
7
  6
BYLAYER
 10
38.1234321559
 20
34.8053784722
 11
37.5347545038
 21
34.8053784722
  0
LINE
  5
227
100
AcDbEntity
  8
0
100
AcDbLine
 62
7
  6
BYLAYER
 10
35.4456321559
 20
34.8053784722
 11
34.8569545038
 21
34.8053784722
  0
LINE
  5
228
100
AcDbEntity
  8
0
100
AcDbLine
 62
7
  6
BYLAYER
 10
6.3720766634
 20
35.625
 11
15.9623933299
 21
35.625
  0
LINE
  5
229
100
AcDbEntity
  8
0
100
AcDbLine
 62
7
  6
BYLAYER
 10
15.9623933299
 20
39.625
 11
6.3720766634
 21
39.625
  0
LINE
  5
22A
100
AcDbEntity
  8
0
100
AcDbLine
 62
7
  6
BYLAYER
 10
34.8569545038
 20
40.4446215278
 11
35.4456321559
 21
40.4446215278
  0
LINE
  5
22B
100
AcDbEntity
  8
0
100
AcDbLine
 62
7
  6
BYLAYER
 10
37.5347545038
 20
40.4446215278
 11
38.1234321559
 21
40.4446215278
  0
LINE
  5
22C
100
AcDbEntity
  8
0
100
AcDbLine
 62
7
  6
BYLAYER
 10
34.4623933299
 20
43.1
 11
34.8569545038
 21
43.7834
  0
LINE
  5
22D
100
AcDbEntity
  8
0
100
AcDbLine
 62
7
  6
BYLAYER
 10
23.9623933299
 20
40.875
 11
15.9623933299
 21
40.875
  0
LINE
  5
22E
100
AcDbEntity
  8
0
100
AcDbLine
 62
7
  6
BYLAYER
 10
38.1234321559
 20
40.9566783218
 11
37.5347545038
 21
40.9566783218
  0
LINE
  5
22F
100
AcDbEntity
  8
0
100
AcDbLine
 62
7
  6
BYLAYER
 10
35.4456321559
 20
40.9566783218
 11
34.8569545038
 21
40.9566783218
  0
LINE
  5
230
100
AcDbEntity
  8
0
100
AcDbLine
 62
7
  6
BYLAYER
 10
48.3623933299
 20
41.625
 11
38.5179933299
 21
41.625
  0
LINE
  5
231
100
AcDbEntity
  8
0
100
AcDbLine
 62
7
  6
BYLAYER
 10
37.1401933299
 20
41.625
 11
35.8401933299
 21
41.625
  0
LINE
  5
232
100
AcDbEntity
  8
0
100
AcDbLine
 62
7
  6
BYLAYER
 10
34.4623933299
 20
41.625
 11
24.5623933299
 21
41.625
  0
LINE
  5
233
100
AcDbEntity
  8
0
100
AcDbLine
 62
7
  6
BYLAYER
 10
34.8569545038
 20
31.4666
 11
34.4623933299
 21
32.15
  0
LINE
  5
234
100
AcDbEntity
  8
0
100
AcDbLine
 62
7
  6
BYLAYER
 10
37.1401933299
 20
43.1
 11
37.5347545038
 21
43.7834
  0
LINE
  5
235
100
AcDbEntity
  8
0
100
AcDbLine
 62
7
  6
BYLAYER
 10
34.8569545038
 20
43.7762998496
 11
35.4456321559
 21
43.7762998496
  0
LINE
  5
236
100
AcDbEntity
  8
0
100
AcDbLine
 62
7
  6
BYLAYER
 10
37.5347545038
 20
43.7762998496
 11
38.1234321559
 21
43.7762998496
  0
LINE
  5
237
100
AcDbEntity
  8
0
100
AcDbLine
 62
7
  6
BYLAYER
 10
34.8569545038
 20
43.7834
 11
35.4456321559
 21
43.7834
  0
LINE
  5
238
100
AcDbEntity
  8
0
100
AcDbLine
 62
7
  6
BYLAYER
 10
37.5347545038
 20
43.7834
 11
38.1234321559
 21
43.7834
  0
LINE
  5
239
100
AcDbEntity
  8
0
100
AcDbLine
 62
7
  6
BYLAYER
 10
37.5347545038
 20
31.4666
 11
37.1401933299
 21
32.15
  0
LINE
  5
23A
100
AcDbEntity
  8
0
100
AcDbLine
 62
7
  6
BYLAYER
 10
34.4623933299
 20
32.15
 11
34.4623933299
 21
43.1
  0
LINE
  5
23B
100
AcDbEntity
  8
0
100
AcDbLine
 62
7
  6
BYLAYER
 10
34.8569545038
 20
31.4666
 11
34.8569545038
 21
31.4737001504
  0
LINE
  5
23C
100
AcDbEntity
  8
0
100
AcDbLine
 62
7
  6
BYLAYER
 10
34.8569545038
 20
34.2933216782
 11
34.8569545038
 21
34.8053784722
  0
LINE
  5
23D
100
AcDbEntity
  8
0
100
AcDbLine
 62
7
  6
BYLAYER
 10
34.8569545038
 20
40.4446215278
 11
34.8569545038
 21
40.9566783218
  0
LINE
  5
23E
100
AcDbEntity
  8
0
100
AcDbLine
 62
7
  6
BYLAYER
 10
34.8569545038
 20
43.7762998496
 11
34.8569545038
 21
43.7834
  0
LINE
  5
23F
100
AcDbEntity
  8
0
100
AcDbLine
 62
7
  6
BYLAYER
 10
35.4456321559
 20
43.7834
 11
35.4456321559
 21
43.7762998496
  0
LINE
  5
240
100
AcDbEntity
  8
0
100
AcDbLine
 62
7
  6
BYLAYER
 10
35.4456321559
 20
40.9566783218
 11
35.4456321559
 21
40.4446215278
  0
LINE
  5
241
100
AcDbEntity
  8
0
100
AcDbLine
 62
7
  6
BYLAYER
 10
35.4456321559
 20
34.8053784722
 11
35.4456321559
 21
34.2933216782
  0
LINE
  5
242
100
AcDbEntity
  8
0
100
AcDbLine
 62
7
  6
BYLAYER
 10
35.4456321559
 20
31.4737001504
 11
35.4456321559
 21
31.4666
  0
LINE
  5
243
100
AcDbEntity
  8
0
100
AcDbLine
 62
7
  6
BYLAYER
 10
35.8401933299
 20
43.1
 11
35.8401933299
 21
32.15
  0
LINE
  5
244
100
AcDbEntity
  8
0
100
AcDbLine
 62
7
  6
BYLAYER
 10
37.1401933299
 20
32.15
 11
37.1401933299
 21
43.1
  0
LINE
  5
245
100
AcDbEntity
  8
0
100
AcDbLine
 62
7
  6
BYLAYER
 10
37.5347545038
 20
31.4666
 11
37.5347545038
 21
31.4737001504
  0
LINE
  5
246
100
AcDbEntity
  8
0
100
AcDbLine
 62
7
  6
BYLAYER
 10
37.5347545038
 20
34.2933216782
 11
37.5347545038
 21
34.8053784722
  0
LINE
  5
247
100
AcDbEntity
  8
0
100
AcDbLine
 62
7
  6
BYLAYER
 10
37.5347545038
 20
40.4446215278
 11
37.5347545038
 21
40.9566783218
  0
LINE
  5
248
100
AcDbEntity
  8
0
100
AcDbLine
 62
7
  6
BYLAYER
 10
37.5347545038
 20
43.7762998496
 11
37.5347545038
 21
43.7834
  0
LINE
  5
249
100
AcDbEntity
  8
0
100
AcDbLine
 62
7
  6
BYLAYER
 10
35.8401933299
 20
32.15
 11
35.4456321559
 21
31.4666
  0
LINE
  5
24A
100
AcDbEntity
  8
0
100
AcDbLine
 62
7
  6
BYLAYER
 10
35.4456321559
 20
43.7834
 11
35.8401933299
 21
43.1
  0
LINE
  5
24B
100
AcDbEntity
  8
0
100
AcDbLine
 62
7
  6
BYLAYER
 10
38.1234321559
 20
43.7834
 11
38.1234321559
 21
43.7762998496
  0
LINE
  5
24C
100
AcDbEntity
  8
0
100
AcDbLine
 62
7
  6
BYLAYER
 10
38.1234321559
 20
40.9566783218
 11
38.1234321559
 21
40.4446215278
  0
LINE
  5
24D
100
AcDbEntity
  8
0
100
AcDbLine
 62
7
  6
BYLAYER
 10
38.1234321559
 20
34.8053784722
 11
38.1234321559
 21
34.2933216782
  0
LINE
  5
24E
100
AcDbEntity
  8
0
100
AcDbLine
 62
7
  6
BYLAYER
 10
38.1234321559
 20
31.4737001504
 11
38.1234321559
 21
31.4666
  0
LINE
  5
24F
100
AcDbEntity
  8
0
100
AcDbLine
 62
7
  6
BYLAYER
 10
38.5179933299
 20
43.1
 11
38.5179933299
 21
32.15
  0
LINE
  5
250
100
AcDbEntity
  8
0
100
AcDbLine
 62
7
  6
BYLAYER
 10
38.5179933299
 20
32.15
 11
38.1234321559
 21
31.4666
  0
LINE
  5
251
100
AcDbEntity
  8
0
100
AcDbLine
 62
7
  6
BYLAYER
 10
38.1234321559
 20
43.7834
 11
38.5179933299
 21
43.1
  0
LINE
  5
252
100
AcDbEntity
  8
0
100
AcDbLine
 62
7
  6
BYLAYER
 10
48.3623933299
 20
33.625
 11
48.9623933299
 21
34.225
  0
LINE
  5
253
100
AcDbEntity
  8
0
100
AcDbLine
 62
7
  6
BYLAYER
 10
48.9623933299
 20
41.025
 11
48.3623933299
 21
41.625
  0
LINE
  5
254
100
AcDbEntity
  8
0
100
AcDbLine
 62
7
  6
BYLAYER
 10
48.3623933299
 20
41.625
 11
48.3623933299
 21
33.625
  0
LINE
  5
255
100
AcDbEntity
  8
0
100
AcDbLine
 62
7
  6
BYLAYER
 10
48.9623933299
 20
41.025
 11
48.9623933299
 21
34.225
  0
SPLINE
  5
256
100
AcDbEntity
  8
0
100
AcDbSpline
 62
7
  6
BYLAYER
 70
0
 71
3
 72
11
 73
7
 74
0
 42
0.0000001
 43
0.0000001
 44
0.0000000001
 40
0.0
 40
0.0
 40
0.0
 40
0.0
 40
0.2500037018
 40
0.5000032728
 40
0.7500026492
 40
1.0
 40
1.0
 40
1.0
 40
1.0
 10
37.5347545038
 20
34.8053784722
 30
0.0
 10
37.4739573796
 20
35.0353747144
 30
0.0
 10
37.3633051019
 20
35.4983733442
 30
0.0
 10
37.237338264
 20
36.2013057767
 30
0.0
 10
37.1581733203
 20
36.9111395451
 30
0.0
 10
37.1401933299
 20
37.387109928
 30
0.0
 10
37.1401933299
 20
37.625
 30
0.0
  0
SPLINE
  5
257
100
AcDbEntity
  8
0
100
AcDbSpline
 62
7
  6
BYLAYER
 70
0
 71
3
 72
11
 73
7
 74
0
 42
0.0000001
 43
0.0000001
 44
0.0000000001
 40
0.0
 40
0.0
 40
0.0
 40
0.0
 40
0.2499941267
 40
0.499989762
 40
0.7499912518
 40
1.0
 40
1.0
 40
1.0
 40
1.0
 10
38.5179933299
 20
37.625
 30
0.0
 10
38.5179933299
 20
37.3871129831
 30
0.0
 10
38.5000213258
 20
36.9111480596
 30
0.0
 10
38.4208217381
 20
36.2013241937
 30
0.0
 10
38.2949204484
 20
35.4983767313
 30
0.0
 10
38.1842305106
 20
35.0353793694
 30
0.0
 10
38.1234321559
 20
34.8053784722
 30
0.0
  0
SPLINE
  5
258
100
AcDbEntity
  8
0
100
AcDbSpline
 62
7
  6
BYLAYER
 70
0
 71
3
 72
12
 73
8
 74
0
 42
0.0000001
 43
0.0000001
 44
0.0000000001
 40
0.0
 40
0.0
 40
0.0
 40
0.0
 40
0.2599885023
 40
0.5122208865
 40
0.7579337738
 40
0.8792259754
 40
1.0
 40
1.0
 40
1.0
 40
1.0
 10
38.1234321559
 20
34.2933216782
 30
0.0
 10
38.1833070189
 20
34.1800680196
 30
0.0
 10
38.2926367988
 20
33.9521440375
 30
0.0
 10
38.4195002792
 20
33.6001035844
 30
0.0
 10
38.48658954
 20
33.3013700933
 30
0.0
 10
38.5134764796
 20
33.0623477574
 30
0.0
 10
38.5179933299
 20
32.9430212068
 30
0.0
 10
38.5179933299
 20
32.8835109143
 30
0.0
  0
SPLINE
  5
259
100
AcDbEntity
  8
0
100
AcDbSpline
 62
7
  6
BYLAYER
 70
0
 71
3
 72
13
 73
9
 74
0
 42
0.0000001
 43
0.0000001
 44
0.0000000001
 40
0.0
 40
0.0
 40
0.0
 40
0.0
 40
0.1207600106
 40
0.2420297294
 40
0.3642612925
 40
0.4878451936
 40
0.740039194
 40
1.0
 40
1.0
 40
1.0
 40
1.0
 10
38.5179933299
 20
42.3664890857
 30
0.0
 10
38.5179933299
 20
42.3069773565
 30
0.0
 10
38.5134986558
 20
42.187654576
 30
0.0
 10
38.4933810772
 20
42.0091198614
 30
0.0
 10
38.4602246544
 20
41.8311259379
 30
0.0
 10
38.3990489133
 20
41.5932854732
 30
0.0
 10
38.2926716046
 20
41.2978134099
 30
0.0
 10
38.1833090337
 20
41.0699357914
 30
0.0
 10
38.1234321559
 20
40.9566783218
 30
0.0
  0
SPLINE
  5
25A
100
AcDbEntity
  8
0
100
AcDbSpline
 62
7
  6
BYLAYER
 70
0
 71
3
 72
11
 73
7
 74
0
 42
0.0000001
 43
0.0000001
 44
0.0000000001
 40
0.0
 40
0.0
 40
0.0
 40
0.0
 40
0.2500037018
 40
0.5000032728
 40
0.7500026492
 40
1.0
 40
1.0
 40
1.0
 40
1.0
 10
38.1234321559
 20
40.4446215278
 30
0.0
 10
38.1842292801
 20
40.2146252856
 30
0.0
 10
38.2948815578
 20
39.7516266558
 30
0.0
 10
38.4208483957
 20
39.0486942233
 30
0.0
 10
38.5000133394
 20
38.3388604549
 30
0.0
 10
38.5179933299
 20
37.862890072
 30
0.0
 10
38.5179933299
 20
37.625
 30
0.0
  0
SPLINE
  5
25B
100
AcDbEntity
  8
0
100
AcDbSpline
 62
7
  6
BYLAYER
 70
0
 71
3
 72
12
 73
8
 74
0
 42
0.0000001
 43
0.0000001
 44
0.0000000001
 40
0.0
 40
0.0
 40
0.0
 40
0.0
 40
0.2599885023
 40
0.5122208865
 40
0.7579337738
 40
0.8792259754
 40
1.0
 40
1.0
 40
1.0
 40
1.0
 10
38.1234321559
 20
43.7762998496
 30
0.0
 10
38.1833070189
 20
43.663046191
 30
0.0
 10
38.2926367988
 20
43.4351222089
 30
0.0
 10
38.4195002792
 20
43.0830817558
 30
0.0
 10
38.48658954
 20
42.7843482648
 30
0.0
 10
38.5134764796
 20
42.5453259288
 30
0.0
 10
38.5179933299
 20
42.4259993782
 30
0.0
 10
38.5179933299
 20
42.3664890857
 30
0.0
  0
SPLINE
  5
25C
100
AcDbEntity
  8
0
100
AcDbSpline
 62
7
  6
BYLAYER
 70
0
 71
3
 72
12
 73
8
 74
0
 42
0.0000001
 43
0.0000001
 44
0.0000000001
 40
0.0
 40
0.0
 40
0.0
 40
0.0
 40
0.2599885023
 40
0.5122208865
 40
0.7579337738
 40
0.8792259754
 40
1.0
 40
1.0
 40
1.0
 40
1.0
 10
37.5347545038
 20
40.9566783218
 30
0.0
 10
37.4748796408
 20
41.0699319804
 30
0.0
 10
37.3655498609
 20
41.2978559625
 30
0.0
 10
37.2386863805
 20
41.6498964156
 30
0.0
 10
37.1715971197
 20
41.9486299067
 30
0.0
 10
37.1447101801
 20
42.1876522426
 30
0.0
 10
37.1401933299
 20
42.3069787932
 30
0.0
 10
37.1401933299
 20
42.3664890857
 30
0.0
  0
SPLINE
  5
25D
100
AcDbEntity
  8
0
100
AcDbSpline
 62
7
  6
BYLAYER
 70
0
 71
3
 72
13
 73
9
 74
0
 42
0.0000001
 43
0.0000001
 44
0.0000000001
 40
0.0
 40
0.0
 40
0.0
 40
0.0
 40
0.1207600106
 40
0.2420297294
 40
0.3642612925
 40
0.4878451936
 40
0.740039194
 40
1.0
 40
1.0
 40
1.0
 40
1.0
 10
37.1401933299
 20
42.3664890857
 30
0.0
 10
37.1401933299
 20
42.4260008149
 30
0.0
 10
37.1446880039
 20
42.5453235954
 30
0.0
 10
37.1648055825
 20
42.72385831
 30
0.0
 10
37.1979620053
 20
42.9018522335
 30
0.0
 10
37.2591377464
 20
43.1396926982
 30
0.0
 10
37.3655150551
 20
43.4351647615
 30
0.0
 10
37.474877626
 20
43.6630423801
 30
0.0
 10
37.5347545038
 20
43.7762998496
 30
0.0
  0
SPLINE
  5
25E
100
AcDbEntity
  8
0
100
AcDbSpline
 62
7
  6
BYLAYER
 70
0
 71
3
 72
11
 73
7
 74
0
 42
0.0000001
 43
0.0000001
 44
0.0000000001
 40
0.0
 40
0.0
 40
0.0
 40
0.0
 40
0.2499941267
 40
0.499989762
 40
0.7499912518
 40
1.0
 40
1.0
 40
1.0
 40
1.0
 10
37.1401933299
 20
37.625
 30
0.0
 10
37.1401933299
 20
37.8628870169
 30
0.0
 10
37.1581653339
 20
38.3388519404
 30
0.0
 10
37.2373649216
 20
39.0486758063
 30
0.0
 10
37.3632662113
 20
39.7516232687
 30
0.0
 10
37.4739561491
 20
40.2146206306
 30
0.0
 10
37.5347545038
 20
40.4446215278
 30
0.0
  0
SPLINE
  5
25F
100
AcDbEntity
  8
0
100
AcDbSpline
 62
7
  6
BYLAYER
 70
0
 71
3
 72
13
 73
9
 74
0
 42
0.0000001
 43
0.0000001
 44
0.0000000001
 40
0.0
 40
0.0
 40
0.0
 40
0.0
 40
0.1207600106
 40
0.2420297294
 40
0.3642612925
 40
0.4878451936
 40
0.740039194
 40
1.0
 40
1.0
 40
1.0
 40
1.0
 10
38.5179933299
 20
32.8835109143
 30
0.0
 10
38.5179933299
 20
32.8239991851
 30
0.0
 10
38.5134986558
 20
32.7046764046
 30
0.0
 10
38.4933810772
 20
32.52614169
 30
0.0
 10
38.4602246544
 20
32.3481477665
 30
0.0
 10
38.3990489133
 20
32.1103073018
 30
0.0
 10
38.2926716046
 20
31.8148352385
 30
0.0
 10
38.1833090337
 20
31.5869576199
 30
0.0
 10
38.1234321559
 20
31.4737001504
 30
0.0
  0
SPLINE
  5
260
100
AcDbEntity
  8
0
100
AcDbSpline
 62
7
  6
BYLAYER
 70
0
 71
3
 72
12
 73
8
 74
0
 42
0.0000001
 43
0.0000001
 44
0.0000000001
 40
0.0
 40
0.0
 40
0.0
 40
0.0
 40
0.2599885023
 40
0.5122208865
 40
0.7579337738
 40
0.8792259754
 40
1.0
 40
1.0
 40
1.0
 40
1.0
 10
37.5347545038
 20
31.4737001504
 30
0.0
 10
37.4748796408
 20
31.586953809
 30
0.0
 10
37.3655498609
 20
31.8148777911
 30
0.0
 10
37.2386863805
 20
32.1669182442
 30
0.0
 10
37.1715971197
 20
32.4656517352
 30
0.0
 10
37.1447101801
 20
32.7046740712
 30
0.0
 10
37.1401933299
 20
32.8240006218
 30
0.0
 10
37.1401933299
 20
32.8835109143
 30
0.0
  0
SPLINE
  5
261
100
AcDbEntity
  8
0
100
AcDbSpline
 62
7
  6
BYLAYER
 70
0
 71
3
 72
13
 73
9
 74
0
 42
0.0000001
 43
0.0000001
 44
0.0000000001
 40
0.0
 40
0.0
 40
0.0
 40
0.0
 40
0.1207600106
 40
0.2420297294
 40
0.3642612925
 40
0.4878451936
 40
0.740039194
 40
1.0
 40
1.0
 40
1.0
 40
1.0
 10
37.1401933299
 20
32.8835109143
 30
0.0
 10
37.1401933299
 20
32.9430226435
 30
0.0
 10
37.1446880039
 20
33.062345424
 30
0.0
 10
37.1648055825
 20
33.2408801386
 30
0.0
 10
37.1979620053
 20
33.4188740621
 30
0.0
 10
37.2591377464
 20
33.6567145268
 30
0.0
 10
37.3655150551
 20
33.9521865901
 30
0.0
 10
37.474877626
 20
34.1800642086
 30
0.0
 10
37.5347545038
 20
34.2933216782
 30
0.0
  0
SPLINE
  5
262
100
AcDbEntity
  8
0
100
AcDbSpline
 62
7
  6
BYLAYER
 70
0
 71
3
 72
11
 73
7
 74
0
 42
0.0000001
 43
0.0000001
 44
0.0000000001
 40
0.0
 40
0.0
 40
0.0
 40
0.0
 40
0.2500037018
 40
0.5000032728
 40
0.7500026492
 40
1.0
 40
1.0
 40
1.0
 40
1.0
 10
34.8569545038
 20
34.8053784722
 30
0.0
 10
34.7961573796
 20
35.0353747144
 30
0.0
 10
34.6855051019
 20
35.4983733442
 30
0.0
 10
34.559538264
 20
36.2013057767
 30
0.0
 10
34.4803733203
 20
36.9111395451
 30
0.0
 10
34.4623933299
 20
37.387109928
 30
0.0
 10
34.4623933299
 20
37.625
 30
0.0
  0
SPLINE
  5
263
100
AcDbEntity
  8
0
100
AcDbSpline
 62
7
  6
BYLAYER
 70
0
 71
3
 72
11
 73
7
 74
0
 42
0.0000001
 43
0.0000001
 44
0.0000000001
 40
0.0
 40
0.0
 40
0.0
 40
0.0
 40
0.2499941267
 40
0.499989762
 40
0.7499912518
 40
1.0
 40
1.0
 40
1.0
 40
1.0
 10
35.8401933299
 20
37.625
 30
0.0
 10
35.8401933299
 20
37.3871129831
 30
0.0
 10
35.8222213258
 20
36.9111480596
 30
0.0
 10
35.7430217381
 20
36.2013241937
 30
0.0
 10
35.6171204484
 20
35.4983767313
 30
0.0
 10
35.5064305106
 20
35.0353793694
 30
0.0
 10
35.4456321559
 20
34.8053784722
 30
0.0
  0
SPLINE
  5
264
100
AcDbEntity
  8
0
100
AcDbSpline
 62
7
  6
BYLAYER
 70
0
 71
3
 72
12
 73
8
 74
0
 42
0.0000001
 43
0.0000001
 44
0.0000000001
 40
0.0
 40
0.0
 40
0.0
 40
0.0
 40
0.2599885023
 40
0.5122208865
 40
0.7579337738
 40
0.8792259754
 40
1.0
 40
1.0
 40
1.0
 40
1.0
 10
35.4456321559
 20
34.2933216782
 30
0.0
 10
35.5055070189
 20
34.1800680196
 30
0.0
 10
35.6148367988
 20
33.9521440375
 30
0.0
 10
35.7417002792
 20
33.6001035844
 30
0.0
 10
35.80878954
 20
33.3013700933
 30
0.0
 10
35.8356764796
 20
33.0623477574
 30
0.0
 10
35.8401933299
 20
32.9430212068
 30
0.0
 10
35.8401933299
 20
32.8835109143
 30
0.0
  0
SPLINE
  5
265
100
AcDbEntity
  8
0
100
AcDbSpline
 62
7
  6
BYLAYER
 70
0
 71
3
 72
13
 73
9
 74
0
 42
0.0000001
 43
0.0000001
 44
0.0000000001
 40
0.0
 40
0.0
 40
0.0
 40
0.0
 40
0.1207600106
 40
0.2420297294
 40
0.3642612925
 40
0.4878451936
 40
0.740039194
 40
1.0
 40
1.0
 40
1.0
 40
1.0
 10
35.8401933299
 20
42.3664890857
 30
0.0
 10
35.8401933299
 20
42.3069773565
 30
0.0
 10
35.8356986558
 20
42.187654576
 30
0.0
 10
35.8155810772
 20
42.0091198614
 30
0.0
 10
35.7824246544
 20
41.8311259379
 30
0.0
 10
35.7212489133
 20
41.5932854732
 30
0.0
 10
35.6148716046
 20
41.2978134099
 30
0.0
 10
35.5055090337
 20
41.0699357914
 30
0.0
 10
35.4456321559
 20
40.9566783218
 30
0.0
  0
SPLINE
  5
266
100
AcDbEntity
  8
0
100
AcDbSpline
 62
7
  6
BYLAYER
 70
0
 71
3
 72
11
 73
7
 74
0
 42
0.0000001
 43
0.0000001
 44
0.0000000001
 40
0.0
 40
0.0
 40
0.0
 40
0.0
 40
0.2500037018
 40
0.5000032728
 40
0.7500026492
 40
1.0
 40
1.0
 40
1.0
 40
1.0
 10
35.4456321559
 20
40.4446215278
 30
0.0
 10
35.5064292801
 20
40.2146252856
 30
0.0
 10
35.6170815578
 20
39.7516266558
 30
0.0
 10
35.7430483957
 20
39.0486942233
 30
0.0
 10
35.8222133394
 20
38.3388604549
 30
0.0
 10
35.8401933299
 20
37.862890072
 30
0.0
 10
35.8401933299
 20
37.625
 30
0.0
  0
SPLINE
  5
267
100
AcDbEntity
  8
0
100
AcDbSpline
 62
7
  6
BYLAYER
 70
0
 71
3
 72
12
 73
8
 74
0
 42
0.0000001
 43
0.0000001
 44
0.0000000001
 40
0.0
 40
0.0
 40
0.0
 40
0.0
 40
0.2599885023
 40
0.5122208865
 40
0.7579337738
 40
0.8792259754
 40
1.0
 40
1.0
 40
1.0
 40
1.0
 10
35.4456321559
 20
43.7762998496
 30
0.0
 10
35.5055070189
 20
43.663046191
 30
0.0
 10
35.6148367988
 20
43.4351222089
 30
0.0
 10
35.7417002792
 20
43.0830817558
 30
0.0
 10
35.80878954
 20
42.7843482648
 30
0.0
 10
35.8356764796
 20
42.5453259288
 30
0.0
 10
35.8401933299
 20
42.4259993782
 30
0.0
 10
35.8401933299
 20
42.3664890857
 30
0.0
  0
SPLINE
  5
268
100
AcDbEntity
  8
0
100
AcDbSpline
 62
7
  6
BYLAYER
 70
0
 71
3
 72
12
 73
8
 74
0
 42
0.0000001
 43
0.0000001
 44
0.0000000001
 40
0.0
 40
0.0
 40
0.0
 40
0.0
 40
0.2599885023
 40
0.5122208865
 40
0.7579337738
 40
0.8792259754
 40
1.0
 40
1.0
 40
1.0
 40
1.0
 10
34.8569545038
 20
40.9566783218
 30
0.0
 10
34.7970796408
 20
41.0699319804
 30
0.0
 10
34.6877498609
 20
41.2978559625
 30
0.0
 10
34.5608863805
 20
41.6498964156
 30
0.0
 10
34.4937971197
 20
41.9486299067
 30
0.0
 10
34.4669101801
 20
42.1876522426
 30
0.0
 10
34.4623933299
 20
42.3069787932
 30
0.0
 10
34.4623933299
 20
42.3664890857
 30
0.0
  0
SPLINE
  5
269
100
AcDbEntity
  8
0
100
AcDbSpline
 62
7
  6
BYLAYER
 70
0
 71
3
 72
13
 73
9
 74
0
 42
0.0000001
 43
0.0000001
 44
0.0000000001
 40
0.0
 40
0.0
 40
0.0
 40
0.0
 40
0.1207600106
 40
0.2420297294
 40
0.3642612925
 40
0.4878451936
 40
0.740039194
 40
1.0
 40
1.0
 40
1.0
 40
1.0
 10
34.4623933299
 20
42.3664890857
 30
0.0
 10
34.4623933299
 20
42.4260008149
 30
0.0
 10
34.4668880039
 20
42.5453235954
 30
0.0
 10
34.4870055825
 20
42.72385831
 30
0.0
 10
34.5201620053
 20
42.9018522335
 30
0.0
 10
34.5813377464
 20
43.1396926982
 30
0.0
 10
34.6877150551
 20
43.4351647615
 30
0.0
 10
34.797077626
 20
43.6630423801
 30
0.0
 10
34.8569545038
 20
43.7762998496
 30
0.0
  0
SPLINE
  5
26A
100
AcDbEntity
  8
0
100
AcDbSpline
 62
7
  6
BYLAYER
 70
0
 71
3
 72
11
 73
7
 74
0
 42
0.0000001
 43
0.0000001
 44
0.0000000001
 40
0.0
 40
0.0
 40
0.0
 40
0.0
 40
0.2499941267
 40
0.499989762
 40
0.7499912518
 40
1.0
 40
1.0
 40
1.0
 40
1.0
 10
34.4623933299
 20
37.625
 30
0.0
 10
34.4623933299
 20
37.8628870169
 30
0.0
 10
34.4803653339
 20
38.3388519404
 30
0.0
 10
34.5595649216
 20
39.0486758063
 30
0.0
 10
34.6854662113
 20
39.7516232687
 30
0.0
 10
34.7961561491
 20
40.2146206306
 30
0.0
 10
34.8569545038
 20
40.4446215278
 30
0.0
  0
SPLINE
  5
26B
100
AcDbEntity
  8
0
100
AcDbSpline
 62
7
  6
BYLAYER
 70
0
 71
3
 72
13
 73
9
 74
0
 42
0.0000001
 43
0.0000001
 44
0.0000000001
 40
0.0
 40
0.0
 40
0.0
 40
0.0
 40
0.1207600106
 40
0.2420297294
 40
0.3642612925
 40
0.4878451936
 40
0.740039194
 40
1.0
 40
1.0
 40
1.0
 40
1.0
 10
35.8401933299
 20
32.8835109143
 30
0.0
 10
35.8401933299
 20
32.8239991851
 30
0.0
 10
35.8356986558
 20
32.7046764046
 30
0.0
 10
35.8155810772
 20
32.52614169
 30
0.0
 10
35.7824246544
 20
32.3481477665
 30
0.0
 10
35.7212489133
 20
32.1103073018
 30
0.0
 10
35.6148716046
 20
31.8148352385
 30
0.0
 10
35.5055090337
 20
31.5869576199
 30
0.0
 10
35.4456321559
 20
31.4737001504
 30
0.0
  0
SPLINE
  5
26C
100
AcDbEntity
  8
0
100
AcDbSpline
 62
7
  6
BYLAYER
 70
0
 71
3
 72
12
 73
8
 74
0
 42
0.0000001
 43
0.0000001
 44
0.0000000001
 40
0.0
 40
0.0
 40
0.0
 40
0.0
 40
0.2599885023
 40
0.5122208865
 40
0.7579337738
 40
0.8792259754
 40
1.0
 40
1.0
 40
1.0
 40
1.0
 10
34.8569545038
 20
31.4737001504
 30
0.0
 10
34.7970796408
 20
31.586953809
 30
0.0
 10
34.6877498609
 20
31.8148777911
 30
0.0
 10
34.5608863805
 20
32.1669182442
 30
0.0
 10
34.4937971197
 20
32.4656517352
 30
0.0
 10
34.4669101801
 20
32.7046740712
 30
0.0
 10
34.4623933299
 20
32.8240006218
 30
0.0
 10
34.4623933299
 20
32.8835109143
 30
0.0
  0
SPLINE
  5
26D
100
AcDbEntity
  8
0
100
AcDbSpline
 62
7
  6
BYLAYER
 70
0
 71
3
 72
13
 73
9
 74
0
 42
0.0000001
 43
0.0000001
 44
0.0000000001
 40
0.0
 40
0.0
 40
0.0
 40
0.0
 40
0.1207600106
 40
0.2420297294
 40
0.3642612925
 40
0.4878451936
 40
0.740039194
 40
1.0
 40
1.0
 40
1.0
 40
1.0
 10
34.4623933299
 20
32.8835109143
 30
0.0
 10
34.4623933299
 20
32.9430226435
 30
0.0
 10
34.4668880039
 20
33.062345424
 30
0.0
 10
34.4870055825
 20
33.2408801386
 30
0.0
 10
34.5201620053
 20
33.4188740621
 30
0.0
 10
34.5813377464
 20
33.6567145268
 30
0.0
 10
34.6877150551
 20
33.9521865901
 30
0.0
 10
34.797077626
 20
34.1800642086
 30
0.0
 10
34.8569545038
 20
34.2933216782
 30
0.0
  0
SPLINE
  5
26E
100
AcDbEntity
  8
0
100
AcDbSpline
 62
7
  6
BYLAYER
 70
0
 71
3
 72
14
 73
10
 74
0
 42
0.0000001
 43
0.0000001
 44
0.0000000001
 40
0.0
 40
0.0
 40
0.0
 40
0.0
 40
0.2743998991
 40
0.408870473
 40
0.53985073
 40
0.6660083999
 40
0.7857523412
 40
0.8975688035
 40
1.0
 40
1.0
 40
1.0
 40
1.0
 10
6.3720722575
 20
37.6250101507
 30
0.0
 10
6.3242242705
 20
37.4984240081
 30
0.0
 10
6.2511789481
 20
37.3104696334
 30
0.0
 10
6.1581966596
 20
37.060984026
 30
0.0
 10
6.0947036527
 20
36.8785589414
 30
0.0
 10
6.0400200738
 20
36.7008585824
 30
0.0
 10
5.9971811071
 20
36.5295851593
 30
0.0
 10
5.969648078
 20
36.367000395
 30
0.0
 10
5.9623933299
 20
36.2613029958
 30
0.0
 10
5.9623933299
 20
36.2107864376
 30
0.0
  0
SPLINE
  5
26F
100
AcDbEntity
  8
0
100
AcDbSpline
 62
7
  6
BYLAYER
 70
0
 71
3
 72
15
 73
11
 74
0
 42
0.0000001
 43
0.0000001
 44
0.0000000001
 40
0.0
 40
0.0
 40
0.0
 40
0.0
 40
0.1729829204
 40
0.3281496667
 40
0.4669186019
 40
0.591885597
 40
0.7054837001
 40
0.8100224045
 40
0.9074785676
 40
1.0
 40
1.0
 40
1.0
 40
1.0
 10
5.9623933299
 20
36.2107864376
 30
0.0
 10
5.9623933299
 20
36.1651776487
 30
0.0
 10
5.9678058466
 20
36.0784977078
 30
0.0
 10
5.9939688331
 20
35.9576492514
 30
0.0
 10
6.0361231497
 20
35.8548934105
 30
0.0
 10
6.0906872073
 20
35.770965945
 30
0.0
 10
6.1544674285
 20
35.7059300436
 30
0.0
 10
6.2243258864
 20
35.659555222
 30
0.0
 10
6.2974113228
 20
35.6314904715
 30
0.0
 10
6.3476824026
 20
35.625
 30
0.0
 10
6.3720766634
 20
35.625
 30
0.0
  0
SPLINE
  5
270
100
AcDbEntity
  8
0
100
AcDbSpline
 62
7
  6
BYLAYER
 70
0
 71
3
 72
20
 73
16
 74
0
 42
0.0000001
 43
0.0000001
 44
0.0000000001
 40
0.0
 40
0.0
 40
0.0
 40
0.0
 40
0.0512133468
 40
0.1070186609
 40
0.16675727
 40
0.2297282489
 40
0.3624705276
 40
0.4998106725
 40
0.6370906824
 40
0.7043483883
 40
0.7698529426
 40
0.8329427646
 40
0.8928261402
 40
0.9487531043
 40
1.0
 40
1.0
 40
1.0
 40
1.0
 10
6.7263253524
 20
36.2107864376
 30
0.0
 10
6.7263253524
 20
36.2610531447
 30
0.0
 10
6.7210613443
 20
36.3661196503
 30
0.0
 10
6.7003523288
 20
36.5285984584
 30
0.0
 10
6.6671605024
 20
36.700742882
 30
0.0
 10
6.607129095
 20
36.9442676896
 30
0.0
 10
6.5090264054
 20
37.2563925298
 30
0.0
 10
6.370841327
 20
37.6316274292
 30
0.0
 10
6.2493075345
 20
37.9444076786
 30
0.0
 10
6.1568264426
 20
38.1928105032
 30
0.0
 10
6.0937298788
 20
38.3744208516
 30
0.0
 10
6.0394199793
 20
38.5513206384
 30
0.0
 10
5.9968993374
 20
38.7218230032
 30
0.0
 10
5.9695863011
 20
38.8836856156
 30
0.0
 10
5.9623933299
 20
38.9889139265
 30
0.0
 10
5.9623933299
 20
39.0392135624
 30
0.0
  0
SPLINE
  5
271
100
AcDbEntity
  8
0
100
AcDbSpline
 62
7
  6
BYLAYER
 70
0
 71
3
 72
15
 73
11
 74
0
 42
0.0000001
 43
0.0000001
 44
0.0000000001
 40
0.0
 40
0.0
 40
0.0
 40
0.0
 40
0.1729829204
 40
0.3281496667
 40
0.4669186019
 40
0.591885597
 40
0.7054837001
 40
0.8100224045
 40
0.9074785676
 40
1.0
 40
1.0
 40
1.0
 40
1.0
 10
5.9623933299
 20
39.0392135624
 30
0.0
 10
5.9623933299
 20
39.0848223513
 30
0.0
 10
5.9678058466
 20
39.1715022922
 30
0.0
 10
5.9939688331
 20
39.2923507486
 30
0.0
 10
6.0361231497
 20
39.3951065895
 30
0.0
 10
6.0906872073
 20
39.479034055
 30
0.0
 10
6.1544674285
 20
39.5440699564
 30
0.0
 10
6.2243258864
 20
39.590444778
 30
0.0
 10
6.2974113228
 20
39.6185095285
 30
0.0
 10
6.3476824026
 20
39.625
 30
0.0
 10
6.3720766634
 20
39.625
 30
0.0
  0
SPLINE
  5
272
100
AcDbEntity
  8
0
100
AcDbSpline
 62
7
  6
BYLAYER
 70
0
 71
3
 72
15
 73
11
 74
0
 42
0.0000001
 43
0.0000001
 44
0.0000000001
 40
0.0
 40
0.0
 40
0.0
 40
0.0
 40
0.0933148706
 40
0.1880578059
 40
0.2882182868
 40
0.3980889755
 40
0.5216867114
 40
0.6621027444
 40
0.8214187673
 40
1.0
 40
1.0
 40
1.0
 40
1.0
 10
6.3720766634
 20
35.625
 30
0.0
 10
6.3957099051
 20
35.625
 30
0.0
 10
6.4435842782
 20
35.6310214917
 30
0.0
 10
6.5118682054
 20
35.6590552518
 30
0.0
 10
6.5739575475
 20
35.7062842577
 30
0.0
 10
6.6276389795
 20
35.772444446
 30
0.0
 10
6.6711040084
 20
35.8572053604
 30
0.0
 10
6.7031478395
 20
35.9599747186
 30
0.0
 10
6.7224461805
 20
36.0798921823
 30
0.0
 10
6.7263253524
 20
36.1655583469
 30
0.0
 10
6.7263253524
 20
36.2107864376
 30
0.0
  0
ENDSEC
  0
SECTION
  2
OBJECTS
  0
DICTIONARY
  5
C
100
AcDbDictionary
280
0
281
1
  3
ACAD_GROUP
350
D
  3
ACAD_MLINESTYLE
350
17
  3
ACAD_LAYOUT
350
1A
  3
ACAD_PLOTSETTINGS
350
19
  3
ACAD_PLOTSTYLENAME
350
E
  0
DICTIONARY
  5
D
102
{ACAD_REACTORS
330
C
102
}
100
AcDbDictionary
280
0
281
1
  0
ACDBDICTIONARYWDFLT
  5
E
102
{ACAD_REACTORS
330
C
102
}
100
AcDbDictionary
281
1
  3
Normal
350
F
100
AcDbDictionaryWithDefault
340
F
  0
DICTIONARY
  5
17
102
{ACAD_REACTORS
330
C
102
}
100
AcDbDictionary
280
0
281
1
  3
Standard
350
18
  0
DICTIONARY
  5
19
102
{ACAD_REACTORS
330
C
102
}
100
AcDbDictionary
281
1
  0
DICTIONARY
  5
1A
102
{ACAD_REACTORS
330
C
102
}
100
AcDbDictionary
281
1
  3
Model
350
273
  3
Layout1
350
274
  0
ACDBPLACEHOLDER
  5
F
102
{ACAD_REACTORS
330
E
102
}
  0
MLINESTYLE
  5
18
102
{ACAD_REACTORS
330
17
102
}
100
AcDbMlineStyle
  2
STANDARD
 70
0
  3

 62
256
 51
90.0
 52
90.0
 71
2
 49
0.5
 62
256
  6
BYLAYER
 49
-0.5
 62
256
  6
BYLAYER
  0
LAYOUT
  5
273
102
{ACAD_REACTORS
330
1A
102
}
100
AcDbPlotSettings
  1

  2
none_device
  4

  6

 40
0.0
 41
0.0
 42
0.0
 43
0.0
 44
210.0
 45
297.0
 46
0.0
 47
0.0
 48
0.0
 49
0.0
140
0.0
141
0.0
142
1.0
143
1.0
 70
1024
 72
1
 73
0
 74
0
  7

 75
0
147
1.0
148
0.0
149
0.0
100
AcDbLayout
  1
Model
 70
0
 71
0
 10
0.0
 20
0.0
 11
210.0
 21
297.0
 12
0.0
 22
0.0
 32
0.0
 14
0.0
 24
0.0
 34
0.0
 15
0.0
 25
0.0
 35
0.0
146
0.0
 13
0.0
 23
0.0
 33
0.0
 16
1.0
 26
0.0
 36
0.0
 17
0.0
 27
1.0
 37
0.0
 76
0
330
210
345
0
346
0
  0
LAYOUT
  5
274
102
{ACAD_REACTORS
330
1A
102
}
100
AcDbPlotSettings
  1

  2
none_device
  4

  6

 40
0.0
 41
0.0
 42
0.0
 43
0.0
 44
210.0
 45
297.0
 46
0.0
 47
0.0
 48
0.0
 49
0.0
140
0.0
141
0.0
142
1.0
143
1.0
 70
0
 72
1
 73
0
 74
0
  7

 75
0
147
1.0
148
0.0
149
0.0
100
AcDbLayout
  1
Layout1
 70
0
 71
1
 10
0.0
 20
0.0
 11
210.0
 21
297.0
 12
0.0
 22
0.0
 32
0.0
 14
0.0
 24
0.0
 34
0.0
 15
0.0
 25
0.0
 35
0.0
146
0.0
 13
0.0
 23
0.0
 33
0.0
 16
1.0
 26
0.0
 36
0.0
 17
0.0
 27
1.0
 37
0.0
 76
0
330
211
345
0
346
0
  0
ENDSEC
  0
EOF
