999
DXF file: C:\Users\sesa63760\Dev\_Creo\CAD\MCADID0003884_3D-CAD\drw0001_6.dxf
999
Pro/ENGINEER 2019471 by Parametric Technology Corporation
  0
SECTION
  2
HEADER
  9
$ACADVER
  1
AC1024
  9
$DWGCODEPAGE
  3
ANSI_1252
  9
$EXTMAX
 10
53.2170501514
 20
75.2641137856
 30
0.0
  9
$EXTMIN
 10
0.0
 20
0.0
 30
0.0
  9
$LIMMIN
 10
0.0
 20
0.0
  9
$LIMMAX
 10
53.2170501514
 20
75.2641137856
  9
$VIEWCTR
 10
26.6085250757
 20
37.6320568928
  9
$VIEWSIZE
 40
75.2641137856
  9
$CLAYER
  8
0
  9
$LTSCALE
 40
4.9061051949
  9
$CELTYPE
  6
BYLAYER
  9
$DIMSCALE
 40
1.0
  9
$DIMASZ
 40
0.6335363113
  9
$DIMEXO
 40
1.0
  9
$DIMDLI
 40
3.3896726801
  9
$DIMEXE
 40
1.0
  9
$DIMCEN
 40
0.8028172137
  9
$DIMLFAC
 40
1.0
  9
$DIMBLK
  1
_FILLED
  9
$DIMALT
 70
0
  9
$DIMALTF
 40
0.0393700787
  9
$DIMTXT
 40
0.8869508359
  9
$DIMTOL
 70
1
  9
$DIMLIM
 70
0
  9
$DIMTFAC
 40
1.0
  9
$DIMTP
 40
0.01
  9
$DIMTM
 40
0.01
  9
$DIMGAP
 40
0.625
  9
$DIMDSEP
 70
46
  9
$AUNITS
 70
0
  9
$PDMODE
 70
3
  9
$PDSIZE
 40
0.3125
  9
$HANDSEED
  5
28B
  9
$TILEMODE
 70
1
  9
$MEASUREMENT
 70
1
  9
$INSUNITS
 70
4
  0
ENDSEC
  0
SECTION
  2
CLASSES
  0
CLASS
  1
ACDBDICTIONARYWDFLT
  2
AcDbDictionaryWithDefault
  3
AutoCAD 2000
 90
0
 91
1
280
0
281
0
  0
CLASS
  1
ACDBPLACEHOLDER
  2
AcDbPlaceHolder
  3
AutoCAD 2000
 90
0
 91
1
280
0
281
0
  0
CLASS
  1
LAYOUT
  2
AcDbLayout
  3
AutoCAD 2000
 90
0
 91
0
280
0
281
0
  0
ENDSEC
  0
SECTION
  2
TABLES
  0
TABLE
  2
VPORT
  5
8
100
AcDbSymbolTable
 70
2
  0
VPORT
  5
1F4
100
AcDbSymbolTableRecord
100
AcDbViewportTableRecord
  2
*ACTIVE
 70
0
 10
0.0
 20
0.0
 11
1.0
 21
1.0
 12
26.6085250757
 22
37.6320568928
 13
0.0
 23
0.0
 14
1.0
 24
1.0
 15
0.0
 25
0.0
 16
0.0
 26
0.0
 36
1.0
 17
0.0
 27
0.0
 37
0.0
 40
75.2641137856
 41
0.7070707071
 42
50.0
 43
0.0
 44
0.0
 50
0.0
 51
0.0
 71
0
 72
100
 73
1
 74
1
 75
0
 76
0
 77
0
 78
0
  0
ENDTAB
  0
TABLE
  2
LTYPE
  5
5
100
AcDbSymbolTable
 70
6
  0
LTYPE
  5
14
100
AcDbSymbolTableRecord
100
AcDbLinetypeTableRecord
  2
BYBLOCK
 70
0
  3

 72
65
 73
0
 40
0.0
  0
LTYPE
  5
15
100
AcDbSymbolTableRecord
100
AcDbLinetypeTableRecord
  2
BYLAYER
 70
0
  3

 72
65
 73
0
 40
0.0
  0
LTYPE
  5
16
100
AcDbSymbolTableRecord
100
AcDbLinetypeTableRecord
  2
CONTINUOUS
 70
64
  3
Solid line
 72
65
 73
0
 40
0.0
  0
LTYPE
  5
1F5
100
AcDbSymbolTableRecord
100
AcDbLinetypeTableRecord
  2
CENTER
 70
64
  3
____ _ ____ _ ____ _ ____ _ ____ _ ____ _ ____
 72
65
 73
4
 40
0.6
 49
0.375
 74
0
 49
-0.075
 74
0
 49
0.075
 74
0
 49
-0.075
 74
0
  0
LTYPE
  5
1F6
100
AcDbSymbolTableRecord
100
AcDbLinetypeTableRecord
  2
HIDDEN
 70
64
  3
- - - - - - - - - - - - - - - - - - - -
 72
65
 73
2
 40
0.2
 49
0.1
 74
0
 49
-0.1
 74
0
  0
LTYPE
  5
1F7
100
AcDbSymbolTableRecord
100
AcDbLinetypeTableRecord
  2
PHANTOM
 70
64
  3
_____ _ _ _____ _ _ _____ _ _ _____
 72
65
 73
6
 40
0.8
 49
0.45
 74
0
 49
-0.05
 74
0
 49
0.1
 74
0
 49
-0.05
 74
0
 49
0.1
 74
0
 49
-0.05
 74
0
  0
LTYPE
  5
1F8
100
AcDbSymbolTableRecord
100
AcDbLinetypeTableRecord
  2
DOT
 70
64
  3
. . . . . . . . . . . . . . . . . . . .
 72
65
 73
2
 40
0.2
 49
0.1
 74
0
 49
-0.1
 74
0
  0
LTYPE
  5
1F9
100
AcDbSymbolTableRecord
100
AcDbLinetypeTableRecord
  2
DASHED
 70
64
  3
- - - - - - - - - - - - - - - - - - - -
 72
65
 73
2
 40
0.2
 49
0.1
 74
0
 49
-0.1
 74
0
  0
ENDTAB
  0
TABLE
  2
LAYER
  5
2
100
AcDbSymbolTable
 70
36
  0
LAYER
  5
10
100
AcDbSymbolTableRecord
100
AcDbLayerTableRecord
  2
0
 70
0
 62
7
  6
CONTINUOUS
370
-3
390
F
  0
LAYER
  5
1FA
100
AcDbSymbolTableRecord
100
AcDbLayerTableRecord
  2
DEFAULT_1
 70
0
 62
7
  6
CENTER
370
-3
390
F
  0
LAYER
  5
1FB
100
AcDbSymbolTableRecord
100
AcDbLayerTableRecord
  2
DEFAULT_2
 70
0
 62
7
  6
HIDDEN
370
-3
390
F
  0
LAYER
  5
1FC
100
AcDbSymbolTableRecord
100
AcDbLayerTableRecord
  2
DEFAULT_3
 70
0
 62
7
  6
PHANTOM
370
-3
390
F
  0
LAYER
  5
1FD
100
AcDbSymbolTableRecord
100
AcDbLayerTableRecord
  2
00_COMPONENTS
 70
0
 62
7
  6
CONTINUOUS
370
-3
390
F
  0
LAYER
  5
1FE
100
AcDbSymbolTableRecord
100
AcDbLayerTableRecord
  2
01_1_DEFAULT_DATUMS
 70
0
 62
7
  6
CONTINUOUS
370
-3
390
F
  0
LAYER
  5
1FF
100
AcDbSymbolTableRecord
100
AcDbLayerTableRecord
  2
01_PLANES
 70
0
 62
7
  6
CONTINUOUS
370
-3
390
F
  0
LAYER
  5
200
100
AcDbSymbolTableRecord
100
AcDbLayerTableRecord
  2
02_COORD_SYS
 70
0
 62
7
  6
CONTINUOUS
370
-3
390
F
  0
LAYER
  5
201
100
AcDbSymbolTableRecord
100
AcDbLayerTableRecord
  2
03_AXES
 70
0
 62
7
  6
CONTINUOUS
370
-3
390
F
  0
LAYER
  5
202
100
AcDbSymbolTableRecord
100
AcDbLayerTableRecord
  2
04_POINTS
 70
0
 62
7
  6
CONTINUOUS
370
-3
390
F
  0
LAYER
  5
203
100
AcDbSymbolTableRecord
100
AcDbLayerTableRecord
  2
05_CURVES
 70
0
 62
7
  6
CONTINUOUS
370
-3
390
F
  0
LAYER
  5
204
100
AcDbSymbolTableRecord
100
AcDbLayerTableRecord
  2
06_SURFS
 70
0
 62
7
  6
CONTINUOUS
370
-3
390
F
  0
LAYER
  5
205
100
AcDbSymbolTableRecord
100
AcDbLayerTableRecord
  2
07_COSMETICS
 70
0
 62
7
  6
CONTINUOUS
370
-3
390
F
  0
LAYER
  5
206
100
AcDbSymbolTableRecord
100
AcDbLayerTableRecord
  2
10_NOTES
 70
0
 62
7
  6
CONTINUOUS
370
-3
390
F
  0
LAYER
  5
207
100
AcDbSymbolTableRecord
100
AcDbLayerTableRecord
  2
11_NOTES_PUB
 70
0
 62
7
  6
CONTINUOUS
370
-3
390
F
  0
LAYER
  5
208
100
AcDbSymbolTableRecord
100
AcDbLayerTableRecord
  2
13_REF_GTOL
 70
0
 62
7
  6
CONTINUOUS
370
-3
390
F
  0
LAYER
  5
209
100
AcDbSymbolTableRecord
100
AcDbLayerTableRecord
  2
16_MISC
 70
0
 62
7
  6
CONTINUOUS
370
-3
390
F
  0
LAYER
  5
20A
100
AcDbSymbolTableRecord
100
AcDbLayerTableRecord
  2
17_NO_PRINT
 70
0
 62
7
  6
CONTINUOUS
370
-3
390
F
  0
LAYER
  5
20B
100
AcDbSymbolTableRecord
100
AcDbLayerTableRecord
  2
18_DATUM_CAMS_JOINTS
 70
0
 62
7
  6
CONTINUOUS
370
-3
390
F
  0
LAYER
  5
20C
100
AcDbSymbolTableRecord
100
AcDbLayerTableRecord
  2
19_DATUM_FUNCTIONAL
 70
0
 62
7
  6
CONTINUOUS
370
-3
390
F
  0
LAYER
  5
20D
100
AcDbSymbolTableRecord
100
AcDbLayerTableRecord
  2
20_DATUM_KINEMATIC_SCHEME
 70
0
 62
7
  6
CONTINUOUS
370
-3
390
F
  0
ENDTAB
  0
TABLE
  2
STYLE
  5
3
100
AcDbSymbolTable
 70
1
  0
STYLE
  5
11
100
AcDbSymbolTableRecord
100
AcDbTextStyleTableRecord
  2
STANDARD
 70
0
 40
0.0
 41
1.0
 50
0.0
 71
0
 42
0.2
  3
ARIAL.TTF
  4

  0
STYLE
  5
20E
100
AcDbSymbolTableRecord
100
AcDbTextStyleTableRecord
  2
TEXTSTYLE_1
 70
0
 40
0.0
 41
0.8
 50
0.0
 71
0
 42
0.2
  3
gdt
  4

  0
ENDTAB
  0
TABLE
  2
VIEW
  5
6
100
AcDbSymbolTable
 70
0
  0
ENDTAB
  0
TABLE
  2
UCS
  5
7
100
AcDbSymbolTable
 70
0
  0
ENDTAB
  0
TABLE
  2
APPID
  5
9
100
AcDbSymbolTable
 70
1
  0
APPID
  5
20F
100
AcDbSymbolTableRecord
100
AcDbRegAppTableRecord
  2
ACAD
 70
0
  0
ENDTAB
  0
TABLE
  2
BLOCK_RECORD
  5
1
100
AcDbSymbolTable
 70
0
  0
BLOCK_RECORD
  5
210
100
AcDbSymbolTableRecord
100
AcDbBlockTableRecord
  2
*Model_Space
  0
BLOCK_RECORD
  5
211
100
AcDbSymbolTableRecord
100
AcDbBlockTableRecord
  2
*Paper_Space
  0
BLOCK_RECORD
  5
212
100
AcDbSymbolTableRecord
100
AcDbBlockTableRecord
  2
_FILLED
  0
ENDTAB
  0
TABLE
  2
DIMSTYLE
  5
A
100
AcDbSymbolTable
 70
1
100
AcDbDimStyleTable
 71
0
  0
DIMSTYLE
105
213
100
AcDbSymbolTableRecord
100
AcDbDimStyleTableRecord
  2
STANDARD
 70
0
  3

  4

 40
1.0
 41
0.6335363113
 42
1.0
 43
0.38
 44
1.0
 45
0.0
 46
0.0
 47
0.01
 48
0.01
140
0.8869508359
141
0.09
142
0.0
143
25.4
144
1.0
145
0.0
146
1.0
147
0.625
 71
1
 72
0
 73
0
 74
0
 75
0
 76
0
 77
1
 78
8
 79
2
170
0
171
1
172
0
173
0
174
0
175
0
176
0
177
0
178
0
270
2
179
2
271
2
272
2
273
2
274
2
275
0
280
0
281
0
282
0
283
1
284
8
285
0
286
0
287
3
288
0
340
11
278
46
341
212
342
212
343
212
344
212
  0
ENDTAB
  0
ENDSEC
  0
SECTION
  2
BLOCKS
  0
BLOCK
  5
20
100
AcDbEntity
  8
0
100
AcDbBlockBegin
  2
*Model_Space
 70
0
 10
0.0
 20
0.0
 30
0.0
  3
*Model_Space
  1

  0
ENDBLK
  5
21
100
AcDbEntity
  8
0
100
AcDbBlockEnd
  0
BLOCK
  5
1C
100
AcDbEntity
  8
0
100
AcDbBlockBegin
  2
*Paper_Space
 70
0
 10
0.0
 20
0.0
 30
0.0
  3
*Paper_Space
  1

  0
ENDBLK
  5
1D
100
AcDbEntity
  8
0
100
AcDbBlockEnd
  0
BLOCK
  5
214
100
AcDbEntity
  8
0
100
AcDbBlockBegin
  2
_FILLED
 70
64
 10
0.0
 20
0.0
  3
_FILLED
  1

  0
SOLID
  5
215
100
AcDbEntity
  8
0
  6
BYBLOCK
 62
0
100
AcDbTrace
 10
0.0
 20
0.0
 11
-1.0
 21
0.25
 12
-1.0
 22
-0.25
 13
-1.0
 23
-0.25
  0
ENDBLK
  5
216
100
AcDbEntity
  8
0
  6
BYBLOCK
 62
0
100
AcDbBlockEnd
  0
ENDSEC
  0
SECTION
  2
ENTITIES
  0
LINE
  5
217
100
AcDbEntity
  8
0
100
AcDbLine
 62
7
  6
BYLAYER
 10
6.0191377672
 20
34.4112781281
 11
6.0191377672
 21
40.8528356574
  0
LINE
  5
218
100
AcDbEntity
  8
0
100
AcDbLine
 62
7
  6
BYLAYER
 10
7.3191377672
 20
34.1820568928
 11
7.3191377672
 21
41.0820568928
  0
LINE
  5
219
100
AcDbEntity
  8
0
100
AcDbLine
 62
7
  6
BYLAYER
 10
7.5191377672
 20
41.0820475154
 11
7.5191377672
 21
34.1820525773
  0
LINE
  5
21A
100
AcDbEntity
  8
0
100
AcDbLine
 62
7
  6
BYLAYER
 10
8.6191377672
 20
40.8820568928
 11
8.6191377672
 21
34.3820568928
  0
LINE
  5
21B
100
AcDbEntity
  8
0
100
AcDbLine
 62
7
  6
BYLAYER
 10
9.3691377672
 20
33.6320568928
 11
9.3691377672
 21
41.6320568928
  0
LINE
  5
21C
100
AcDbEntity
  8
0
100
AcDbLine
 62
7
  6
BYLAYER
 10
11.4191377672
 20
41.6320568928
 11
11.4191377672
 21
33.6320568928
  0
LINE
  5
21D
100
AcDbEntity
  8
0
100
AcDbLine
 62
7
  6
BYLAYER
 10
12.1691377672
 20
34.3820568928
 11
12.1691377672
 21
40.8820568928
  0
LINE
  5
21E
100
AcDbEntity
  8
0
100
AcDbLine
 62
7
  6
BYLAYER
 10
8.6191377672
 20
40.8820568928
 11
9.3691377672
 21
41.6320568928
  0
LINE
  5
21F
100
AcDbEntity
  8
0
100
AcDbLine
 62
7
  6
BYLAYER
 10
8.6191377672
 20
34.3820568928
 11
9.3691377672
 21
33.6320568928
  0
LINE
  5
220
100
AcDbEntity
  8
0
100
AcDbLine
 62
7
  6
BYLAYER
 10
12.1691377672
 20
34.3820568928
 11
11.4191377672
 21
33.6320568928
  0
LINE
  5
221
100
AcDbEntity
  8
0
100
AcDbLine
 62
7
  6
BYLAYER
 10
12.1691377672
 20
40.8820568928
 11
11.4191377672
 21
41.6320568928
  0
LINE
  5
222
100
AcDbEntity
  8
0
100
AcDbLine
 62
7
  6
BYLAYER
 10
6.0191377672
 20
34.4112819677
 11
7.3191377672
 21
34.1820568928
  0
LINE
  5
223
100
AcDbEntity
  8
0
100
AcDbLine
 62
7
  6
BYLAYER
 10
22.4521504691
 20
40.8820568928
 11
22.4521504691
 21
34.3820568928
  0
LINE
  5
224
100
AcDbEntity
  8
0
100
AcDbLine
 62
7
  6
BYLAYER
 10
22.9521504691
 20
34.516031489
 11
22.9521504691
 21
40.7480822966
  0
LINE
  5
225
100
AcDbEntity
  8
0
100
AcDbLine
 62
7
  6
BYLAYER
 10
38.8441183129
 20
33.1632547393
 11
35.3941572214
 21
33.1632547393
  0
LINE
  5
226
100
AcDbEntity
  8
0
100
AcDbLine
 62
7
  6
BYLAYER
 10
41.3941574818
 20
33.1632547393
 11
44.8441180526
 21
33.1632547393
  0
LINE
  5
227
100
AcDbEntity
  8
0
100
AcDbLine
 62
7
  6
BYLAYER
 10
24.0191377672
 20
40.1320464654
 11
24.0191377672
 21
35.1321034544
  0
LINE
  5
228
100
AcDbEntity
  8
0
100
AcDbLine
 62
7
  6
BYLAYER
 10
24.2191377672
 20
35.3321749177
 11
24.2191377672
 21
39.9319388679
  0
LINE
  5
229
100
AcDbEntity
  8
0
100
AcDbLine
 62
7
  6
BYLAYER
 10
24.2191377672
 20
39.9320568928
 11
24.4191377672
 21
40.1320568928
  0
LINE
  5
22A
100
AcDbEntity
  8
0
100
AcDbLine
 62
7
  6
BYLAYER
 10
11.4191377672
 20
33.6320568928
 11
9.3691377672
 21
33.6320568928
  0
LINE
  5
22B
100
AcDbEntity
  8
0
100
AcDbLine
 62
7
  6
BYLAYER
 10
7.5191377672
 20
34.1820568928
 11
7.3191377672
 21
34.1820568928
  0
LINE
  5
22C
100
AcDbEntity
  8
0
100
AcDbLine
 62
7
  6
BYLAYER
 10
22.4521504691
 20
34.3820568928
 11
12.1691377672
 21
34.3820568928
  0
LINE
  5
22D
100
AcDbEntity
  8
0
100
AcDbLine
 62
7
  6
BYLAYER
 10
8.6191377672
 20
34.3820568928
 11
7.5191377672
 21
34.3820568928
  0
LINE
  5
22E
100
AcDbEntity
  8
0
100
AcDbLine
 62
7
  6
BYLAYER
 10
24.2191377672
 20
35.3320568928
 11
24.4191377672
 21
35.1320568928
  0
LINE
  5
22F
100
AcDbEntity
  8
0
100
AcDbLine
 62
7
  6
BYLAYER
 10
24.4191377672
 20
35.1320568928
 11
24.4191377672
 21
40.1320568928
  0
LINE
  5
230
100
AcDbEntity
  8
0
100
AcDbLine
 62
7
  6
BYLAYER
 10
47.5191377672
 20
35.1320568928
 11
45.1191377672
 21
35.1320568928
  0
LINE
  5
231
100
AcDbEntity
  8
0
100
AcDbLine
 62
7
  6
BYLAYER
 10
41.1191377672
 20
35.1320568928
 11
39.1191377672
 21
35.1320568928
  0
LINE
  5
232
100
AcDbEntity
  8
0
100
AcDbLine
 62
7
  6
BYLAYER
 10
35.1191377672
 20
35.1320568928
 11
24.4191377672
 21
35.1320568928
  0
LINE
  5
233
100
AcDbEntity
  8
0
100
AcDbLine
 62
7
  6
BYLAYER
 10
38.8441180574
 20
35.172655816
 11
35.3941574769
 21
35.172655816
  0
LINE
  5
234
100
AcDbEntity
  8
0
100
AcDbLine
 62
7
  6
BYLAYER
 10
41.3941572139
 20
35.172655816
 11
44.8441183204
 21
35.172655816
  0
LINE
  5
235
100
AcDbEntity
  8
0
100
AcDbLine
 62
7
  6
BYLAYER
 10
24.2191377672
 20
35.5720568928
 11
24.0191377672
 21
35.5720568928
  0
LINE
  5
236
100
AcDbEntity
  8
0
100
AcDbLine
 62
7
  6
BYLAYER
 10
47.7191377672
 20
35.7320568928
 11
48.0923444843
 21
35.7320568928
  0
LINE
  5
237
100
AcDbEntity
  8
0
100
AcDbLine
 62
7
  6
BYLAYER
 10
38.8938506779
 20
35.822655816
 11
35.3444248564
 21
35.822655816
  0
LINE
  5
238
100
AcDbEntity
  8
0
100
AcDbLine
 62
7
  6
BYLAYER
 10
41.344424858
 20
35.822655816
 11
44.8938506763
 21
35.822655816
  0
LINE
  5
239
100
AcDbEntity
  8
0
100
AcDbLine
 62
7
  6
BYLAYER
 10
24.0191377672
 20
35.1320568928
 11
22.9521504691
 21
34.516031489
  0
LINE
  5
23A
100
AcDbEntity
  8
0
100
AcDbLine
 62
7
  6
BYLAYER
 10
24.0191377672
 20
40.1320568928
 11
22.9521504691
 21
40.7480822966
  0
LINE
  5
23B
100
AcDbEntity
  8
0
100
AcDbLine
 62
7
  6
BYLAYER
 10
38.8938506763
 20
39.4414579695
 11
35.344424858
 21
39.4414579695
  0
LINE
  5
23C
100
AcDbEntity
  8
0
100
AcDbLine
 62
7
  6
BYLAYER
 10
41.3444248564
 20
39.4414579695
 11
44.8938506779
 21
39.4414579695
  0
LINE
  5
23D
100
AcDbEntity
  8
0
100
AcDbLine
 62
7
  6
BYLAYER
 10
47.7191377672
 20
39.5320568928
 11
48.0923444843
 21
39.5320568928
  0
LINE
  5
23E
100
AcDbEntity
  8
0
100
AcDbLine
 62
7
  6
BYLAYER
 10
24.2191377672
 20
39.6920568928
 11
24.0191377672
 21
39.6920568928
  0
LINE
  5
23F
100
AcDbEntity
  8
0
100
AcDbLine
 62
7
  6
BYLAYER
 10
38.8441183129
 20
40.0914579695
 11
35.3941572214
 21
40.0914579695
  0
LINE
  5
240
100
AcDbEntity
  8
0
100
AcDbLine
 62
7
  6
BYLAYER
 10
41.3941574818
 20
40.0914579695
 11
44.8441180526
 21
40.0914579695
  0
LINE
  5
241
100
AcDbEntity
  8
0
100
AcDbLine
 62
7
  6
BYLAYER
 10
47.5191377672
 20
40.1320568928
 11
45.1191377672
 21
40.1320568928
  0
LINE
  5
242
100
AcDbEntity
  8
0
100
AcDbLine
 62
7
  6
BYLAYER
 10
41.1191377672
 20
40.1320568928
 11
39.1191377672
 21
40.1320568928
  0
LINE
  5
243
100
AcDbEntity
  8
0
100
AcDbLine
 62
7
  6
BYLAYER
 10
35.1191377672
 20
40.1320568928
 11
24.4191377672
 21
40.1320568928
  0
LINE
  5
244
100
AcDbEntity
  8
0
100
AcDbLine
 62
7
  6
BYLAYER
 10
22.4521504691
 20
40.8820568928
 11
12.1691377672
 21
40.8820568928
  0
LINE
  5
245
100
AcDbEntity
  8
0
100
AcDbLine
 62
7
  6
BYLAYER
 10
8.6191377672
 20
40.8820568928
 11
7.5191377672
 21
40.8820568928
  0
LINE
  5
246
100
AcDbEntity
  8
0
100
AcDbLine
 62
7
  6
BYLAYER
 10
7.5191377672
 20
41.0820568928
 11
7.3191377672
 21
41.0820568928
  0
LINE
  5
247
100
AcDbEntity
  8
0
100
AcDbLine
 62
7
  6
BYLAYER
 10
11.4191377672
 20
41.6320568928
 11
9.3691377672
 21
41.6320568928
  0
LINE
  5
248
100
AcDbEntity
  8
0
100
AcDbLine
 62
7
  6
BYLAYER
 10
38.8441180574
 20
42.1008590463
 11
35.3941574769
 21
42.1008590463
  0
LINE
  5
249
100
AcDbEntity
  8
0
100
AcDbLine
 62
7
  6
BYLAYER
 10
41.3941572139
 20
42.1008590463
 11
44.8441183204
 21
42.1008590463
  0
LINE
  5
24A
100
AcDbEntity
  8
0
100
AcDbLine
 62
7
  6
BYLAYER
 10
35.1191377672
 20
41.6320568928
 11
35.3681501816
 21
42.0633590463
  0
LINE
  5
24B
100
AcDbEntity
  8
0
100
AcDbLine
 62
7
  6
BYLAYER
 10
35.1191377672
 20
33.6320568928
 11
35.3681501816
 21
33.2007547393
  0
LINE
  5
24C
100
AcDbEntity
  8
0
100
AcDbLine
 62
7
  6
BYLAYER
 10
6.0191377672
 20
40.8528318179
 11
7.3191377672
 21
41.0820568928
  0
LINE
  5
24D
100
AcDbEntity
  8
0
100
AcDbLine
 62
7
  6
BYLAYER
 10
35.1191377672
 20
33.6320582422
 11
35.1191377672
 21
41.6320555433
  0
LINE
  5
24E
100
AcDbEntity
  8
0
100
AcDbLine
 62
7
  6
BYLAYER
 10
41.1191377672
 20
41.6320568928
 11
41.3681501816
 21
42.0633590463
  0
LINE
  5
24F
100
AcDbEntity
  8
0
100
AcDbLine
 62
7
  6
BYLAYER
 10
41.1191377672
 20
33.6320568928
 11
41.3681501816
 21
33.2007547393
  0
LINE
  5
250
100
AcDbEntity
  8
0
100
AcDbLine
 62
7
  6
BYLAYER
 10
39.1191377672
 20
41.6320555433
 11
39.1191377672
 21
33.6320582422
  0
LINE
  5
251
100
AcDbEntity
  8
0
100
AcDbLine
 62
7
  6
BYLAYER
 10
39.1191377672
 20
33.6320568928
 11
38.8701253527
 21
33.2007547393
  0
LINE
  5
252
100
AcDbEntity
  8
0
100
AcDbLine
 62
7
  6
BYLAYER
 10
39.1191377672
 20
41.6320568928
 11
38.8701253527
 21
42.0633590463
  0
LINE
  5
253
100
AcDbEntity
  8
0
100
AcDbLine
 62
7
  6
BYLAYER
 10
41.1191377672
 20
33.6320582422
 11
41.1191377672
 21
41.6320555433
  0
LINE
  5
254
100
AcDbEntity
  8
0
100
AcDbLine
 62
7
  6
BYLAYER
 10
47.7191377672
 20
35.3320568928
 11
47.5191377672
 21
35.1320568928
  0
LINE
  5
255
100
AcDbEntity
  8
0
100
AcDbLine
 62
7
  6
BYLAYER
 10
47.7191377672
 20
39.9320568928
 11
47.5191377672
 21
40.1320568928
  0
LINE
  5
256
100
AcDbEntity
  8
0
100
AcDbLine
 62
7
  6
BYLAYER
 10
45.1191377672
 20
41.6320555433
 11
45.1191377672
 21
33.6320582422
  0
LINE
  5
257
100
AcDbEntity
  8
0
100
AcDbLine
 62
7
  6
BYLAYER
 10
45.1191377672
 20
33.6320568928
 11
44.8701253527
 21
33.2007547393
  0
LINE
  5
258
100
AcDbEntity
  8
0
100
AcDbLine
 62
7
  6
BYLAYER
 10
45.1191377672
 20
41.6320568928
 11
44.8701253527
 21
42.0633590463
  0
LINE
  5
259
100
AcDbEntity
  8
0
100
AcDbLine
 62
7
  6
BYLAYER
 10
47.5191377672
 20
40.1320568928
 11
47.5191377672
 21
35.1320568928
  0
LINE
  5
25A
100
AcDbEntity
  8
0
100
AcDbLine
 62
7
  6
BYLAYER
 10
47.7191377672
 20
39.932043648
 11
47.7191377672
 21
35.3321842832
  0
LINE
  5
25B
100
AcDbEntity
  8
0
100
AcDbLine
 62
7
  6
BYLAYER
 10
47.9191377672
 20
39.5320568928
 11
47.9191377672
 21
35.7320568928
  0
LINE
  5
25C
100
AcDbEntity
  8
0
100
AcDbLine
 62
7
  6
BYLAYER
 10
48.1191377672
 20
39.4320530299
 11
48.1191377672
 21
35.8320338578
  0
LINE
  5
25D
100
AcDbEntity
  8
0
100
AcDbLine
 62
7
  6
BYLAYER
 10
48.0923428479
 20
35.7320568928
 11
48.1191377672
 21
35.8320568928
  0
LINE
  5
25E
100
AcDbEntity
  8
0
100
AcDbLine
 62
7
  6
BYLAYER
 10
48.0923428479
 20
39.5320568928
 11
48.1191377672
 21
39.4320568928
  0
ARC
  5
25F
100
AcDbEntity
  8
0
100
AcDbCircle
 62
7
  6
BYLAYER
 10
42.1198945939
 20
36.014249771
 40
6.7781818264
100
AcDbArc
 50
181.6197549203
 51
187.1323705284
  0
ARC
  5
260
100
AcDbEntity
  8
0
100
AcDbCircle
 62
7
  6
BYLAYER
 10
32.118380955
 20
36.0142497699
 40
6.7781818117
100
AcDbArc
 50
352.867629465
 51
358.380245085
  0
ARC
  5
261
100
AcDbEntity
  8
0
100
AcDbCircle
 62
7
  6
BYLAYER
 10
42.1198898532
 20
39.2498643038
 40
6.7781770787
100
AcDbArc
 50
172.867626914
 51
178.3802463907
  0
ARC
  5
262
100
AcDbEntity
  8
0
100
AcDbCircle
 62
7
  6
BYLAYER
 10
32.1183857349
 20
39.2498643077
 40
6.778177025
100
AcDbArc
 50
1.6197535895
 51
7.13237311
  0
ARC
  5
263
100
AcDbEntity
  8
0
100
AcDbCircle
 62
7
  6
BYLAYER
 10
38.1202279589
 20
36.0140120824
 40
6.7763251073
100
AcDbArc
 50
352.8676845974
 51
358.3818125656
  0
ARC
  5
264
100
AcDbEntity
  8
0
100
AcDbCircle
 62
7
  6
BYLAYER
 10
48.1180475744
 20
36.0140120823
 40
6.7763251064
100
AcDbArc
 50
181.618187434
 51
187.132315403
  0
ARC
  5
265
100
AcDbEntity
  8
0
100
AcDbCircle
 62
7
  6
BYLAYER
 10
38.1202290834
 20
39.2501017113
 40
6.7763239831
100
AcDbArc
 50
1.6181876346
 51
7.1323165232
  0
ARC
  5
266
100
AcDbEntity
  8
0
100
AcDbCircle
 62
7
  6
BYLAYER
 10
48.1180464501
 20
39.2501017113
 40
6.7763239823
100
AcDbArc
 50
172.8676834764
 51
178.3818123657
  0
ARC
  5
267
100
AcDbEntity
  8
0
100
AcDbCircle
 62
7
  6
BYLAYER
 10
22.4521504691
 20
35.3820568928
 40
1.0
100
AcDbArc
 50
270.0
 51
300.0
  0
ARC
  5
268
100
AcDbEntity
  8
0
100
AcDbCircle
 62
7
  6
BYLAYER
 10
22.4521504691
 20
39.8820568928
 40
1.0
100
AcDbArc
 50
60.0
 51
90.0
  0
SPLINE
  5
269
100
AcDbEntity
  8
0
100
AcDbSpline
 62
7
  6
BYLAYER
 70
0
 71
3
 72
9
 73
5
 74
0
 42
0.0000001
 43
0.0000001
 44
0.0000000001
 40
0.0
 40
0.0
 40
0.0
 40
0.0
 40
0.2403891324
 40
1.0
 40
1.0
 40
1.0
 40
1.0
 10
44.8701311595
 20
42.0633591147
 30
0.0
 10
44.8683024329
 20
42.0665285883
 30
0.0
 10
44.8603982708
 20
42.0795417134
 30
0.0
 10
44.851388265
 20
42.0918675772
 30
0.0
 10
44.8441183204
 20
42.1008590463
 30
0.0
  0
SPLINE
  5
26A
100
AcDbEntity
  8
0
100
AcDbSpline
 62
7
  6
BYLAYER
 70
0
 71
3
 72
9
 73
5
 74
0
 42
0.0000001
 43
0.0000001
 44
0.0000000001
 40
0.0
 40
0.0
 40
0.0
 40
0.0
 40
0.2600682595
 40
1.0
 40
1.0
 40
1.0
 40
1.0
 10
41.3941572139
 20
42.1008590463
 30
0.0
 10
41.3916683031
 20
42.0977807608
 30
0.0
 10
41.3822989067
 20
42.0857855507
 30
0.0
 10
41.3737730691
 20
42.0731145358
 30
0.0
 10
41.3681443748
 20
42.0633591147
 30
0.0
  0
SPLINE
  5
26B
100
AcDbEntity
  8
0
100
AcDbSpline
 62
7
  6
BYLAYER
 70
0
 71
3
 72
9
 73
5
 74
0
 42
0.0000001
 43
0.0000001
 44
0.0000000001
 40
0.0
 40
0.0
 40
0.0
 40
0.0
 40
0.2403891362
 40
1.0
 40
1.0
 40
1.0
 40
1.0
 10
41.3681443741
 20
33.2007546709
 30
0.0
 10
41.3699731014
 20
33.1975851973
 30
0.0
 10
41.377877267
 20
33.1845720724
 30
0.0
 10
41.3868872762
 20
33.1722462093
 30
0.0
 10
41.3941572215
 20
33.1632547393
 30
0.0
  0
SPLINE
  5
26C
100
AcDbEntity
  8
0
100
AcDbSpline
 62
7
  6
BYLAYER
 70
0
 71
3
 72
9
 73
5
 74
0
 42
0.0000001
 43
0.0000001
 44
0.0000000001
 40
0.0
 40
0.0
 40
0.0
 40
0.0
 40
0.2600682452
 40
1.0
 40
1.0
 40
1.0
 40
1.0
 10
44.8441183129
 20
33.1632547393
 30
0.0
 10
44.8466072238
 20
33.1663330249
 30
0.0
 10
44.8559766219
 20
33.1783282357
 30
0.0
 10
44.8645024636
 20
33.1909992496
 30
0.0
 10
44.8701311603
 20
33.2007546709
 30
0.0
  0
SPLINE
  5
26D
100
AcDbEntity
  8
0
100
AcDbSpline
 62
7
  6
BYLAYER
 70
0
 71
3
 72
11
 73
7
 74
0
 42
0.0000001
 43
0.0000001
 44
0.0000000001
 40
0.0
 40
0.0
 40
0.0
 40
0.0
 40
0.2422509531
 40
0.4881426002
 40
0.7403086769
 40
1.0
 40
1.0
 40
1.0
 40
1.0
 10
41.119138839
 20
41.096158447
 30
0.0
 10
41.1191381001
 20
41.1810497339
 30
0.0
 10
41.1318794875
 20
41.3523544414
 30
0.0
 10
41.1875468335
 20
41.6064820572
 30
0.0
 10
41.2759241033
 20
41.8574589723
 30
0.0
 10
41.3522788714
 20
42.0200648404
 30
0.0
 10
41.394157477
 20
42.1008590463
 30
0.0
  0
SPLINE
  5
26E
100
AcDbEntity
  8
0
100
AcDbSpline
 62
7
  6
BYLAYER
 70
0
 71
3
 72
11
 73
7
 74
0
 42
0.0000001
 43
0.0000001
 44
0.0000000001
 40
0.0
 40
0.0
 40
0.0
 40
0.0
 40
0.2596913603
 40
0.5118574596
 40
0.7577490886
 40
1.0
 40
1.0
 40
1.0
 40
1.0
 10
44.8441180574
 20
35.172655816
 30
0.0
 10
44.8859966689
 20
35.0918615986
 30
0.0
 10
44.9623514628
 20
34.9292557188
 30
0.0
 10
45.0507287012
 20
34.6782787765
 30
0.0
 10
45.1063960435
 20
34.4241511753
 30
0.0
 10
45.1191374346
 20
34.2528464889
 30
0.0
 10
45.1191366953
 20
34.1679552167
 30
0.0
  0
SPLINE
  5
26F
100
AcDbEntity
  8
0
100
AcDbSpline
 62
7
  6
BYLAYER
 70
0
 71
3
 72
11
 73
7
 74
0
 42
0.0000001
 43
0.0000001
 44
0.0000000001
 40
0.0
 40
0.0
 40
0.0
 40
0.0
 40
0.2499983962
 40
0.4999982272
 40
0.7499982939
 40
1.0
 40
1.0
 40
1.0
 40
1.0
 10
45.1191377672
 20
37.6320568928
 30
0.0
 10
45.1191377672
 20
37.4797798434
 30
0.0
 10
45.1090057787
 20
37.1751331209
 30
0.0
 10
45.0644192068
 20
36.7201968606
 30
0.0
 10
44.9927887124
 20
36.2687694771
 30
0.0
 10
44.9291015283
 20
35.9707986228
 30
0.0
 10
44.8938506763
 20
35.822655816
 30
0.0
  0
SPLINE
  5
270
100
AcDbEntity
  8
0
100
AcDbSpline
 62
7
  6
BYLAYER
 70
0
 71
3
 72
11
 73
7
 74
0
 42
0.0000001
 43
0.0000001
 44
0.0000000001
 40
0.0
 40
0.0
 40
0.0
 40
0.0
 40
0.2422509531
 40
0.4881426002
 40
0.7403086769
 40
1.0
 40
1.0
 40
1.0
 40
1.0
 10
41.119138839
 20
34.1679552167
 30
0.0
 10
41.1191381001
 20
34.2528465036
 30
0.0
 10
41.1318794875
 20
34.4241512111
 30
0.0
 10
41.1875468335
 20
34.6782788269
 30
0.0
 10
41.2759241033
 20
34.929255742
 30
0.0
 10
41.3522788714
 20
35.0918616101
 30
0.0
 10
41.394157477
 20
35.172655816
 30
0.0
  0
SPLINE
  5
271
100
AcDbEntity
  8
0
100
AcDbSpline
 62
7
  6
BYLAYER
 70
0
 71
3
 72
11
 73
7
 74
0
 42
0.0000001
 43
0.0000001
 44
0.0000000001
 40
0.0
 40
0.0
 40
0.0
 40
0.0
 40
0.2500017264
 40
0.500001809
 40
0.7500016288
 40
1.0
 40
1.0
 40
1.0
 40
1.0
 10
41.344424858
 20
35.822655816
 30
0.0
 10
41.3091740031
 20
35.9707986348
 30
0.0
 10
41.2454868085
 20
36.2687695096
 30
0.0
 10
41.1738563284
 20
36.7201969108
 30
0.0
 10
41.1292697568
 20
37.1751331583
 30
0.0
 10
41.1191377672
 20
37.4797798587
 30
0.0
 10
41.1191377672
 20
37.6320568928
 30
0.0
  0
SPLINE
  5
272
100
AcDbEntity
  8
0
100
AcDbSpline
 62
7
  6
BYLAYER
 70
0
 71
3
 72
11
 73
7
 74
0
 42
0.0000001
 43
0.0000001
 44
0.0000000001
 40
0.0
 40
0.0
 40
0.0
 40
0.0
 40
0.2422509513
 40
0.4881426007
 40
0.7403086806
 40
1.0
 40
1.0
 40
1.0
 40
1.0
 10
45.1191366953
 20
41.096158447
 30
0.0
 10
45.1191374283
 20
41.0112671703
 30
0.0
 10
45.1063960636
 20
40.8399624801
 30
0.0
 10
45.050728683
 20
40.5858348978
 30
0.0
 10
44.9623513991
 20
40.334858021
 30
0.0
 10
44.885996653
 20
40.1722521652
 30
0.0
 10
44.8441180526
 20
40.0914579695
 30
0.0
  0
SPLINE
  5
273
100
AcDbEntity
  8
0
100
AcDbSpline
 62
7
  6
BYLAYER
 70
0
 71
3
 72
11
 73
7
 74
0
 42
0.0000001
 43
0.0000001
 44
0.0000000001
 40
0.0
 40
0.0
 40
0.0
 40
0.0
 40
0.2500017264
 40
0.500001809
 40
0.7500016288
 40
1.0
 40
1.0
 40
1.0
 40
1.0
 10
44.8938506763
 20
39.4414579695
 30
0.0
 10
44.9291015312
 20
39.2933151508
 30
0.0
 10
44.9927887258
 20
38.995344276
 30
0.0
 10
45.064419206
 20
38.5439168747
 30
0.0
 10
45.1090057775
 20
38.0889806273
 30
0.0
 10
45.1191377672
 20
37.7843339269
 30
0.0
 10
45.1191377672
 20
37.6320568928
 30
0.0
  0
SPLINE
  5
274
100
AcDbEntity
  8
0
100
AcDbSpline
 62
7
  6
BYLAYER
 70
0
 71
3
 72
11
 73
7
 74
0
 42
0.0000001
 43
0.0000001
 44
0.0000000001
 40
0.0
 40
0.0
 40
0.0
 40
0.0
 40
0.2596913603
 40
0.5118574596
 40
0.7577490886
 40
1.0
 40
1.0
 40
1.0
 40
1.0
 10
44.8441180574
 20
42.1008590463
 30
0.0
 10
44.8859966689
 20
42.0200648289
 30
0.0
 10
44.9623514628
 20
41.8574589491
 30
0.0
 10
45.0507287012
 20
41.6064820068
 30
0.0
 10
45.1063960434
 20
41.3523544056
 30
0.0
 10
45.1191374346
 20
41.1810497192
 30
0.0
 10
45.1191366953
 20
41.096158447
 30
0.0
  0
SPLINE
  5
275
100
AcDbEntity
  8
0
100
AcDbSpline
 62
7
  6
BYLAYER
 70
0
 71
3
 72
11
 73
7
 74
0
 42
0.0000001
 43
0.0000001
 44
0.0000000001
 40
0.0
 40
0.0
 40
0.0
 40
0.0
 40
0.2499983962
 40
0.4999982272
 40
0.7499982939
 40
1.0
 40
1.0
 40
1.0
 40
1.0
 10
41.1191377672
 20
37.6320568928
 30
0.0
 10
41.1191377672
 20
37.7843339421
 30
0.0
 10
41.1292697557
 20
38.0889806647
 30
0.0
 10
41.1738563275
 20
38.5439169249
 30
0.0
 10
41.2454868219
 20
38.9953443084
 30
0.0
 10
41.309174006
 20
39.2933151628
 30
0.0
 10
41.344424858
 20
39.4414579695
 30
0.0
  0
SPLINE
  5
276
100
AcDbEntity
  8
0
100
AcDbSpline
 62
7
  6
BYLAYER
 70
0
 71
3
 72
11
 73
7
 74
0
 42
0.0000001
 43
0.0000001
 44
0.0000000001
 40
0.0
 40
0.0
 40
0.0
 40
0.0
 40
0.2422509513
 40
0.4881426007
 40
0.7403086806
 40
1.0
 40
1.0
 40
1.0
 40
1.0
 10
45.1191366953
 20
34.1679552167
 30
0.0
 10
45.1191374283
 20
34.08306394
 30
0.0
 10
45.1063960636
 20
33.9117592499
 30
0.0
 10
45.050728683
 20
33.6576316675
 30
0.0
 10
44.9623513991
 20
33.4066547907
 30
0.0
 10
44.885996653
 20
33.2440489349
 30
0.0
 10
44.8441180526
 20
33.1632547393
 30
0.0
  0
SPLINE
  5
277
100
AcDbEntity
  8
0
100
AcDbSpline
 62
7
  6
BYLAYER
 70
0
 71
3
 72
11
 73
7
 74
0
 42
0.0000001
 43
0.0000001
 44
0.0000000001
 40
0.0
 40
0.0
 40
0.0
 40
0.0
 40
0.2596913565
 40
0.5118574591
 40
0.7577490904
 40
1.0
 40
1.0
 40
1.0
 40
1.0
 10
41.3941574818
 20
40.0914579695
 30
0.0
 10
41.3522788754
 20
40.1722521767
 30
0.0
 10
41.2759241034
 20
40.3348580442
 30
0.0
 10
41.1875468511
 20
40.5858349482
 30
0.0
 10
41.1318794742
 20
40.839962516
 30
0.0
 10
41.1191381057
 20
41.011267185
 30
0.0
 10
41.119138839
 20
41.096158447
 30
0.0
  0
SPLINE
  5
278
100
AcDbEntity
  8
0
100
AcDbSpline
 62
7
  6
BYLAYER
 70
0
 71
3
 72
11
 73
7
 74
0
 42
0.0000001
 43
0.0000001
 44
0.0000000001
 40
0.0
 40
0.0
 40
0.0
 40
0.0
 40
0.2596913565
 40
0.5118574591
 40
0.7577490904
 40
1.0
 40
1.0
 40
1.0
 40
1.0
 10
41.3941574818
 20
33.1632547393
 30
0.0
 10
41.3522788754
 20
33.2440489464
 30
0.0
 10
41.2759241034
 20
33.4066548139
 30
0.0
 10
41.1875468511
 20
33.6576317179
 30
0.0
 10
41.1318794742
 20
33.9117592857
 30
0.0
 10
41.1191381057
 20
34.0830639547
 30
0.0
 10
41.119138839
 20
34.1679552167
 30
0.0
  0
SPLINE
  5
279
100
AcDbEntity
  8
0
100
AcDbSpline
 62
7
  6
BYLAYER
 70
0
 71
3
 72
9
 73
5
 74
0
 42
0.0000001
 43
0.0000001
 44
0.0000000001
 40
0.0
 40
0.0
 40
0.0
 40
0.0
 40
0.2402933485
 40
1.0
 40
1.0
 40
1.0
 40
1.0
 10
35.3681269699
 20
42.0633593189
 30
0.0
 10
35.3699527874
 20
42.0665297375
 30
0.0
 10
35.377856211
 20
42.0795477784
 30
0.0
 10
35.3868847149
 20
42.0918644179
 30
0.0
 10
35.3941572139
 20
42.1008590463
 30
0.0
  0
SPLINE
  5
27A
100
AcDbEntity
  8
0
100
AcDbSpline
 62
7
  6
BYLAYER
 70
0
 71
3
 72
9
 73
5
 74
0
 42
0.0000001
 43
0.0000001
 44
0.0000000001
 40
0.0
 40
0.0
 40
0.0
 40
0.0
 40
0.2402933526
 40
1.0
 40
1.0
 40
1.0
 40
1.0
 10
38.8701485613
 20
33.2007544667
 30
0.0
 10
38.8683227433
 20
33.1975840481
 30
0.0
 10
38.8604193177
 20
33.1845660074
 30
0.0
 10
38.8513908122
 20
33.1722493681
 30
0.0
 10
38.8441183129
 20
33.1632547393
 30
0.0
  0
SPLINE
  5
27B
100
AcDbEntity
  8
0
100
AcDbSpline
 62
7
  6
BYLAYER
 70
0
 71
3
 72
9
 73
5
 74
0
 42
0.0000001
 43
0.0000001
 44
0.0000000001
 40
0.0
 40
0.0
 40
0.0
 40
0.0
 40
0.2600778921
 40
1.0
 40
1.0
 40
1.0
 40
1.0
 10
35.3941572214
 20
33.1632547393
 30
0.0
 10
35.3916676856
 20
33.1663337977
 30
0.0
 10
35.3822917841
 20
33.1783276001
 30
0.0
 10
35.3737488185
 20
33.1909924843
 30
0.0
 10
35.368126973
 20
33.2007544667
 30
0.0
  0
SPLINE
  5
27C
100
AcDbEntity
  8
0
100
AcDbSpline
 62
7
  6
BYLAYER
 70
0
 71
3
 72
9
 73
5
 74
0
 42
0.0000001
 43
0.0000001
 44
0.0000000001
 40
0.0
 40
0.0
 40
0.0
 40
0.0
 40
0.2600779006
 40
1.0
 40
1.0
 40
1.0
 40
1.0
 10
38.8441183204
 20
42.1008590463
 30
0.0
 10
38.8466078561
 20
42.0977799879
 30
0.0
 10
38.8559837569
 20
42.0857861859
 30
0.0
 10
38.8645267205
 20
42.0731213014
 30
0.0
 10
38.8701485644
 20
42.0633593189
 30
0.0
  0
SPLINE
  5
27D
100
AcDbEntity
  8
0
100
AcDbSpline
 62
7
  6
BYLAYER
 70
0
 71
3
 72
11
 73
7
 74
0
 42
0.0000001
 43
0.0000001
 44
0.0000000001
 40
0.0
 40
0.0
 40
0.0
 40
0.0
 40
0.2422509531
 40
0.4881426002
 40
0.7403086769
 40
1.0
 40
1.0
 40
1.0
 40
1.0
 10
35.119138839
 20
34.1679552167
 30
0.0
 10
35.1191381001
 20
34.2528465036
 30
0.0
 10
35.1318794875
 20
34.4241512111
 30
0.0
 10
35.1875468335
 20
34.6782788269
 30
0.0
 10
35.2759241033
 20
34.929255742
 30
0.0
 10
35.3522788713
 20
35.0918616101
 30
0.0
 10
35.3941574769
 20
35.172655816
 30
0.0
  0
SPLINE
  5
27E
100
AcDbEntity
  8
0
100
AcDbSpline
 62
7
  6
BYLAYER
 70
0
 71
3
 72
11
 73
7
 74
0
 42
0.0000001
 43
0.0000001
 44
0.0000000001
 40
0.0
 40
0.0
 40
0.0
 40
0.0
 40
0.2500017264
 40
0.500001809
 40
0.7500016288
 40
1.0
 40
1.0
 40
1.0
 40
1.0
 10
35.344424858
 20
35.822655816
 30
0.0
 10
35.3091740031
 20
35.9707986348
 30
0.0
 10
35.2454868085
 20
36.2687695096
 30
0.0
 10
35.1738563283
 20
36.7201969108
 30
0.0
 10
35.1292697568
 20
37.1751331583
 30
0.0
 10
35.1191377672
 20
37.4797798587
 30
0.0
 10
35.1191377672
 20
37.6320568928
 30
0.0
  0
SPLINE
  5
27F
100
AcDbEntity
  8
0
100
AcDbSpline
 62
7
  6
BYLAYER
 70
0
 71
3
 72
11
 73
7
 74
0
 42
0.0000001
 43
0.0000001
 44
0.0000000001
 40
0.0
 40
0.0
 40
0.0
 40
0.0
 40
0.2422509513
 40
0.4881426007
 40
0.7403086806
 40
1.0
 40
1.0
 40
1.0
 40
1.0
 10
39.1191366953
 20
34.1679552167
 30
0.0
 10
39.1191374283
 20
34.08306394
 30
0.0
 10
39.1063960636
 20
33.9117592499
 30
0.0
 10
39.050728683
 20
33.6576316675
 30
0.0
 10
38.9623513991
 20
33.4066547907
 30
0.0
 10
38.885996653
 20
33.2440489349
 30
0.0
 10
38.8441180526
 20
33.1632547393
 30
0.0
  0
SPLINE
  5
280
100
AcDbEntity
  8
0
100
AcDbSpline
 62
7
  6
BYLAYER
 70
0
 71
3
 72
11
 73
7
 74
0
 42
0.0000001
 43
0.0000001
 44
0.0000000001
 40
0.0
 40
0.0
 40
0.0
 40
0.0
 40
0.2499983962
 40
0.4999982272
 40
0.7499982939
 40
1.0
 40
1.0
 40
1.0
 40
1.0
 10
35.1191377672
 20
37.6320568928
 30
0.0
 10
35.1191377672
 20
37.7843339421
 30
0.0
 10
35.1292697557
 20
38.0889806647
 30
0.0
 10
35.1738563275
 20
38.5439169249
 30
0.0
 10
35.2454868219
 20
38.9953443084
 30
0.0
 10
35.309174006
 20
39.2933151628
 30
0.0
 10
35.344424858
 20
39.4414579695
 30
0.0
  0
SPLINE
  5
281
100
AcDbEntity
  8
0
100
AcDbSpline
 62
7
  6
BYLAYER
 70
0
 71
3
 72
11
 73
7
 74
0
 42
0.0000001
 43
0.0000001
 44
0.0000000001
 40
0.0
 40
0.0
 40
0.0
 40
0.0
 40
0.2596913565
 40
0.5118574591
 40
0.7577490904
 40
1.0
 40
1.0
 40
1.0
 40
1.0
 10
35.3941574817
 20
40.0914579695
 30
0.0
 10
35.3522788754
 20
40.1722521767
 30
0.0
 10
35.2759241034
 20
40.3348580442
 30
0.0
 10
35.1875468511
 20
40.5858349482
 30
0.0
 10
35.1318794742
 20
40.839962516
 30
0.0
 10
35.1191381057
 20
41.011267185
 30
0.0
 10
35.119138839
 20
41.096158447
 30
0.0
  0
SPLINE
  5
282
100
AcDbEntity
  8
0
100
AcDbSpline
 62
7
  6
BYLAYER
 70
0
 71
3
 72
11
 73
7
 74
0
 42
0.0000001
 43
0.0000001
 44
0.0000000001
 40
0.0
 40
0.0
 40
0.0
 40
0.0
 40
0.2500017264
 40
0.500001809
 40
0.7500016288
 40
1.0
 40
1.0
 40
1.0
 40
1.0
 10
38.8938506763
 20
39.4414579695
 30
0.0
 10
38.9291015312
 20
39.2933151508
 30
0.0
 10
38.9927887258
 20
38.995344276
 30
0.0
 10
39.064419206
 20
38.5439168747
 30
0.0
 10
39.1090057775
 20
38.0889806273
 30
0.0
 10
39.1191377672
 20
37.7843339269
 30
0.0
 10
39.1191377672
 20
37.6320568928
 30
0.0
  0
SPLINE
  5
283
100
AcDbEntity
  8
0
100
AcDbSpline
 62
7
  6
BYLAYER
 70
0
 71
3
 72
11
 73
7
 74
0
 42
0.0000001
 43
0.0000001
 44
0.0000000001
 40
0.0
 40
0.0
 40
0.0
 40
0.0
 40
0.2422509513
 40
0.4881426007
 40
0.7403086806
 40
1.0
 40
1.0
 40
1.0
 40
1.0
 10
39.1191366953
 20
41.096158447
 30
0.0
 10
39.1191374283
 20
41.0112671703
 30
0.0
 10
39.1063960636
 20
40.8399624801
 30
0.0
 10
39.050728683
 20
40.5858348978
 30
0.0
 10
38.9623513991
 20
40.334858021
 30
0.0
 10
38.885996653
 20
40.1722521652
 30
0.0
 10
38.8441180526
 20
40.0914579695
 30
0.0
  0
SPLINE
  5
284
100
AcDbEntity
  8
0
100
AcDbSpline
 62
7
  6
BYLAYER
 70
0
 71
3
 72
11
 73
7
 74
0
 42
0.0000001
 43
0.0000001
 44
0.0000000001
 40
0.0
 40
0.0
 40
0.0
 40
0.0
 40
0.2596913565
 40
0.5118574591
 40
0.7577490904
 40
1.0
 40
1.0
 40
1.0
 40
1.0
 10
35.3941574817
 20
33.1632547393
 30
0.0
 10
35.3522788754
 20
33.2440489464
 30
0.0
 10
35.2759241034
 20
33.406654814
 30
0.0
 10
35.1875468511
 20
33.6576317179
 30
0.0
 10
35.1318794742
 20
33.9117592857
 30
0.0
 10
35.1191381057
 20
34.0830639547
 30
0.0
 10
35.119138839
 20
34.1679552167
 30
0.0
  0
SPLINE
  5
285
100
AcDbEntity
  8
0
100
AcDbSpline
 62
7
  6
BYLAYER
 70
0
 71
3
 72
11
 73
7
 74
0
 42
0.0000001
 43
0.0000001
 44
0.0000000001
 40
0.0
 40
0.0
 40
0.0
 40
0.0
 40
0.2596913603
 40
0.5118574596
 40
0.7577490886
 40
1.0
 40
1.0
 40
1.0
 40
1.0
 10
38.8441180574
 20
35.172655816
 30
0.0
 10
38.8859966689
 20
35.0918615986
 30
0.0
 10
38.9623514628
 20
34.9292557188
 30
0.0
 10
39.0507287012
 20
34.6782787765
 30
0.0
 10
39.1063960434
 20
34.4241511753
 30
0.0
 10
39.1191374346
 20
34.2528464889
 30
0.0
 10
39.1191366953
 20
34.1679552167
 30
0.0
  0
SPLINE
  5
286
100
AcDbEntity
  8
0
100
AcDbSpline
 62
7
  6
BYLAYER
 70
0
 71
3
 72
11
 73
7
 74
0
 42
0.0000001
 43
0.0000001
 44
0.0000000001
 40
0.0
 40
0.0
 40
0.0
 40
0.0
 40
0.2499983962
 40
0.4999982272
 40
0.7499982939
 40
1.0
 40
1.0
 40
1.0
 40
1.0
 10
39.1191377672
 20
37.6320568928
 30
0.0
 10
39.1191377672
 20
37.4797798434
 30
0.0
 10
39.1090057787
 20
37.1751331209
 30
0.0
 10
39.0644192068
 20
36.7201968606
 30
0.0
 10
38.9927887124
 20
36.2687694771
 30
0.0
 10
38.9291015283
 20
35.9707986228
 30
0.0
 10
38.8938506763
 20
35.822655816
 30
0.0
  0
SPLINE
  5
287
100
AcDbEntity
  8
0
100
AcDbSpline
 62
7
  6
BYLAYER
 70
0
 71
3
 72
11
 73
7
 74
0
 42
0.0000001
 43
0.0000001
 44
0.0000000001
 40
0.0
 40
0.0
 40
0.0
 40
0.0
 40
0.2422509531
 40
0.4881426002
 40
0.7403086769
 40
1.0
 40
1.0
 40
1.0
 40
1.0
 10
35.119138839
 20
41.096158447
 30
0.0
 10
35.1191381001
 20
41.1810497339
 30
0.0
 10
35.1318794875
 20
41.3523544414
 30
0.0
 10
35.1875468335
 20
41.6064820572
 30
0.0
 10
35.2759241033
 20
41.8574589723
 30
0.0
 10
35.3522788713
 20
42.0200648404
 30
0.0
 10
35.3941574769
 20
42.1008590463
 30
0.0
  0
SPLINE
  5
288
100
AcDbEntity
  8
0
100
AcDbSpline
 62
7
  6
BYLAYER
 70
0
 71
3
 72
11
 73
7
 74
0
 42
0.0000001
 43
0.0000001
 44
0.0000000001
 40
0.0
 40
0.0
 40
0.0
 40
0.0
 40
0.2596913603
 40
0.5118574596
 40
0.7577490886
 40
1.0
 40
1.0
 40
1.0
 40
1.0
 10
38.8441180574
 20
42.1008590463
 30
0.0
 10
38.8859966689
 20
42.0200648289
 30
0.0
 10
38.9623514628
 20
41.8574589491
 30
0.0
 10
39.0507287012
 20
41.6064820068
 30
0.0
 10
39.1063960434
 20
41.3523544056
 30
0.0
 10
39.1191374346
 20
41.1810497192
 30
0.0
 10
39.1191366953
 20
41.096158447
 30
0.0
  0
ENDSEC
  0
SECTION
  2
OBJECTS
  0
DICTIONARY
  5
C
100
AcDbDictionary
280
0
281
1
  3
ACAD_GROUP
350
D
  3
ACAD_MLINESTYLE
350
17
  3
ACAD_LAYOUT
350
1A
  3
ACAD_PLOTSETTINGS
350
19
  3
ACAD_PLOTSTYLENAME
350
E
  0
DICTIONARY
  5
D
102
{ACAD_REACTORS
330
C
102
}
100
AcDbDictionary
280
0
281
1
  0
ACDBDICTIONARYWDFLT
  5
E
102
{ACAD_REACTORS
330
C
102
}
100
AcDbDictionary
281
1
  3
Normal
350
F
100
AcDbDictionaryWithDefault
340
F
  0
DICTIONARY
  5
17
102
{ACAD_REACTORS
330
C
102
}
100
AcDbDictionary
280
0
281
1
  3
Standard
350
18
  0
DICTIONARY
  5
19
102
{ACAD_REACTORS
330
C
102
}
100
AcDbDictionary
281
1
  0
DICTIONARY
  5
1A
102
{ACAD_REACTORS
330
C
102
}
100
AcDbDictionary
281
1
  3
Model
350
289
  3
Layout1
350
28A
  0
ACDBPLACEHOLDER
  5
F
102
{ACAD_REACTORS
330
E
102
}
  0
MLINESTYLE
  5
18
102
{ACAD_REACTORS
330
17
102
}
100
AcDbMlineStyle
  2
STANDARD
 70
0
  3

 62
256
 51
90.0
 52
90.0
 71
2
 49
0.5
 62
256
  6
BYLAYER
 49
-0.5
 62
256
  6
BYLAYER
  0
LAYOUT
  5
289
102
{ACAD_REACTORS
330
1A
102
}
100
AcDbPlotSettings
  1

  2
none_device
  4

  6

 40
0.0
 41
0.0
 42
0.0
 43
0.0
 44
210.0
 45
297.0
 46
0.0
 47
0.0
 48
0.0
 49
0.0
140
0.0
141
0.0
142
1.0
143
1.0
 70
1024
 72
1
 73
0
 74
0
  7

 75
0
147
1.0
148
0.0
149
0.0
100
AcDbLayout
  1
Model
 70
0
 71
0
 10
0.0
 20
0.0
 11
210.0
 21
297.0
 12
0.0
 22
0.0
 32
0.0
 14
0.0
 24
0.0
 34
0.0
 15
0.0
 25
0.0
 35
0.0
146
0.0
 13
0.0
 23
0.0
 33
0.0
 16
1.0
 26
0.0
 36
0.0
 17
0.0
 27
1.0
 37
0.0
 76
0
330
210
345
0
346
0
  0
LAYOUT
  5
28A
102
{ACAD_REACTORS
330
1A
102
}
100
AcDbPlotSettings
  1

  2
none_device
  4

  6

 40
0.0
 41
0.0
 42
0.0
 43
0.0
 44
210.0
 45
297.0
 46
0.0
 47
0.0
 48
0.0
 49
0.0
140
0.0
141
0.0
142
1.0
143
1.0
 70
0
 72
1
 73
0
 74
0
  7

 75
0
147
1.0
148
0.0
149
0.0
100
AcDbLayout
  1
Layout1
 70
0
 71
1
 10
0.0
 20
0.0
 11
210.0
 21
297.0
 12
0.0
 22
0.0
 32
0.0
 14
0.0
 24
0.0
 34
0.0
 15
0.0
 25
0.0
 35
0.0
146
0.0
 13
0.0
 23
0.0
 33
0.0
 16
1.0
 26
0.0
 36
0.0
 17
0.0
 27
1.0
 37
0.0
 76
0
330
211
345
0
346
0
  0
ENDSEC
  0
EOF
