999
DXF file: C:\Users\sesa63760\Dev\_Creo\CAD\MCADID0000490_3D-CAD\drw0001_4.dxf
999
Pro/ENGINEER 2019471 by Parametric Technology Corporation
  0
SECTION
  2
HEADER
  9
$ACADVER
  1
AC1024
  9
$DWGCODEPAGE
  3
ANSI_1252
  9
$EXTMAX
 10
1071.9805510554
 20
1516.0867793498
 30
0.0
  9
$EXTMIN
 10
0.0
 20
0.0
 30
0.0
  9
$LIMMIN
 10
0.0
 20
0.0
  9
$LIMMAX
 10
1071.9805510554
 20
1516.0867793498
  9
$VIEWCTR
 10
535.9902755277
 20
758.0433896749
  9
$VIEWSIZE
 40
1516.0867793498
  9
$CLAYER
  8
0
  9
$LTSCALE
 40
98.8263974687
  9
$CELTYPE
  6
BYLAYER
  9
$DIMSCALE
 40
1.0
  9
$DIMASZ
 40
12.7616732269
  9
$DIMEXO
 40
1.0
  9
$DIMDLI
 40
68.2800564329
  9
$DIMEXE
 40
1.0
  9
$DIMCEN
 40
16.1715923131
  9
$DIMLFAC
 40
1.0
  9
$DIMBLK
  1
_FILLED
  9
$DIMALT
 70
0
  9
$DIMALTF
 40
0.0393700787
  9
$DIMTXT
 40
17.8663425176
  9
$DIMTOL
 70
1
  9
$DIMLIM
 70
0
  9
$DIMTFAC
 40
1.0
  9
$DIMTP
 40
0.01
  9
$DIMTM
 40
0.01
  9
$DIMGAP
 40
0.625
  9
$DIMDSEP
 70
46
  9
$AUNITS
 70
0
  9
$PDMODE
 70
3
  9
$PDSIZE
 40
0.3125
  9
$HANDSEED
  5
303
  9
$TILEMODE
 70
1
  9
$MEASUREMENT
 70
1
  9
$INSUNITS
 70
4
  0
ENDSEC
  0
SECTION
  2
CLASSES
  0
CLASS
  1
ACDBDICTIONARYWDFLT
  2
AcDbDictionaryWithDefault
  3
AutoCAD 2000
 90
0
 91
1
280
0
281
0
  0
CLASS
  1
ACDBPLACEHOLDER
  2
AcDbPlaceHolder
  3
AutoCAD 2000
 90
0
 91
1
280
0
281
0
  0
CLASS
  1
LAYOUT
  2
AcDbLayout
  3
AutoCAD 2000
 90
0
 91
0
280
0
281
0
  0
ENDSEC
  0
SECTION
  2
TABLES
  0
TABLE
  2
VPORT
  5
8
100
AcDbSymbolTable
 70
2
  0
VPORT
  5
1F4
100
AcDbSymbolTableRecord
100
AcDbViewportTableRecord
  2
*ACTIVE
 70
0
 10
0.0
 20
0.0
 11
1.0
 21
1.0
 12
535.9902755277
 22
758.0433896749
 13
0.0
 23
0.0
 14
1.0
 24
1.0
 15
0.0
 25
0.0
 16
0.0
 26
0.0
 36
1.0
 17
0.0
 27
0.0
 37
0.0
 40
1516.0867793498
 41
0.7070707071
 42
50.0
 43
0.0
 44
0.0
 50
0.0
 51
0.0
 71
0
 72
100
 73
1
 74
1
 75
0
 76
0
 77
0
 78
0
  0
ENDTAB
  0
TABLE
  2
LTYPE
  5
5
100
AcDbSymbolTable
 70
6
  0
LTYPE
  5
14
100
AcDbSymbolTableRecord
100
AcDbLinetypeTableRecord
  2
BYBLOCK
 70
0
  3

 72
65
 73
0
 40
0.0
  0
LTYPE
  5
15
100
AcDbSymbolTableRecord
100
AcDbLinetypeTableRecord
  2
BYLAYER
 70
0
  3

 72
65
 73
0
 40
0.0
  0
LTYPE
  5
16
100
AcDbSymbolTableRecord
100
AcDbLinetypeTableRecord
  2
CONTINUOUS
 70
64
  3
Solid line
 72
65
 73
0
 40
0.0
  0
LTYPE
  5
1F5
100
AcDbSymbolTableRecord
100
AcDbLinetypeTableRecord
  2
CENTER
 70
64
  3
____ _ ____ _ ____ _ ____ _ ____ _ ____ _ ____
 72
65
 73
4
 40
0.6
 49
0.375
 74
0
 49
-0.075
 74
0
 49
0.075
 74
0
 49
-0.075
 74
0
  0
LTYPE
  5
1F6
100
AcDbSymbolTableRecord
100
AcDbLinetypeTableRecord
  2
HIDDEN
 70
64
  3
- - - - - - - - - - - - - - - - - - - -
 72
65
 73
2
 40
0.2
 49
0.1
 74
0
 49
-0.1
 74
0
  0
LTYPE
  5
1F7
100
AcDbSymbolTableRecord
100
AcDbLinetypeTableRecord
  2
PHANTOM
 70
64
  3
_____ _ _ _____ _ _ _____ _ _ _____
 72
65
 73
6
 40
0.8
 49
0.45
 74
0
 49
-0.05
 74
0
 49
0.1
 74
0
 49
-0.05
 74
0
 49
0.1
 74
0
 49
-0.05
 74
0
  0
LTYPE
  5
1F8
100
AcDbSymbolTableRecord
100
AcDbLinetypeTableRecord
  2
DOT
 70
64
  3
. . . . . . . . . . . . . . . . . . . .
 72
65
 73
2
 40
0.2
 49
0.1
 74
0
 49
-0.1
 74
0
  0
LTYPE
  5
1F9
100
AcDbSymbolTableRecord
100
AcDbLinetypeTableRecord
  2
DASHED
 70
64
  3
- - - - - - - - - - - - - - - - - - - -
 72
65
 73
2
 40
0.2
 49
0.1
 74
0
 49
-0.1
 74
0
  0
ENDTAB
  0
TABLE
  2
LAYER
  5
2
100
AcDbSymbolTable
 70
36
  0
LAYER
  5
10
100
AcDbSymbolTableRecord
100
AcDbLayerTableRecord
  2
0
 70
0
 62
7
  6
CONTINUOUS
370
-3
390
F
  0
LAYER
  5
1FA
100
AcDbSymbolTableRecord
100
AcDbLayerTableRecord
  2
DEFAULT_1
 70
0
 62
7
  6
CENTER
370
-3
390
F
  0
LAYER
  5
1FB
100
AcDbSymbolTableRecord
100
AcDbLayerTableRecord
  2
DEFAULT_2
 70
0
 62
8
  6
HIDDEN
370
-3
390
F
  0
LAYER
  5
1FC
100
AcDbSymbolTableRecord
100
AcDbLayerTableRecord
  2
DEFAULT_3
 70
0
 62
7
  6
PHANTOM
370
-3
390
F
  0
LAYER
  5
1FD
100
AcDbSymbolTableRecord
100
AcDbLayerTableRecord
  2
00_COMPONENTS
 70
0
 62
7
  6
CONTINUOUS
370
-3
390
F
  0
LAYER
  5
1FE
100
AcDbSymbolTableRecord
100
AcDbLayerTableRecord
  2
01_1_DEFAULT_DATUMS
 70
0
 62
7
  6
CONTINUOUS
370
-3
390
F
  0
LAYER
  5
1FF
100
AcDbSymbolTableRecord
100
AcDbLayerTableRecord
  2
01_PLANES
 70
0
 62
7
  6
CONTINUOUS
370
-3
390
F
  0
LAYER
  5
200
100
AcDbSymbolTableRecord
100
AcDbLayerTableRecord
  2
02_COORD_SYS
 70
0
 62
7
  6
CONTINUOUS
370
-3
390
F
  0
LAYER
  5
201
100
AcDbSymbolTableRecord
100
AcDbLayerTableRecord
  2
03_AXES
 70
0
 62
7
  6
CONTINUOUS
370
-3
390
F
  0
LAYER
  5
202
100
AcDbSymbolTableRecord
100
AcDbLayerTableRecord
  2
04_POINTS
 70
0
 62
7
  6
CONTINUOUS
370
-3
390
F
  0
LAYER
  5
203
100
AcDbSymbolTableRecord
100
AcDbLayerTableRecord
  2
05_CURVES
 70
0
 62
7
  6
CONTINUOUS
370
-3
390
F
  0
LAYER
  5
204
100
AcDbSymbolTableRecord
100
AcDbLayerTableRecord
  2
06_SURFS
 70
0
 62
7
  6
CONTINUOUS
370
-3
390
F
  0
LAYER
  5
205
100
AcDbSymbolTableRecord
100
AcDbLayerTableRecord
  2
07_COSMETICS
 70
0
 62
7
  6
CONTINUOUS
370
-3
390
F
  0
LAYER
  5
206
100
AcDbSymbolTableRecord
100
AcDbLayerTableRecord
  2
10_NOTES
 70
0
 62
7
  6
CONTINUOUS
370
-3
390
F
  0
LAYER
  5
207
100
AcDbSymbolTableRecord
100
AcDbLayerTableRecord
  2
11_NOTES_PUB
 70
0
 62
7
  6
CONTINUOUS
370
-3
390
F
  0
LAYER
  5
208
100
AcDbSymbolTableRecord
100
AcDbLayerTableRecord
  2
13_REF_GTOL
 70
0
 62
7
  6
CONTINUOUS
370
-3
390
F
  0
LAYER
  5
209
100
AcDbSymbolTableRecord
100
AcDbLayerTableRecord
  2
16_MISC
 70
0
 62
7
  6
CONTINUOUS
370
-3
390
F
  0
LAYER
  5
20A
100
AcDbSymbolTableRecord
100
AcDbLayerTableRecord
  2
17_NO_PRINT
 70
0
 62
7
  6
CONTINUOUS
370
-3
390
F
  0
LAYER
  5
20B
100
AcDbSymbolTableRecord
100
AcDbLayerTableRecord
  2
18_DATUM_CAMS_JOINTS
 70
0
 62
7
  6
CONTINUOUS
370
-3
390
F
  0
LAYER
  5
20C
100
AcDbSymbolTableRecord
100
AcDbLayerTableRecord
  2
19_DATUM_FUNCTIONAL
 70
0
 62
7
  6
CONTINUOUS
370
-3
390
F
  0
LAYER
  5
20D
100
AcDbSymbolTableRecord
100
AcDbLayerTableRecord
  2
20_DATUM_KINEMATIC_SCHEME
 70
0
 62
7
  6
CONTINUOUS
370
-3
390
F
  0
ENDTAB
  0
TABLE
  2
STYLE
  5
3
100
AcDbSymbolTable
 70
1
  0
STYLE
  5
11
100
AcDbSymbolTableRecord
100
AcDbTextStyleTableRecord
  2
STANDARD
 70
0
 40
0.0
 41
0.8
 50
0.0
 71
0
 42
0.2
  3
txt
  4

  0
STYLE
  5
20E
100
AcDbSymbolTableRecord
100
AcDbTextStyleTableRecord
  2
TEXTSTYLE_1
 70
0
 40
0.0
 41
0.8
 50
0.0
 71
0
 42
0.2
  3
gdt
  4

  0
ENDTAB
  0
TABLE
  2
VIEW
  5
6
100
AcDbSymbolTable
 70
0
  0
ENDTAB
  0
TABLE
  2
UCS
  5
7
100
AcDbSymbolTable
 70
0
  0
ENDTAB
  0
TABLE
  2
APPID
  5
9
100
AcDbSymbolTable
 70
1
  0
APPID
  5
20F
100
AcDbSymbolTableRecord
100
AcDbRegAppTableRecord
  2
ACAD
 70
0
  0
ENDTAB
  0
TABLE
  2
BLOCK_RECORD
  5
1
100
AcDbSymbolTable
 70
0
  0
BLOCK_RECORD
  5
210
100
AcDbSymbolTableRecord
100
AcDbBlockTableRecord
  2
*Model_Space
  0
BLOCK_RECORD
  5
211
100
AcDbSymbolTableRecord
100
AcDbBlockTableRecord
  2
*Paper_Space
  0
BLOCK_RECORD
  5
212
100
AcDbSymbolTableRecord
100
AcDbBlockTableRecord
  2
_FILLED
  0
ENDTAB
  0
TABLE
  2
DIMSTYLE
  5
A
100
AcDbSymbolTable
 70
1
100
AcDbDimStyleTable
 71
0
  0
DIMSTYLE
105
213
100
AcDbSymbolTableRecord
100
AcDbDimStyleTableRecord
  2
STANDARD
 70
0
  3

  4

 40
1.0
 41
12.7616732269
 42
1.0
 43
0.38
 44
1.0
 45
0.0
 46
0.0
 47
0.01
 48
0.01
140
17.8663425176
141
0.09
142
0.0
143
25.4
144
1.0
145
0.0
146
1.0
147
0.625
 71
1
 72
0
 73
0
 74
0
 75
0
 76
0
 77
1
 78
8
 79
2
170
0
171
1
172
0
173
0
174
0
175
0
176
0
177
0
178
0
270
2
179
2
271
2
272
2
273
2
274
2
275
0
280
0
281
0
282
0
283
1
284
8
285
0
286
0
287
3
288
0
340
11
278
46
341
212
342
212
343
212
344
212
  0
ENDTAB
  0
ENDSEC
  0
SECTION
  2
BLOCKS
  0
BLOCK
  5
20
100
AcDbEntity
  8
0
100
AcDbBlockBegin
  2
*Model_Space
 70
0
 10
0.0
 20
0.0
 30
0.0
  3
*Model_Space
  1

  0
ENDBLK
  5
21
100
AcDbEntity
  8
0
100
AcDbBlockEnd
  0
BLOCK
  5
1C
100
AcDbEntity
  8
0
100
AcDbBlockBegin
  2
*Paper_Space
 70
0
 10
0.0
 20
0.0
 30
0.0
  3
*Paper_Space
  1

  0
ENDBLK
  5
1D
100
AcDbEntity
  8
0
100
AcDbBlockEnd
  0
BLOCK
  5
214
100
AcDbEntity
  8
0
100
AcDbBlockBegin
  2
_FILLED
 70
64
 10
0.0
 20
0.0
  3
_FILLED
  1

  0
SOLID
  5
215
100
AcDbEntity
  8
0
  6
BYBLOCK
 62
0
100
AcDbTrace
 10
0.0
 20
0.0
 11
-1.0
 21
0.25
 12
-1.0
 22
-0.25
 13
-1.0
 23
-0.25
  0
ENDBLK
  5
216
100
AcDbEntity
  8
0
  6
BYBLOCK
 62
0
100
AcDbBlockEnd
  0
ENDSEC
  0
SECTION
  2
ENTITIES
  0
LINE
  5
217
100
AcDbEntity
  8
0
100
AcDbLine
 62
7
  6
CONTINUOUS
 10
603.0806342971
 20
108.5570095774
 11
204.3806342915
 21
108.5570095774
  0
LINE
  5
218
100
AcDbEntity
  8
0
100
AcDbLine
 62
7
  6
CONTINUOUS
 10
204.3806342915
 20
109.1519322047
 11
603.0806342968
 21
109.1519322047
  0
LINE
  5
219
100
AcDbEntity
  8
0
100
AcDbLine
 62
7
  6
CONTINUOUS
 10
603.0806342904
 20
109.4507906139
 11
204.3806342903
 21
109.4507906139
  0
LINE
  5
21A
100
AcDbEntity
  8
0
100
AcDbLine
 62
7
  6
CONTINUOUS
 10
204.3806342902
 20
110.6284751516
 11
603.0806342919
 21
110.6284751516
  0
LINE
  5
21B
100
AcDbEntity
  8
0
100
AcDbLine
 62
7
  6
CONTINUOUS
 10
603.0806342903
 20
110.9284751516
 11
204.3806342903
 21
110.9284751516
  0
LINE
  5
21C
100
AcDbEntity
  8
0
100
AcDbLine
 62
7
  6
CONTINUOUS
 10
602.5806342903
 20
111.5284751516
 11
204.8806342903
 21
111.5284751516
  0
LINE
  5
21D
100
AcDbEntity
  8
0
100
AcDbLine
 62
7
  6
CONTINUOUS
 10
601.5806342903
 20
114.5284751516
 11
566.5806342903
 21
114.5284751516
  0
LINE
  5
21E
100
AcDbEntity
  8
0
100
AcDbLine
 62
7
  6
CONTINUOUS
 10
280.4806342903
 20
115.3784751516
 11
215.9806342903
 21
115.3784751516
  0
LINE
  5
21F
100
AcDbEntity
  8
0
100
AcDbLine
 62
7
  6
CONTINUOUS
 10
610.7020998645
 20
116.1784751528
 11
609.808318828
 21
116.1784751516
  0
LINE
  5
220
100
AcDbEntity
  8
0
100
AcDbLine
 62
7
  6
CONTINUOUS
 10
608.6306342903
 20
116.1784751516
 11
608.3306342903
 21
116.1784751516
  0
LINE
  5
221
100
AcDbEntity
  8
0
100
AcDbLine
 62
7
  6
CONTINUOUS
 10
199.1306342903
 20
116.1784751516
 11
198.8306342903
 21
116.1784751516
  0
LINE
  5
222
100
AcDbEntity
  8
0
100
AcDbLine
 62
7
  6
CONTINUOUS
 10
197.6529497526
 20
116.1784751516
 11
196.7591687161
 21
116.1784751448
  0
LINE
  5
223
100
AcDbEntity
  8
0
100
AcDbLine
 62
7
  6
CONTINUOUS
 10
279.8806342903
 20
121.9284751516
 11
216.5806342903
 21
121.9284751516
  0
LINE
  5
224
100
AcDbEntity
  8
0
100
AcDbLine
 62
7
  6
CONTINUOUS
 10
278.7335780251
 20
122.4284751516
 11
217.1435930556
 21
122.4284751364
  0
LINE
  5
225
100
AcDbEntity
  8
0
100
AcDbLine
 62
7
  6
CONTINUOUS
 10
217.1435958264
 20
122.6284751516
 11
278.7335780383
 21
122.6284751516
  0
LINE
  5
226
100
AcDbEntity
  8
0
100
AcDbLine
 62
7
  6
CONTINUOUS
 10
278.7335780155
 20
133.1284751516
 11
279.597389864
 21
132.9878621508
  0
LWPOLYLINE
  5
227
100
AcDbEntity
  8
0
100
AcDbPolyline
 62
7
  6
CONTINUOUS
 90
4
 70
0
 10
279.4605338428
 20
132.676535237
 10
279.4986294677
 20
132.6514321038
 10
279.5364894534
 20
132.6237774869
 10
279.5739041669
 20
132.5935527794
  0
LINE
  5
228
100
AcDbEntity
  8
0
100
AcDbLine
 62
7
  6
CONTINUOUS
 10
278.9306342902
 20
122.9284751516
 11
217.7158344182
 21
122.9284751516
  0
LINE
  5
229
100
AcDbEntity
  8
0
100
AcDbLine
 62
7
  6
CONTINUOUS
 10
217.7219427918
 20
123.8284752978
 11
278.9306342903
 21
123.8284726066
  0
LINE
  5
22A
100
AcDbEntity
  8
0
100
AcDbLine
 62
7
  6
CONTINUOUS
 10
280.7134770011
 20
123.8284751478
 11
279.5739045712
 21
123.8284751523
  0
LINE
  5
22B
100
AcDbEntity
  8
0
100
AcDbLine
 62
7
  6
CONTINUOUS
 10
215.9411290679
 20
123.828475153
 11
215.7414092425
 21
123.828475153
  0
LINE
  5
22C
100
AcDbEntity
  8
0
100
AcDbLine
 62
7
  6
CONTINUOUS
 10
273.1306342903
 20
126.3784751516
 11
272.1306342903
 21
126.3784751516
  0
LINE
  5
22D
100
AcDbEntity
  8
0
100
AcDbLine
 62
7
  6
CONTINUOUS
 10
275.5886741818
 20
127.3784751516
 11
273.1306342903
 21
127.3784751516
  0
LINE
  5
22E
100
AcDbEntity
  8
0
100
AcDbLine
 62
7
  6
CONTINUOUS
 10
272.1306342903
 20
127.3784751516
 11
269.6725943988
 21
127.3784751516
  0
LINE
  5
22F
100
AcDbEntity
  8
0
100
AcDbLine
 62
7
  6
CONTINUOUS
 10
269.6725943988
 20
128.3784751516
 11
272.1306342903
 21
128.3784751516
  0
LINE
  5
230
100
AcDbEntity
  8
0
100
AcDbLine
 62
7
  6
CONTINUOUS
 10
273.1306342903
 20
128.3784751516
 11
275.5886741818
 21
128.3784751516
  0
LINE
  5
231
100
AcDbEntity
  8
0
100
AcDbLine
 62
7
  6
CONTINUOUS
 10
272.1306342903
 20
129.3784751516
 11
273.1306342903
 21
129.3784751516
  0
LINE
  5
232
100
AcDbEntity
  8
0
100
AcDbLine
 62
7
  6
CONTINUOUS
 10
566.5806342903
 20
130.9284751516
 11
601.5806342903
 21
130.9284751516
  0
LINE
  5
233
100
AcDbEntity
  8
0
100
AcDbLine
 62
7
  6
CONTINUOUS
 10
280.7134770011
 20
131.9284740283
 11
279.5973894012
 21
131.9284747293
  0
LINE
  5
234
100
AcDbEntity
  8
0
100
AcDbLine
 62
7
  6
CONTINUOUS
 10
278.9306342904
 20
131.9284776963
 11
217.7219427918
 21
131.9284752079
  0
LINE
  5
235
100
AcDbEntity
  8
0
100
AcDbLine
 62
7
  6
CONTINUOUS
 10
215.9411290679
 20
131.9284751516
 11
215.7414092425
 21
131.9284751516
  0
LINE
  5
236
100
AcDbEntity
  8
0
100
AcDbLine
 62
7
  6
CONTINUOUS
 10
217.7158346332
 20
132.8284751516
 11
278.9306342904
 21
132.8284751516
  0
LINE
  5
237
100
AcDbEntity
  8
0
100
AcDbLine
 62
7
  6
CONTINUOUS
 10
217.1435958273
 20
133.1284751516
 11
278.7335780155
 21
133.1284751516
  0
LINE
  5
238
100
AcDbEntity
  8
0
100
AcDbLine
 62
7
  6
CONTINUOUS
 10
217.1437936499
 20
133.3284359434
 11
278.7335780155
 21
133.3284751516
  0
LINE
  5
239
100
AcDbEntity
  8
0
100
AcDbLine
 62
7
  6
CONTINUOUS
 10
216.5806342903
 20
133.8284751516
 11
279.8806342903
 21
133.8284751516
  0
LINE
  5
23A
100
AcDbEntity
  8
0
100
AcDbLine
 62
7
  6
CONTINUOUS
 10
215.9806342903
 20
135.8784751516
 11
280.4806342903
 21
135.8784751516
  0
LINE
  5
23B
100
AcDbEntity
  8
0
100
AcDbLine
 62
7
  6
CONTINUOUS
 10
198.8306342903
 20
137.1784751516
 11
199.1306342903
 21
137.1784751516
  0
LINE
  5
23C
100
AcDbEntity
  8
0
100
AcDbLine
 62
7
  6
CONTINUOUS
 10
608.3306342903
 20
137.1784751516
 11
608.6306342903
 21
137.1784751516
  0
LINE
  5
23D
100
AcDbEntity
  8
0
100
AcDbLine
 62
7
  6
CONTINUOUS
 10
200.8806342903
 20
137.2284751516
 11
606.5806342903
 21
137.2284751516
  0
LINE
  5
23E
100
AcDbEntity
  8
0
100
AcDbLine
 62
7
  6
CONTINUOUS
 10
199.8306342903
 20
137.8784751516
 11
607.6306342903
 21
137.8784751516
  0
LINE
  5
23F
100
AcDbEntity
  8
0
100
AcDbLine
 62
7
  6
CONTINUOUS
 10
199.5088043618
 20
138.1784751516
 11
608.0806342903
 21
138.1784751516
  0
LINE
  5
240
100
AcDbEntity
  8
0
100
AcDbLine
 62
7
  6
CONTINUOUS
 10
607.6306342901
 20
138.6284751516
 11
199.83063428
 21
138.6284751516
  0
LINE
  5
241
100
AcDbEntity
  8
0
100
AcDbLine
 62
7
  6
CONTINUOUS
 10
607.6306342935
 20
138.9284751529
 11
199.8306342737
 21
138.9284751529
  0
LINE
  5
242
100
AcDbEntity
  8
0
100
AcDbLine
 62
7
  6
CONTINUOUS
 10
609.2806342809
 20
139.1784751516
 11
609.0806342903
 21
139.1784751516
  0
LINE
  5
243
100
AcDbEntity
  8
0
100
AcDbLine
 62
7
  6
CONTINUOUS
 10
198.3806342903
 20
139.1784751516
 11
198.1806342903
 21
139.1784751516
  0
LINE
  5
244
100
AcDbEntity
  8
0
100
AcDbLine
 62
7
  6
CONTINUOUS
 10
199.1306342904
 20
139.6284751516
 11
198.8306342904
 21
139.6284751518
  0
LINE
  5
245
100
AcDbEntity
  8
0
100
AcDbLine
 62
7
  6
CONTINUOUS
 10
608.3306342888
 20
139.6284751289
 11
608.6306342892
 21
139.6284751353
  0
LINE
  5
246
100
AcDbEntity
  8
0
100
AcDbLine
 62
7
  6
CONTINUOUS
 10
217.1435958265
 20
133.1284751516
 11
216.6492093062
 21
133.022358667
  0
LINE
  5
247
100
AcDbEntity
  8
0
100
AcDbLine
 62
7
  6
CONTINUOUS
 10
196.7591687161
 20
116.1784751448
 11
196.7591687161
 21
395.8784751504
  0
LINE
  5
248
100
AcDbEntity
  8
0
100
AcDbLine
 62
7
  6
CONTINUOUS
 10
197.3540913434
 20
395.8784751504
 11
197.3540913434
 21
116.1784751451
  0
LINE
  5
249
100
AcDbEntity
  8
0
100
AcDbLine
 62
7
  6
CONTINUOUS
 10
197.6529497526
 20
116.1784751516
 11
197.6529497526
 21
395.8784751516
  0
LINE
  5
24A
100
AcDbEntity
  8
0
100
AcDbLine
 62
7
  6
CONTINUOUS
 10
198.1806342903
 20
395.878475152
 11
198.1806342903
 21
139.1729094166
  0
LINE
  5
24B
100
AcDbEntity
  8
0
100
AcDbLine
 62
7
  6
CONTINUOUS
 10
198.3806342903
 20
139.1784751516
 11
198.3806342903
 21
395.8784751518
  0
LINE
  5
24C
100
AcDbEntity
  8
0
100
AcDbLine
 62
7
  6
CONTINUOUS
 10
198.8306342903
 20
137.1784751519
 11
198.8306342903
 21
116.17847515
  0
LINE
  5
24D
100
AcDbEntity
  8
0
100
AcDbLine
 62
7
  6
CONTINUOUS
 10
198.8306342903
 20
139.6284751518
 11
198.8306342903
 21
395.4284751514
  0
LINE
  5
24E
100
AcDbEntity
  8
0
100
AcDbLine
 62
7
  6
CONTINUOUS
 10
199.1306342904
 20
395.4284751251
 11
199.1306342904
 21
139.6284751509
  0
LINE
  5
24F
100
AcDbEntity
  8
0
100
AcDbLine
 62
7
  6
CONTINUOUS
 10
199.1306342903
 20
116.1784751515
 11
199.1306342903
 21
137.1784751516
  0
LINE
  5
250
100
AcDbEntity
  8
0
100
AcDbLine
 62
7
  6
CONTINUOUS
 10
199.8306342737
 20
138.9284751529
 11
199.83063428
 21
138.6284751527
  0
LINE
  5
251
100
AcDbEntity
  8
0
100
AcDbLine
 62
7
  6
CONTINUOUS
 10
199.8306342903
 20
137.8784751516
 11
199.8306342903
 21
138.1784751516
  0
LINE
  5
252
100
AcDbEntity
  8
0
100
AcDbLine
 62
7
  6
CONTINUOUS
 10
199.8806342903
 20
116.5284751516
 11
199.8806342903
 21
136.2284751516
  0
LINE
  5
253
100
AcDbEntity
  8
0
100
AcDbLine
 62
7
  6
CONTINUOUS
 10
204.3806342915
 20
108.5570095774
 11
204.3806342903
 21
109.4507906139
  0
LINE
  5
254
100
AcDbEntity
  8
0
100
AcDbLine
 62
7
  6
CONTINUOUS
 10
204.3806342903
 20
110.6284751516
 11
204.3806342903
 21
110.9284751516
  0
LINE
  5
255
100
AcDbEntity
  8
0
100
AcDbLine
 62
7
  6
CONTINUOUS
 10
204.3806342903
 20
401.8784751516
 11
204.3806342903
 21
402.0784751422
  0
LINE
  5
256
100
AcDbEntity
  8
0
100
AcDbLine
 62
7
  6
CONTINUOUS
 10
204.3806342903
 20
402.6061596893
 11
204.3806342836
 21
403.4999407258
  0
LINE
  5
257
100
AcDbEntity
  8
0
100
AcDbLine
 62
7
  6
CONTINUOUS
 10
204.83063427
 20
401.4284751514
 11
204.8306342671
 21
401.1284751514
  0
LINE
  5
258
100
AcDbEntity
  8
0
100
AcDbLine
 62
7
  6
CONTINUOUS
 10
212.9806342903
 20
118.3784751516
 11
212.9806342903
 21
132.8784751516
  0
LINE
  5
259
100
AcDbEntity
  8
0
100
AcDbLine
 62
7
  6
CONTINUOUS
 10
248.9306342903
 20
371.8284751516
 11
233.6306342903
 21
371.8284751516
  0
LINE
  5
25A
100
AcDbEntity
  8
0
100
AcDbLine
 62
7
  6
CONTINUOUS
 10
233.6306342903
 20
381.0284751516
 11
248.9306342903
 21
381.0284751516
  0
LINE
  5
25B
100
AcDbEntity
  8
0
100
AcDbLine
 62
7
  6
CONTINUOUS
 10
608.6306342892
 20
395.4284751719
 11
608.3306342888
 21
395.4284751815
  0
LINE
  5
25C
100
AcDbEntity
  8
0
100
AcDbLine
 62
7
  6
CONTINUOUS
 10
198.8306342904
 20
395.4284751514
 11
199.1306342904
 21
395.4284751516
  0
LINE
  5
25D
100
AcDbEntity
  8
0
100
AcDbLine
 62
7
  6
CONTINUOUS
 10
198.1806342903
 20
395.8784751516
 11
198.3806342903
 21
395.8784751516
  0
LINE
  5
25E
100
AcDbEntity
  8
0
100
AcDbLine
 62
7
  6
CONTINUOUS
 10
196.7591687161
 20
395.8784751504
 11
197.6529497526
 21
395.8784751516
  0
LINE
  5
25F
100
AcDbEntity
  8
0
100
AcDbLine
 62
7
  6
CONTINUOUS
 10
609.0806342903
 20
395.8784751516
 11
609.2806342809
 21
395.8784751516
  0
LINE
  5
260
100
AcDbEntity
  8
0
100
AcDbLine
 62
7
  6
CONTINUOUS
 10
609.808318828
 20
395.8784751516
 11
610.7020998645
 21
395.8784751584
  0
LINE
  5
261
100
AcDbEntity
  8
0
100
AcDbLine
 62
7
  6
CONTINUOUS
 10
204.8306342671
 20
401.1284751514
 11
602.6306342913
 21
401.1284751514
  0
LINE
  5
262
100
AcDbEntity
  8
0
100
AcDbLine
 62
7
  6
CONTINUOUS
 10
204.83063427
 20
401.4284751516
 11
602.6306342901
 21
401.4284751516
  0
LINE
  5
263
100
AcDbEntity
  8
0
100
AcDbLine
 62
7
  6
CONTINUOUS
 10
204.3806342924
 20
401.8784751516
 11
603.0806342905
 21
401.8784751516
  0
LINE
  5
264
100
AcDbEntity
  8
0
100
AcDbLine
 62
7
  6
CONTINUOUS
 10
603.0806344384
 20
402.0784751422
 11
204.3806342316
 21
402.0784751422
  0
LINE
  5
265
100
AcDbEntity
  8
0
100
AcDbLine
 62
7
  6
CONTINUOUS
 10
204.3806342903
 20
402.6061596893
 11
603.0806342903
 21
402.6061596893
  0
LINE
  5
266
100
AcDbEntity
  8
0
100
AcDbLine
 62
7
  6
CONTINUOUS
 10
603.0806342891
 20
402.9050180985
 11
204.3806342838
 21
402.9050180985
  0
LINE
  5
267
100
AcDbEntity
  8
0
100
AcDbLine
 62
7
  6
CONTINUOUS
 10
204.3806342836
 20
403.4999407258
 11
603.0806342891
 21
403.4999407258
  0
LINE
  5
268
100
AcDbEntity
  8
0
100
AcDbLine
 62
7
  6
CONTINUOUS
 10
215.0806342903
 20
123.4284751516
 11
215.0806342903
 21
132.3284751516
  0
LINE
  5
269
100
AcDbEntity
  8
0
100
AcDbLine
 62
7
  6
CONTINUOUS
 10
215.7414252024
 20
123.8283798313
 11
215.7413932826
 21
131.9286937715
  0
LINE
  5
26A
100
AcDbEntity
  8
0
100
AcDbLine
 62
7
  6
CONTINUOUS
 10
215.9411290679
 20
123.8284751513
 11
215.9411290679
 21
131.9284751317
  0
LINE
  5
26B
100
AcDbEntity
  8
0
100
AcDbLine
 62
7
  6
CONTINUOUS
 10
216.7257480933
 20
131.8284751518
 11
216.7257480933
 21
123.9284751515
  0
LINE
  5
26C
100
AcDbEntity
  8
0
100
AcDbLine
 62
7
  6
CONTINUOUS
 10
217.1435958266
 20
122.428475144
 11
217.1435958266
 21
122.6284751516
  0
LINE
  5
26D
100
AcDbEntity
  8
0
100
AcDbLine
 62
7
  6
CONTINUOUS
 10
217.1435958266
 20
133.1284751516
 11
217.1435958266
 21
133.3284555475
  0
LINE
  5
26E
100
AcDbEntity
  8
0
100
AcDbLine
 62
7
  6
CONTINUOUS
 10
217.7219427923
 20
122.9284751556
 11
217.7219427914
 21
132.8284751476
  0
LINE
  5
26F
100
AcDbEntity
  8
0
100
AcDbLine
 62
7
  6
CONTINUOUS
 10
230.6306342903
 20
374.8284751516
 11
230.6306342903
 21
378.0284751516
  0
LINE
  5
270
100
AcDbEntity
  8
0
100
AcDbLine
 62
7
  6
CONTINUOUS
 10
251.9306342903
 20
378.0284751516
 11
251.9306342903
 21
374.8284751516
  0
LINE
  5
271
100
AcDbEntity
  8
0
100
AcDbLine
 62
7
  6
CONTINUOUS
 10
271.1306342903
 20
128.3784751516
 11
271.1306342903
 21
127.3784751516
  0
LINE
  5
272
100
AcDbEntity
  8
0
100
AcDbLine
 62
7
  6
CONTINUOUS
 10
272.1306342903
 20
126.3784751516
 11
272.1306342903
 21
127.3784751516
  0
LINE
  5
273
100
AcDbEntity
  8
0
100
AcDbLine
 62
7
  6
CONTINUOUS
 10
272.1306342903
 20
128.3784751516
 11
272.1306342903
 21
129.3784751516
  0
LINE
  5
274
100
AcDbEntity
  8
0
100
AcDbLine
 62
7
  6
CONTINUOUS
 10
273.1306342903
 20
129.3784751516
 11
273.1306342903
 21
128.3784751516
  0
LINE
  5
275
100
AcDbEntity
  8
0
100
AcDbLine
 62
7
  6
CONTINUOUS
 10
273.1306342903
 20
127.3784751516
 11
273.1306342903
 21
126.3784751516
  0
LINE
  5
276
100
AcDbEntity
  8
0
100
AcDbLine
 62
7
  6
CONTINUOUS
 10
274.1306342903
 20
127.3784751516
 11
274.1306342903
 21
128.3784751516
  0
LINE
  5
277
100
AcDbEntity
  8
0
100
AcDbLine
 62
7
  6
CONTINUOUS
 10
278.7335780155
 20
133.3284555475
 11
278.7335780155
 21
133.1284751516
  0
LINE
  5
278
100
AcDbEntity
  8
0
100
AcDbLine
 62
7
  6
CONTINUOUS
 10
278.7335780454
 20
122.6284751516
 11
278.7335780454
 21
122.428475144
  0
LINE
  5
279
100
AcDbEntity
  8
0
100
AcDbLine
 62
7
  6
CONTINUOUS
 10
278.9306342903
 20
132.8284751476
 11
278.9306342903
 21
131.9284751516
  0
LINE
  5
27A
100
AcDbEntity
  8
0
100
AcDbLine
 62
7
  6
CONTINUOUS
 10
278.9306342903
 20
123.8284751516
 11
278.9306342903
 21
122.9284751556
  0
LINE
  5
27B
100
AcDbEntity
  8
0
100
AcDbLine
 62
7
  6
CONTINUOUS
 10
279.0306367817
 20
131.8284189371
 11
279.030636782
 21
123.9285313982
  0
LINE
  5
27C
100
AcDbEntity
  8
0
100
AcDbLine
 62
7
  6
CONTINUOUS
 10
279.8666630699
 20
123.9289937322
 11
279.8666630689
 21
131.8279565595
  0
LINE
  5
27D
100
AcDbEntity
  8
0
100
AcDbLine
 62
7
  6
CONTINUOUS
 10
280.5720556465
 20
131.9284743035
 11
280.5720556466
 21
123.8284751529
  0
LINE
  5
27E
100
AcDbEntity
  8
0
100
AcDbLine
 62
7
  6
CONTINUOUS
 10
280.7134769994
 20
131.9284748448
 11
280.7134770028
 21
123.8284751501
  0
LINE
  5
27F
100
AcDbEntity
  8
0
100
AcDbLine
 62
7
  6
CONTINUOUS
 10
281.3806342903
 20
132.3284751516
 11
281.3806342903
 21
123.4284751516
  0
LINE
  5
280
100
AcDbEntity
  8
0
100
AcDbLine
 62
7
  6
CONTINUOUS
 10
283.4806342903
 20
132.8784751516
 11
283.4806342903
 21
118.3784751516
  0
LINE
  5
281
100
AcDbEntity
  8
0
100
AcDbLine
 62
7
  6
CONTINUOUS
 10
563.5806342903
 20
117.5284751516
 11
563.5806342903
 21
127.9284751516
  0
LINE
  5
282
100
AcDbEntity
  8
0
100
AcDbLine
 62
7
  6
CONTINUOUS
 10
602.6306342901
 20
401.4284751514
 11
602.6306342913
 21
401.1284751514
  0
LINE
  5
283
100
AcDbEntity
  8
0
100
AcDbLine
 62
7
  6
CONTINUOUS
 10
603.0806342891
 20
403.4999407258
 11
603.0806342903
 21
402.6061596893
  0
LINE
  5
284
100
AcDbEntity
  8
0
100
AcDbLine
 62
7
  6
CONTINUOUS
 10
603.0806342903
 20
402.0784751422
 11
603.0806342903
 21
401.8784751516
  0
LINE
  5
285
100
AcDbEntity
  8
0
100
AcDbLine
 62
7
  6
CONTINUOUS
 10
603.0806342903
 20
110.9284751516
 11
603.0806342903
 21
110.6284751516
  0
LINE
  5
286
100
AcDbEntity
  8
0
100
AcDbLine
 62
7
  6
CONTINUOUS
 10
603.0806342903
 20
109.4507906139
 11
603.0806342971
 21
108.5570095774
  0
LINE
  5
287
100
AcDbEntity
  8
0
100
AcDbLine
 62
7
  6
CONTINUOUS
 10
604.5806342903
 20
127.9284751516
 11
604.5806342903
 21
117.5284751516
  0
LINE
  5
288
100
AcDbEntity
  8
0
100
AcDbLine
 62
7
  6
CONTINUOUS
 10
607.5806342903
 20
136.2284751516
 11
607.5806342903
 21
116.5284751516
  0
LINE
  5
289
100
AcDbEntity
  8
0
100
AcDbLine
 62
7
  6
CONTINUOUS
 10
607.6306342903
 20
138.1784751516
 11
607.6306342903
 21
137.8784751516
  0
LINE
  5
28A
100
AcDbEntity
  8
0
100
AcDbLine
 62
7
  6
CONTINUOUS
 10
607.6306342901
 20
138.6284751527
 11
607.6306342935
 21
138.9284751529
  0
LINE
  5
28B
100
AcDbEntity
  8
0
100
AcDbLine
 62
7
  6
CONTINUOUS
 10
608.3306342888
 20
395.4284751815
 11
608.3306342888
 21
139.6284751289
  0
LINE
  5
28C
100
AcDbEntity
  8
0
100
AcDbLine
 62
7
  6
CONTINUOUS
 10
608.3306342903
 20
137.1784751516
 11
608.3306342903
 21
116.1784751516
  0
LINE
  5
28D
100
AcDbEntity
  8
0
100
AcDbLine
 62
7
  6
CONTINUOUS
 10
608.6306342903
 20
395.4284751719
 11
608.6306342903
 21
139.6284751353
  0
LINE
  5
28E
100
AcDbEntity
  8
0
100
AcDbLine
 62
7
  6
CONTINUOUS
 10
608.6306342903
 20
116.1784751515
 11
608.6306342903
 21
137.1784751516
  0
LINE
  5
28F
100
AcDbEntity
  8
0
100
AcDbLine
 62
7
  6
CONTINUOUS
 10
609.0806342903
 20
395.8784751505
 11
609.0806342903
 21
139.1784751517
  0
LINE
  5
290
100
AcDbEntity
  8
0
100
AcDbLine
 62
7
  6
CONTINUOUS
 10
609.2806342809
 20
139.1784750374
 11
609.2806342809
 21
395.8784752108
  0
LINE
  5
291
100
AcDbEntity
  8
0
100
AcDbLine
 62
7
  6
CONTINUOUS
 10
609.808318828
 20
395.8784751516
 11
609.808318828
 21
116.1784751516
  0
LINE
  5
292
100
AcDbEntity
  8
0
100
AcDbLine
 62
7
  6
CONTINUOUS
 10
610.1071772373
 20
116.1784751528
 11
610.1071772373
 21
395.8784751581
  0
LINE
  5
293
100
AcDbEntity
  8
0
100
AcDbLine
 62
7
  6
CONTINUOUS
 10
610.7020998645
 20
395.8784751584
 11
610.7020998645
 21
116.1784751528
  0
LWPOLYLINE
  5
294
100
AcDbEntity
  8
0
100
AcDbPolyline
 62
7
  6
CONTINUOUS
 90
4
 70
0
 10
279.5739059865
 20
123.1634001278
 10
279.5364566992
 20
123.1331476876
 10
279.4985957613
 20
123.1054948433
 10
279.4605338427
 20
123.0804150661
  0
ARC
  5
295
100
AcDbEntity
  8
0
100
AcDbCircle
 62
7
  6
CONTINUOUS
 10
204.3806342903
 20
116.1784751516
 40
7.6214658591
100
AcDbArc
 50
180.0000000519
 51
270.0
  0
ARC
  5
296
100
AcDbEntity
  8
0
100
AcDbCircle
 62
7
  6
CONTINUOUS
 10
204.3806342903
 20
116.1784751516
 40
7.0265429471
100
AcDbArc
 50
180.0000000519
 51
270.0
  0
ARC
  5
297
100
AcDbEntity
  8
0
100
AcDbCircle
 62
7
  6
CONTINUOUS
 10
204.3806342903
 20
116.1784751516
 40
6.7276845377
100
AcDbArc
 50
180.0000000003
 51
270.0
  0
ARC
  5
298
100
AcDbEntity
  8
0
100
AcDbCircle
 62
7
  6
CONTINUOUS
 10
204.3806342903
 20
116.1784751516
 40
5.55
100
AcDbArc
 50
180.0000000192
 51
269.9999999982
  0
ARC
  5
299
100
AcDbEntity
  8
0
100
AcDbCircle
 62
7
  6
CONTINUOUS
 10
204.3806342903
 20
116.1784751516
 40
5.25
100
AcDbArc
 50
180.0000000006
 51
270.0
  0
ARC
  5
29A
100
AcDbEntity
  8
0
100
AcDbCircle
 62
7
  6
CONTINUOUS
 10
204.8806342903
 20
116.5284751516
 40
5.0
100
AcDbArc
 50
180.0
 51
270.0
  0
ARC
  5
29B
100
AcDbEntity
  8
0
100
AcDbCircle
 62
7
  6
CONTINUOUS
 10
199.8306342903
 20
137.1784751516
 40
1.0
100
AcDbArc
 50
90.0
 51
179.9999999798
  0
ARC
  5
29C
100
AcDbEntity
  8
0
100
AcDbCircle
 62
7
  6
CONTINUOUS
 10
199.3806342903
 20
139.1784751516
 40
1.0
100
AcDbArc
 50
180.0
 51
279.4947927963
  0
ARC
  5
29D
100
AcDbEntity
  8
0
100
AcDbCircle
 62
7
  6
CONTINUOUS
 10
199.8306342903
 20
139.6284751516
 40
1.0
100
AcDbArc
 50
179.9999999886
 51
270.0
  0
ARC
  5
29E
100
AcDbEntity
  8
0
100
AcDbCircle
 62
7
  6
CONTINUOUS
 10
200.8806342903
 20
136.2284751516
 40
1.0
100
AcDbArc
 50
90.0
 51
180.0
  0
ARC
  5
29F
100
AcDbEntity
  8
0
100
AcDbCircle
 62
7
  6
CONTINUOUS
 10
199.8306342903
 20
139.6284751516
 40
0.7
100
AcDbArc
 50
180.0000000589
 51
269.9999994811
  0
ARC
  5
2A0
100
AcDbEntity
  8
0
100
AcDbCircle
 62
7
  6
CONTINUOUS
 10
199.8306342903
 20
137.1784751516
 40
0.7
100
AcDbArc
 50
90.0
 51
180.0
  0
ARC
  5
2A1
100
AcDbEntity
  8
0
100
AcDbCircle
 62
7
  6
CONTINUOUS
 10
221.6142216826
 20
123.3343572248
 40
3.9690849604
100
AcDbArc
 50
175.6285833629
 51
178.0306017996
  0
ARC
  5
2A2
100
AcDbEntity
  8
0
100
AcDbCircle
 62
7
  6
CONTINUOUS
 10
215.9806342903
 20
118.3784751516
 40
3.0
100
AcDbArc
 50
180.0
 51
270.0
  0
ARC
  5
2A3
100
AcDbEntity
  8
0
100
AcDbCircle
 62
7
  6
CONTINUOUS
 10
216.5806342903
 20
123.4284751516
 40
1.5
100
AcDbArc
 50
180.0
 51
270.0
  0
ARC
  5
2A4
100
AcDbEntity
  8
0
100
AcDbCircle
 62
7
  6
CONTINUOUS
 10
217.6516942199
 20
133.2881902778
 40
9.4597299834
100
AcDbArc
 50
268.0470499424
 51
269.8975836383
  0
ARC
  5
2A5
100
AcDbEntity
  8
0
100
AcDbCircle
 62
7
  6
CONTINUOUS
 10
215.9806342903
 20
132.8784751516
 40
3.0
100
AcDbArc
 50
90.0
 51
180.0
  0
ARC
  5
2A6
100
AcDbEntity
  8
0
100
AcDbCircle
 62
7
  6
CONTINUOUS
 10
216.5806342903
 20
132.3284751516
 40
1.5
100
AcDbArc
 50
90.0
 51
180.0
  0
ARC
  5
2A7
100
AcDbEntity
  8
0
100
AcDbCircle
 62
7
  6
CONTINUOUS
 10
279.5159005646
 20
45.0740545521
 40
86.7546627098
100
AcDbArc
 50
89.7683436933
 51
90.0905734246
  0
CIRCLE
  5
2A8
100
AcDbEntity
  8
0
100
AcDbCircle
 62
7
  6
CONTINUOUS
 10
272.6306342903
 20
127.8784751516
 40
3.3
  0
ARC
  5
2A9
100
AcDbEntity
  8
0
100
AcDbCircle
 62
7
  6
CONTINUOUS
 10
280.4806342903
 20
132.8784751516
 40
3.0
100
AcDbArc
 50
0.0
 51
90.0
  0
ARC
  5
2AA
100
AcDbEntity
  8
0
100
AcDbCircle
 62
7
  6
CONTINUOUS
 10
280.4806342903
 20
118.3784751516
 40
3.0
100
AcDbArc
 50
270.0
 51
360.0
  0
ARC
  5
2AB
100
AcDbEntity
  8
0
100
AcDbCircle
 62
7
  6
CONTINUOUS
 10
272.6306342903
 20
127.8784751516
 40
3.0
100
AcDbArc
 50
189.594068227
 51
183.1981002166
  0
ARC
  5
2AC
100
AcDbEntity
  8
0
100
AcDbCircle
 62
7
  6
CONTINUOUS
 10
272.6306342903
 20
127.8784751516
 40
2.5
100
AcDbArc
 50
191.5369590328
 51
348.4390279333
  0
ARC
  5
2AD
100
AcDbEntity
  8
0
100
AcDbCircle
 62
7
  6
CONTINUOUS
 10
272.6306342903
 20
127.8784751516
 40
2.5
100
AcDbArc
 50
11.5369590328
 51
168.4390279333
  0
ARC
  5
2AE
100
AcDbEntity
  8
0
100
AcDbCircle
 62
7
  6
CONTINUOUS
 10
279.8806342903
 20
132.3284751516
 40
1.5
100
AcDbArc
 50
0.0
 51
90.0
  0
ARC
  5
2AF
100
AcDbEntity
  8
0
100
AcDbCircle
 62
7
  6
CONTINUOUS
 10
279.8806342903
 20
123.4284751516
 40
1.5
100
AcDbArc
 50
270.0
 51
360.0
  0
ARC
  5
2B0
100
AcDbEntity
  8
0
100
AcDbCircle
 62
7
  6
CONTINUOUS
 10
278.9306342903
 20
131.8284751516
 40
1.0
100
AcDbArc
 50
58.001324242
 51
90.0
  0
ARC
  5
2B1
100
AcDbEntity
  8
0
100
AcDbCircle
 62
7
  6
CONTINUOUS
 10
278.9306342903
 20
123.9284751516
 40
1.0
100
AcDbArc
 50
270.0
 51
301.9986757495
  0
ARC
  5
2B2
100
AcDbEntity
  8
0
100
AcDbCircle
 62
7
  6
CONTINUOUS
 10
279.7789466196
 20
123.8281108491
 40
0.7931047321
100
AcDbArc
 50
346.4345947808
 51
0.0263180884
  0
ARC
  5
2B3
100
AcDbEntity
  8
0
100
AcDbCircle
 62
7
  6
CONTINUOUS
 10
278.9306342901
 20
131.8284751511
 40
0.1000073905
100
AcDbArc
 50
359.9677926077
 51
89.9999998419
  0
ARC
  5
2B4
100
AcDbEntity
  8
0
100
AcDbCircle
 62
7
  6
CONTINUOUS
 10
278.9306342901
 20
123.9284751521
 40
0.1000072996
100
AcDbArc
 50
270.0000001147
 51
0.0322258429
  0
ARC
  5
2B5
100
AcDbEntity
  8
0
100
AcDbCircle
 62
7
  6
CONTINUOUS
 10
204.3806342903
 20
395.8784751516
 40
7.6214658591
100
AcDbArc
 50
90.0000000519
 51
180.0
  0
ARC
  5
2B6
100
AcDbEntity
  8
0
100
AcDbCircle
 62
7
  6
CONTINUOUS
 10
204.3806342903
 20
395.8784751516
 40
7.0265429471
100
AcDbArc
 50
90.0000000519
 51
180.0
  0
ARC
  5
2B7
100
AcDbEntity
  8
0
100
AcDbCircle
 62
7
  6
CONTINUOUS
 10
204.3806342903
 20
395.8784751516
 40
6.7276845377
100
AcDbArc
 50
90.0000000003
 51
180.0
  0
ARC
  5
2B8
100
AcDbEntity
  8
0
100
AcDbCircle
 62
7
  6
CONTINUOUS
 10
204.3806342903
 20
395.8784751516
 40
6.2
100
AcDbArc
 50
90.0000005428
 51
179.9999999962
  0
ARC
  5
2B9
100
AcDbEntity
  8
0
100
AcDbCircle
 62
7
  6
CONTINUOUS
 10
204.3806342903
 20
395.8784751516
 40
6.0
100
AcDbArc
 50
89.9999999756
 51
179.9999999987
  0
ARC
  5
2BA
100
AcDbEntity
  8
0
100
AcDbCircle
 62
7
  6
CONTINUOUS
 10
204.8306342903
 20
395.4284751516
 40
6.0
100
AcDbArc
 50
90.0000001939
 51
180.0
  0
ARC
  5
2BB
100
AcDbEntity
  8
0
100
AcDbCircle
 62
7
  6
CONTINUOUS
 10
204.8306342903
 20
395.4284751516
 40
5.7
100
AcDbArc
 50
90.0000002919
 51
180.0000002666
  0
ARC
  5
2BC
100
AcDbEntity
  8
0
100
AcDbCircle
 62
7
  6
CONTINUOUS
 10
233.6306342903
 20
378.0284751516
 40
3.0
100
AcDbArc
 50
90.0
 51
180.0
  0
ARC
  5
2BD
100
AcDbEntity
  8
0
100
AcDbCircle
 62
7
  6
CONTINUOUS
 10
248.9306342903
 20
378.0284751516
 40
3.0
100
AcDbArc
 50
0.0
 51
90.0
  0
ARC
  5
2BE
100
AcDbEntity
  8
0
100
AcDbCircle
 62
7
  6
CONTINUOUS
 10
248.9306342903
 20
374.8284751516
 40
3.0
100
AcDbArc
 50
270.0
 51
360.0
  0
ARC
  5
2BF
100
AcDbEntity
  8
0
100
AcDbCircle
 62
7
  6
CONTINUOUS
 10
233.6306342903
 20
374.8284751516
 40
3.0
100
AcDbArc
 50
180.0
 51
270.0
  0
ARC
  5
2C0
100
AcDbEntity
  8
0
100
AcDbCircle
 62
7
  6
CONTINUOUS
 10
566.5806342903
 20
117.5284751516
 40
3.0
100
AcDbArc
 50
180.0
 51
270.0
  0
ARC
  5
2C1
100
AcDbEntity
  8
0
100
AcDbCircle
 62
7
  6
CONTINUOUS
 10
566.5806342903
 20
127.9284751516
 40
3.0
100
AcDbArc
 50
90.0
 51
180.0
  0
ARC
  5
2C2
100
AcDbEntity
  8
0
100
AcDbCircle
 62
7
  6
CONTINUOUS
 10
603.0806342903
 20
116.1784751516
 40
7.6214658591
100
AcDbArc
 50
270.0000000519
 51
360.0
  0
ARC
  5
2C3
100
AcDbEntity
  8
0
100
AcDbCircle
 62
7
  6
CONTINUOUS
 10
603.0806342903
 20
116.1784751516
 40
7.0265429471
100
AcDbArc
 50
270.0000000519
 51
360.0
  0
ARC
  5
2C4
100
AcDbEntity
  8
0
100
AcDbCircle
 62
7
  6
CONTINUOUS
 10
603.0806342903
 20
116.1784751516
 40
6.7276845377
100
AcDbArc
 50
270.0000000003
 51
360.0
  0
ARC
  5
2C5
100
AcDbEntity
  8
0
100
AcDbCircle
 62
7
  6
CONTINUOUS
 10
603.0806342903
 20
116.1784751516
 40
5.55
100
AcDbArc
 50
270.0000000192
 51
360.0
  0
ARC
  5
2C6
100
AcDbEntity
  8
0
100
AcDbCircle
 62
7
  6
CONTINUOUS
 10
603.0806342903
 20
116.1784751516
 40
5.25
100
AcDbArc
 50
270.0
 51
360.0
  0
ARC
  5
2C7
100
AcDbEntity
  8
0
100
AcDbCircle
 62
7
  6
CONTINUOUS
 10
602.5806342903
 20
116.5284751516
 40
5.0
100
AcDbArc
 50
270.0
 51
360.0
  0
ARC
  5
2C8
100
AcDbEntity
  8
0
100
AcDbCircle
 62
7
  6
CONTINUOUS
 10
601.5806342903
 20
117.5284751516
 40
3.0
100
AcDbArc
 50
270.0
 51
360.0
  0
ARC
  5
2C9
100
AcDbEntity
  8
0
100
AcDbCircle
 62
7
  6
CONTINUOUS
 10
601.5806342903
 20
127.9284751516
 40
3.0
100
AcDbArc
 50
0.0
 51
90.0
  0
ARC
  5
2CA
100
AcDbEntity
  8
0
100
AcDbCircle
 62
7
  6
CONTINUOUS
 10
608.0806342903
 20
139.1784751516
 40
1.2
100
AcDbArc
 50
276.6989269546
 51
359.9999945469
  0
ARC
  5
2CB
100
AcDbEntity
  8
0
100
AcDbCircle
 62
7
  6
CONTINUOUS
 10
608.0806342903
 20
139.1784751516
 40
1.0
100
AcDbArc
 50
270.0
 51
360.0
  0
ARC
  5
2CC
100
AcDbEntity
  8
0
100
AcDbCircle
 62
7
  6
CONTINUOUS
 10
607.6306342903
 20
137.1784751516
 40
1.0
100
AcDbArc
 50
0.0
 51
90.0
  0
ARC
  5
2CD
100
AcDbEntity
  8
0
100
AcDbCircle
 62
7
  6
CONTINUOUS
 10
607.6306342903
 20
139.6284751516
 40
1.0
100
AcDbArc
 50
269.9999999885
 51
360.0
  0
ARC
  5
2CE
100
AcDbEntity
  8
0
100
AcDbCircle
 62
7
  6
CONTINUOUS
 10
606.5806342903
 20
136.2284751516
 40
1.0
100
AcDbArc
 50
0.0
 51
90.0
  0
ARC
  5
2CF
100
AcDbEntity
  8
0
100
AcDbCircle
 62
7
  6
CONTINUOUS
 10
607.6306342903
 20
139.6284751516
 40
0.7
100
AcDbArc
 50
270.0000013593
 51
0.0000002035
  0
ARC
  5
2D0
100
AcDbEntity
  8
0
100
AcDbCircle
 62
7
  6
CONTINUOUS
 10
607.6306342903
 20
137.1784751516
 40
0.7
100
AcDbArc
 50
0.0
 51
90.0
  0
ARC
  5
2D1
100
AcDbEntity
  8
0
100
AcDbCircle
 62
7
  6
CONTINUOUS
 10
603.0806342903
 20
395.8784751516
 40
7.6214658591
100
AcDbArc
 50
0.0000000519
 51
90.0
  0
ARC
  5
2D2
100
AcDbEntity
  8
0
100
AcDbCircle
 62
7
  6
CONTINUOUS
 10
603.0806342903
 20
395.8784751516
 40
7.0265429471
100
AcDbArc
 50
0.0000000519
 51
90.0
  0
ARC
  5
2D3
100
AcDbEntity
  8
0
100
AcDbCircle
 62
7
  6
CONTINUOUS
 10
603.0806342903
 20
395.8784751516
 40
6.7276845377
100
AcDbArc
 50
0.0000000003
 51
90.0
  0
ARC
  5
2D4
100
AcDbEntity
  8
0
100
AcDbCircle
 62
7
  6
CONTINUOUS
 10
603.0806342903
 20
395.8784751516
 40
6.2
100
AcDbArc
 50
0.0000005466
 51
89.9999986313
  0
ARC
  5
2D5
100
AcDbEntity
  8
0
100
AcDbCircle
 62
7
  6
CONTINUOUS
 10
603.0806342903
 20
395.8784751516
 40
6.0
100
AcDbArc
 50
0.0
 51
89.9999999987
  0
ARC
  5
2D6
100
AcDbEntity
  8
0
100
AcDbCircle
 62
7
  6
CONTINUOUS
 10
602.6306342903
 20
395.4284751516
 40
6.0
100
AcDbArc
 50
0.0000001938
 51
90.0
  0
ARC
  5
2D7
100
AcDbEntity
  8
0
100
AcDbCircle
 62
7
  6
CONTINUOUS
 10
602.6306342903
 20
395.4284751516
 40
5.7
100
AcDbArc
 50
0.0000006288
 51
90.0000004532
  0
SPLINE
  5
2D8
100
AcDbEntity
  8
0
100
AcDbSpline
 62
7
  6
CONTINUOUS
 70
0
 71
3
 72
8
 73
4
 74
0
 42
0.0000001
 43
0.0000001
 44
0.0000000001
 40
0.0
 40
0.0
 40
0.0
 40
0.0
 40
1.0
 40
1.0
 40
1.0
 40
1.0
 10
278.7335776639
 20
122.628473889
 30
0.0
 10
278.9337739535
 20
122.6284696534
 30
0.0
 10
279.1352844836
 20
122.6497319299
 30
0.0
 10
279.3306342147
 20
122.6935159103
 30
0.0
  0
SPLINE
  5
2D9
100
AcDbEntity
  8
0
100
AcDbSpline
 62
7
  6
CONTINUOUS
 70
0
 71
3
 72
8
 73
4
 74
0
 42
0.0000001
 43
0.0000001
 44
0.0000000001
 40
0.0
 40
0.0
 40
0.0
 40
0.0
 40
1.0
 40
1.0
 40
1.0
 40
1.0
 10
279.8666630699
 20
123.9289937322
 30
0.0
 10
279.8667501357
 20
123.7024453389
 30
0.0
 10
279.8062713253
 20
123.2907265307
 30
0.0
 10
279.5807627449
 20
123.3124074504
 30
0.0
  0
SPLINE
  5
2DA
100
AcDbEntity
  8
0
100
AcDbSpline
 62
7
  6
CONTINUOUS
 70
0
 71
3
 72
8
 73
4
 74
0
 42
0.0000001
 43
0.0000001
 44
0.0000000001
 40
0.0
 40
0.0
 40
0.0
 40
0.0
 40
1.0
 40
1.0
 40
1.0
 40
1.0
 10
279.5739021166
 20
132.5935526
 30
0.0
 10
279.7488910389
 20
132.4390490578
 30
0.0
 10
279.8838371969
 20
132.1312268717
 30
0.0
 10
279.7774072768
 20
131.9234646529
 30
0.0
  0
SPLINE
  5
2DB
100
AcDbEntity
  8
0
100
AcDbSpline
 62
7
  6
CONTINUOUS
 70
0
 71
3
 72
8
 73
4
 74
0
 42
0.0000001
 43
0.0000001
 44
0.0000000001
 40
0.0
 40
0.0
 40
0.0
 40
0.0
 40
1.0
 40
1.0
 40
1.0
 40
1.0
 10
216.5157367756
 20
122.8050482529
 30
0.0
 10
216.7012473588
 20
122.6916877607
 30
0.0
 10
216.9261911539
 20
122.6284536897
 30
0.0
 10
217.1435957926
 20
122.6284808333
 30
0.0
  0
SPLINE
  5
2DC
100
AcDbEntity
  8
0
100
AcDbSpline
 62
7
  6
CONTINUOUS
 70
0
 71
3
 72
8
 73
4
 74
0
 42
0.0000001
 43
0.0000001
 44
0.0000000001
 40
0.0
 40
0.0
 40
0.0
 40
0.0
 40
1.0
 40
1.0
 40
1.0
 40
1.0
 10
217.7132288504
 20
132.8284751516
 30
0.0
 10
217.4858951461
 20
132.8284751516
 30
0.0
 10
217.2453227233
 20
132.7414765263
 30
0.0
 10
217.0731651186
 20
132.5930097885
 30
0.0
  0
SPLINE
  5
2DD
100
AcDbEntity
  8
0
100
AcDbSpline
 62
7
  6
CONTINUOUS
 70
0
 71
3
 72
8
 73
4
 74
0
 42
0.0000001
 43
0.0000001
 44
0.0000000001
 40
0.0
 40
0.0
 40
0.0
 40
0.0
 40
1.0
 40
1.0
 40
1.0
 40
1.0
 10
217.0731651186
 20
132.5930097885
 30
0.0
 10
216.8611821775
 20
132.4101981386
 30
0.0
 10
216.7232207838
 20
132.1083867083
 30
0.0
 10
216.7257480933
 20
131.8284751519
 30
0.0
  0
SPLINE
  5
2DE
100
AcDbEntity
  8
0
100
AcDbSpline
 62
7
  6
CONTINUOUS
 70
0
 71
3
 72
8
 73
4
 74
0
 42
0.0000001
 43
0.0000001
 44
0.0000000001
 40
0.0
 40
0.0
 40
0.0
 40
0.0
 40
1.0
 40
1.0
 40
1.0
 40
1.0
 10
216.7257480933
 20
123.9284751514
 30
0.0
 10
216.7232197447
 20
123.6486173837
 30
0.0
 10
216.8611191906
 20
123.3468692766
 30
0.0
 10
217.0730299862
 20
123.1640563192
 30
0.0
  0
SPLINE
  5
2DF
100
AcDbEntity
  8
0
100
AcDbSpline
 62
7
  6
CONTINUOUS
 70
0
 71
3
 72
9
 73
5
 74
0
 42
0.0000001
 43
0.0000001
 44
0.0000000001
 40
0.0
 40
0.0
 40
0.0
 40
0.0
 40
0.5007749884
 40
1.0
 40
1.0
 40
1.0
 40
1.0
 10
217.0730299862
 20
123.1640563192
 30
0.0
 10
217.1252379967
 20
123.119017081
 30
0.0
 10
217.2400784008
 20
123.0407927682
 30
0.0
 10
217.3685789704
 20
122.9884248337
 30
0.0
 10
217.4345274912
 20
122.9690439813
 30
0.0
  0
SPLINE
  5
2E0
100
AcDbEntity
  8
0
100
AcDbSpline
 62
7
  6
CONTINUOUS
 70
0
 71
3
 72
9
 73
5
 74
0
 42
0.0000001
 43
0.0000001
 44
0.0000000001
 40
0.0
 40
0.0
 40
0.0
 40
0.0
 40
0.5022384279
 40
1.0
 40
1.0
 40
1.0
 40
1.0
 10
217.4345274912
 20
122.9690439813
 30
0.0
 10
217.4798794903
 20
122.9557160038
 30
0.0
 10
217.5721499707
 20
122.935470793
 30
0.0
 10
217.6663803668
 20
122.9284751516
 30
0.0
 10
217.7132288635
 20
122.9284751516
 30
0.0
  0
SPLINE
  5
2E1
100
AcDbEntity
  8
0
100
AcDbSpline
 62
7
  6
CONTINUOUS
 70
0
 71
3
 72
8
 73
4
 74
0
 42
0.0000001
 43
0.0000001
 44
0.0000000001
 40
0.0
 40
0.0
 40
0.0
 40
0.0
 40
1.0
 40
1.0
 40
1.0
 40
1.0
 10
215.9411290679
 20
123.8284751514
 30
0.0
 10
215.9411465205
 20
123.5612081472
 30
0.0
 10
215.9813576157
 20
123.2122314145
 30
0.0
 10
216.2094309835
 20
123.0728965992
 30
0.0
  0
SPLINE
  5
2E2
100
AcDbEntity
  8
0
100
AcDbSpline
 62
7
  6
CONTINUOUS
 70
0
 71
3
 72
9
 73
5
 74
0
 42
0.0000001
 43
0.0000001
 44
0.0000000001
 40
0.0
 40
0.0
 40
0.0
 40
0.0
 40
0.4585808713
 40
1.0
 40
1.0
 40
1.0
 40
1.0
 10
216.2094309835
 20
123.0728965992
 30
0.0
 10
216.2484942576
 20
123.0490320237
 30
0.0
 10
216.3438458471
 20
123.0125790078
 30
0.0
 10
216.4452328613
 20
123.0094053674
 30
0.0
 10
216.4991074114
 20
123.0136967252
 30
0.0
  0
SPLINE
  5
2E3
100
AcDbEntity
  8
0
100
AcDbSpline
 62
7
  6
CONTINUOUS
 70
0
 71
3
 72
8
 73
4
 74
0
 42
0.0000001
 43
0.0000001
 44
0.0000000001
 40
0.0
 40
0.0
 40
0.0
 40
0.0
 40
1.0
 40
1.0
 40
1.0
 40
1.0
 10
217.3056420084
 20
122.6284896875
 30
0.0
 10
217.0005405818
 20
122.6310690283
 30
0.0
 10
216.6769893871
 20
122.7672429734
 30
0.0
 10
216.4620981031
 20
122.983842303
 30
0.0
  0
SPLINE
  5
2E4
100
AcDbEntity
  8
0
100
AcDbSpline
 62
7
  6
CONTINUOUS
 70
0
 71
3
 72
8
 73
4
 74
0
 42
0.0000001
 43
0.0000001
 44
0.0000000001
 40
0.0
 40
0.0
 40
0.0
 40
0.0
 40
1.0
 40
1.0
 40
1.0
 40
1.0
 10
216.4620981031
 20
122.983842303
 30
0.0
 10
216.2476230206
 20
123.2000221228
 30
0.0
 10
216.1139676238
 20
123.523953764
 30
0.0
 10
216.1139676237
 20
123.8284751516
 30
0.0
  0
SPLINE
  5
2E5
100
AcDbEntity
  8
0
100
AcDbSpline
 62
7
  6
CONTINUOUS
 70
0
 71
3
 72
8
 73
4
 74
0
 42
0.0000001
 43
0.0000001
 44
0.0000000001
 40
0.0
 40
0.0
 40
0.0
 40
0.0
 40
1.0
 40
1.0
 40
1.0
 40
1.0
 10
216.1139676236
 20
131.9284911092
 30
0.0
 10
216.1139676211
 20
132.2330064711
 30
0.0
 10
216.247624137
 20
132.5569304978
 30
0.0
 10
216.4620955713
 20
132.773105449
 30
0.0
  0
SPLINE
  5
2E6
100
AcDbEntity
  8
0
100
AcDbSpline
 62
7
  6
CONTINUOUS
 70
0
 71
3
 72
8
 73
4
 74
0
 42
0.0000001
 43
0.0000001
 44
0.0000000001
 40
0.0
 40
0.0
 40
0.0
 40
0.0
 40
1.0
 40
1.0
 40
1.0
 40
1.0
 10
216.4620955713
 20
132.773105449
 30
0.0
 10
216.5866819613
 20
132.8986814115
 30
0.0
 10
216.7444803627
 20
132.9963271858
 30
0.0
 10
216.9108990391
 20
133.0562931352
 30
0.0
  0
SPLINE
  5
2E7
100
AcDbEntity
  8
0
100
AcDbSpline
 62
7
  6
CONTINUOUS
 70
0
 71
3
 72
8
 73
4
 74
0
 42
0.0000001
 43
0.0000001
 44
0.0000000001
 40
0.0
 40
0.0
 40
0.0
 40
0.0
 40
1.0
 40
1.0
 40
1.0
 40
1.0
 10
217.6347884238
 20
131.9284752512
 30
0.0
 10
217.4082018083
 20
131.9280119952
 30
0.0
 10
217.1809499366
 20
131.923354072
 30
0.0
 10
216.9556604793
 20
131.8991390081
 30
0.0
  0
SPLINE
  5
2E8
100
AcDbEntity
  8
0
100
AcDbSpline
 62
7
  6
CONTINUOUS
 70
0
 71
3
 72
9
 73
5
 74
0
 42
0.0000001
 43
0.0000001
 44
0.0000000001
 40
0.0
 40
0.0
 40
0.0
 40
0.0
 40
0.7665179848
 40
1.0
 40
1.0
 40
1.0
 40
1.0
 10
216.9556604793
 20
131.8991390081
 30
0.0
 10
216.8928208172
 20
131.8923847354
 30
0.0
 10
216.8408216483
 20
131.901999181
 30
0.0
 10
216.7134261397
 20
131.8432663846
 30
0.0
 10
216.7257480933
 20
131.8284751518
 30
0.0
  0
SPLINE
  5
2E9
100
AcDbEntity
  8
0
100
AcDbSpline
 62
7
  6
CONTINUOUS
 70
0
 71
3
 72
9
 73
5
 74
0
 42
0.0000001
 43
0.0000001
 44
0.0000000001
 40
0.0
 40
0.0
 40
0.0
 40
0.0
 40
0.2335139002
 40
1.0
 40
1.0
 40
1.0
 40
1.0
 10
216.7257480933
 20
123.9284751515
 30
0.0
 10
216.7133778672
 20
123.9136259187
 30
0.0
 10
216.8414541763
 20
123.8548841555
 30
0.0
 10
216.8935409277
 20
123.8644663227
 30
0.0
 10
216.9566176236
 20
123.8577050036
 30
0.0
  0
SPLINE
  5
2EA
100
AcDbEntity
  8
0
100
AcDbSpline
 62
7
  6
CONTINUOUS
 70
0
 71
3
 72
9
 73
5
 74
0
 42
0.0000001
 43
0.0000001
 44
0.0000000001
 40
0.0
 40
0.0
 40
0.0
 40
0.0
 40
0.4580561164
 40
1.0
 40
1.0
 40
1.0
 40
1.0
 10
216.9566176236
 20
123.8577050036
 30
0.0
 10
217.0133224125
 20
123.8516267022
 30
0.0
 10
217.1375041421
 20
123.8420478058
 30
0.0
 10
217.2618842565
 20
123.8362874349
 30
0.0
 10
217.3293178899
 20
123.8339549908
 30
0.0
  0
SPLINE
  5
2EB
100
AcDbEntity
  8
0
100
AcDbSpline
 62
7
  6
CONTINUOUS
 70
0
 71
3
 72
9
 73
5
 74
0
 42
0.0000001
 43
0.0000001
 44
0.0000000001
 40
0.0
 40
0.0
 40
0.0
 40
0.0
 40
0.2853222583
 40
1.0
 40
1.0
 40
1.0
 40
1.0
 10
217.7188904448
 20
132.8284751484
 30
0.0
 10
217.6766228303
 20
132.8285487448
 30
0.0
 10
217.6978252741
 20
132.5961050774
 30
0.0
 10
217.6526895474
 20
132.4970246698
 30
0.0
 10
217.6456697495
 20
132.3913851886
 30
0.0
  0
SPLINE
  5
2EC
100
AcDbEntity
  8
0
100
AcDbSpline
 62
7
  6
CONTINUOUS
 70
0
 71
3
 72
9
 73
5
 74
0
 42
0.0000001
 43
0.0000001
 44
0.0000000001
 40
0.0
 40
0.0
 40
0.0
 40
0.0
 40
0.483734585
 40
1.0
 40
1.0
 40
1.0
 40
1.0
 10
217.6456697495
 20
132.3913851886
 30
0.0
 10
217.6407186217
 20
132.3168766933
 30
0.0
 10
217.6352801342
 20
132.1625389612
 30
0.0
 10
217.6345340626
 20
132.00816937
 30
0.0
 10
217.6347850147
 20
131.9284752511
 30
0.0
  0
SPLINE
  5
2ED
100
AcDbEntity
  8
0
100
AcDbSpline
 62
7
  6
CONTINUOUS
 70
0
 71
3
 72
9
 73
5
 74
0
 42
0.0000001
 43
0.0000001
 44
0.0000000001
 40
0.0
 40
0.0
 40
0.0
 40
0.0
 40
0.8381159139
 40
1.0
 40
1.0
 40
1.0
 40
1.0
 10
279.0306342903
 20
123.9285832294
 30
0.0
 10
279.2100057156
 20
123.9284111519
 30
0.0
 10
279.4240228282
 20
123.9282673086
 30
0.0
 10
279.6380410155
 20
123.9283906371
 30
0.0
 10
279.6726866964
 20
123.9285471079
 30
0.0
  0
LINE
  5
2EE
100
AcDbEntity
  8
0
100
AcDbLine
 62
7
  6
CONTINUOUS
 10
279.3787584628
 20
131.8286088645
 11
279.1503063701
 21
131.8281922524
  0
SPLINE
  5
2EF
100
AcDbEntity
  8
0
100
AcDbSpline
 62
7
  6
CONTINUOUS
 70
0
 71
3
 72
9
 73
5
 74
0
 42
0.0000001
 43
0.0000001
 44
0.0000000001
 40
0.0
 40
0.0
 40
0.0
 40
0.0
 40
0.2584605716
 40
1.0
 40
1.0
 40
1.0
 40
1.0
 10
217.7158343052
 20
122.9287639328
 30
0.0
 10
217.668327389
 20
122.928819646
 30
0.0
 10
217.6665897432
 20
123.2062718717
 30
0.0
 10
217.6429042162
 20
123.3345341493
 30
0.0
 10
217.647481164
 20
123.4707576672
 30
0.0
  0
SPLINE
  5
2F0
100
AcDbEntity
  8
0
100
AcDbSpline
 62
7
  6
CONTINUOUS
 70
0
 71
3
 72
8
 73
4
 74
0
 42
0.0000001
 43
0.0000001
 44
0.0000000001
 40
0.0
 40
0.0
 40
0.0
 40
0.0
 40
1.0
 40
1.0
 40
1.0
 40
1.0
 10
199.2415687348
 20
137.9865604016
 30
0.0
 10
198.8728785206
 20
138.0295769927
 30
0.0
 10
198.496049116
 20
138.2864403867
 30
0.0
 10
198.3216702879
 20
138.6141215206
 30
0.0
  0
SPLINE
  5
2F1
100
AcDbEntity
  8
0
100
AcDbSpline
 62
7
  6
CONTINUOUS
 70
0
 71
3
 72
8
 73
4
 74
0
 42
0.0000001
 43
0.0000001
 44
0.0000000001
 40
0.0
 40
0.0
 40
0.0
 40
0.0
 40
1.0
 40
1.0
 40
1.0
 40
1.0
 10
198.3216702879
 20
138.6141215206
 30
0.0
 10
198.2314234068
 20
138.7837074769
 30
0.0
 10
198.1806342903
 20
138.9808055485
 30
0.0
 10
198.1806342903
 20
139.1729094166
 30
0.0
  0
SPLINE
  5
2F2
100
AcDbEntity
  8
0
100
AcDbSpline
 62
7
  6
CONTINUOUS
 70
0
 71
3
 72
8
 73
4
 74
0
 42
0.0000001
 43
0.0000001
 44
0.0000000001
 40
0.0
 40
0.0
 40
0.0
 40
0.0
 40
1.0
 40
1.0
 40
1.0
 40
1.0
 10
279.5982189986
 20
132.9902055568
 30
0.0
 10
279.817768255
 20
132.9140865636
 30
0.0
 10
280.0265870065
 20
132.7923410859
 30
0.0
 10
280.1988956855
 20
132.6364382434
 30
0.0
  0
SPLINE
  5
2F3
100
AcDbEntity
  8
0
100
AcDbSpline
 62
7
  6
CONTINUOUS
 70
0
 71
3
 72
8
 73
4
 74
0
 42
0.0000001
 43
0.0000001
 44
0.0000000001
 40
0.0
 40
0.0
 40
0.0
 40
0.0
 40
1.0
 40
1.0
 40
1.0
 40
1.0
 10
280.1988956855
 20
132.6364382434
 30
0.0
 10
280.3967070477
 20
132.4574608765
 30
0.0
 10
280.5703775875
 20
132.1952323764
 30
0.0
 10
280.5720556466
 20
131.9284751516
 30
0.0
  0
SPLINE
  5
2F4
100
AcDbEntity
  8
0
100
AcDbSpline
 62
7
  6
CONTINUOUS
 70
0
 71
3
 72
9
 73
5
 74
0
 42
0.0000001
 43
0.0000001
 44
0.0000000001
 40
0.0
 40
0.0
 40
0.0
 40
0.0
 40
0.4991526865
 40
1.0
 40
1.0
 40
1.0
 40
1.0
 10
216.6540068434
 20
133.0124777494
 30
0.0
 10
216.5897345425
 20
132.9812712071
 30
0.0
 10
216.4662182673
 20
132.907415544
 30
0.0
 10
216.3565657437
 20
132.8143177809
 30
0.0
 10
216.3058356628
 20
132.7636625129
 30
0.0
  0
SPLINE
  5
2F5
100
AcDbEntity
  8
0
100
AcDbSpline
 62
7
  6
CONTINUOUS
 70
0
 71
3
 72
8
 73
4
 74
0
 42
0.0000001
 43
0.0000001
 44
0.0000000001
 40
0.0
 40
0.0
 40
0.0
 40
0.0
 40
1.0
 40
1.0
 40
1.0
 40
1.0
 10
216.3058356628
 20
132.7636625129
 30
0.0
 10
216.0908723979
 20
132.54901626
 30
0.0
 10
215.9411278036
 20
132.232255028
 30
0.0
 10
215.9411412314
 20
131.9284751423
 30
0.0
  0
SPLINE
  5
2F6
100
AcDbEntity
  8
0
100
AcDbSpline
 62
7
  6
CONTINUOUS
 70
0
 71
3
 72
8
 73
4
 74
0
 42
0.0000001
 43
0.0000001
 44
0.0000000001
 40
0.0
 40
0.0
 40
0.0
 40
0.0
 40
1.0
 40
1.0
 40
1.0
 40
1.0
 10
280.7134770028
 20
123.8284751501
 30
0.0
 10
280.7134724759
 20
123.2757933428
 30
0.0
 10
280.1446502439
 20
122.7641764137
 30
0.0
 10
279.6240740452
 20
122.5785488254
 30
0.0
  0
SPLINE
  5
2F7
100
AcDbEntity
  8
0
100
AcDbSpline
 62
7
  6
CONTINUOUS
 70
0
 71
3
 72
8
 73
4
 74
0
 42
0.0000001
 43
0.0000001
 44
0.0000000001
 40
0.0
 40
0.0
 40
0.0
 40
0.0
 40
1.0
 40
1.0
 40
1.0
 40
1.0
 10
279.6240740452
 20
122.5785488254
 30
0.0
 10
279.3405425751
 20
122.4774468865
 30
0.0
 10
279.0345957929
 20
122.4284689529
 30
0.0
 10
278.7335780251
 20
122.4284751516
 30
0.0
  0
SPLINE
  5
2F8
100
AcDbEntity
  8
0
100
AcDbSpline
 62
7
  6
CONTINUOUS
 70
0
 71
3
 72
8
 73
4
 74
0
 42
0.0000001
 43
0.0000001
 44
0.0000000001
 40
0.0
 40
0.0
 40
0.0
 40
0.0
 40
1.0
 40
1.0
 40
1.0
 40
1.0
 10
215.7413932826
 20
131.9286937715
 30
0.0
 10
215.7520917249
 20
132.2864001932
 30
0.0
 10
215.9002538134
 20
132.6673929462
 30
0.0
 10
216.1538375307
 20
132.9199075777
 30
0.0
  0
SPLINE
  5
2F9
100
AcDbEntity
  8
0
100
AcDbSpline
 62
7
  6
CONTINUOUS
 70
0
 71
3
 72
8
 73
4
 74
0
 42
0.0000001
 43
0.0000001
 44
0.0000000001
 40
0.0
 40
0.0
 40
0.0
 40
0.0
 40
1.0
 40
1.0
 40
1.0
 40
1.0
 10
216.1538375307
 20
132.9199075777
 30
0.0
 10
216.333491687
 20
133.0988043285
 30
0.0
 10
216.5721688226
 20
133.2316573865
 30
0.0
 10
216.8193104857
 20
133.2882317773
 30
0.0
  0
SPLINE
  5
2FA
100
AcDbEntity
  8
0
100
AcDbSpline
 62
7
  6
CONTINUOUS
 70
0
 71
3
 72
9
 73
5
 74
0
 42
0.0000001
 43
0.0000001
 44
0.0000000001
 40
0.0
 40
0.0
 40
0.0
 40
0.0
 40
0.5007870557
 40
1.0
 40
1.0
 40
1.0
 40
1.0
 10
216.8193104857
 20
133.2882317773
 30
0.0
 10
216.8725787762
 20
133.3004256787
 30
0.0
 10
216.9803332449
 20
133.3190059724
 30
0.0
 10
217.0893397822
 20
133.3269409879
 30
0.0
 10
217.1437936499
 20
133.3284359434
 30
0.0
  0
SPLINE
  5
2FB
100
AcDbEntity
  8
0
100
AcDbSpline
 62
7
  6
CONTINUOUS
 70
0
 71
3
 72
8
 73
4
 74
0
 42
0.0000001
 43
0.0000001
 44
0.0000000001
 40
0.0
 40
0.0
 40
0.0
 40
0.0
 40
1.0
 40
1.0
 40
1.0
 40
1.0
 10
216.4017629209
 20
122.6404657777
 30
0.0
 10
216.1391002915
 20
122.8040040447
 30
0.0
 10
215.8207656073
 20
123.0549797156
 30
0.0
 10
215.8207658956
 20
123.3643927432
 30
0.0
  0
SPLINE
  5
2FC
100
AcDbEntity
  8
0
100
AcDbSpline
 62
7
  6
CONTINUOUS
 70
0
 71
3
 72
9
 73
5
 74
0
 42
0.0000001
 43
0.0000001
 44
0.0000000001
 40
0.0
 40
0.0
 40
0.0
 40
0.0
 40
0.4588304824
 40
1.0
 40
1.0
 40
1.0
 40
1.0
 10
215.8207658956
 20
123.3643927432
 30
0.0
 10
215.820765945
 20
123.4175005676
 30
0.0
 10
215.8422309246
 20
123.5338863906
 30
0.0
 10
215.9001996194
 20
123.6362225604
 30
0.0
 10
215.936911333
 20
123.6869748972
 30
0.0
  0
SPLINE
  5
2FD
100
AcDbEntity
  8
0
100
AcDbSpline
 62
7
  6
CONTINUOUS
 70
0
 71
3
 72
8
 73
4
 74
0
 42
0.0000001
 43
0.0000001
 44
0.0000000001
 40
0.0
 40
0.0
 40
0.0
 40
0.0
 40
1.0
 40
1.0
 40
1.0
 40
1.0
 10
217.1435930556
 20
122.4284751364
 30
0.0
 10
216.9064819014
 20
122.4284457695
 30
0.0
 10
216.5982186678
 20
122.4797680603
 30
0.0
 10
216.4803128229
 20
122.6854861004
 30
0.0
  0
SPLINE
  5
2FE
100
AcDbEntity
  8
0
100
AcDbSpline
 62
7
  6
CONTINUOUS
 70
0
 71
3
 72
8
 73
4
 74
0
 42
0.0000001
 43
0.0000001
 44
0.0000000001
 40
0.0
 40
0.0
 40
0.0
 40
0.0
 40
1.0
 40
1.0
 40
1.0
 40
1.0
 10
280.7134769994
 20
131.9284748448
 30
0.0
 10
280.7135748152
 20
132.419998535
 30
0.0
 10
280.2638277343
 20
132.8938067385
 30
0.0
 10
279.8174528045
 20
133.0995856726
 30
0.0
  0
SPLINE
  5
2FF
100
AcDbEntity
  8
0
100
AcDbSpline
 62
7
  6
CONTINUOUS
 70
0
 71
3
 72
8
 73
4
 74
0
 42
0.0000001
 43
0.0000001
 44
0.0000000001
 40
0.0
 40
0.0
 40
0.0
 40
0.0
 40
1.0
 40
1.0
 40
1.0
 40
1.0
 10
279.8174528045
 20
133.0995856726
 30
0.0
 10
279.4821112926
 20
133.2541781783
 30
0.0
 10
279.1028377783
 20
133.3284793079
 30
0.0
 10
278.7335780155
 20
133.3284751516
 30
0.0
  0
SPLINE
  5
300
100
AcDbEntity
  8
0
100
AcDbSpline
 62
7
  6
CONTINUOUS
 70
0
 71
3
 72
8
 73
4
 74
0
 42
0.0000001
 43
0.0000001
 44
0.0000000001
 40
0.0
 40
0.0
 40
0.0
 40
0.0
 40
1.0
 40
1.0
 40
1.0
 40
1.0
 10
279.3306343159
 20
122.6935170859
 30
0.0
 10
279.8331060469
 20
122.8061377498
 30
0.0
 10
280.4292601662
 20
123.1414833422
 30
0.0
 10
280.5499259508
 20
123.6420840043
 30
0.0
  0
ENDSEC
  0
SECTION
  2
OBJECTS
  0
DICTIONARY
  5
C
100
AcDbDictionary
280
0
281
1
  3
ACAD_GROUP
350
D
  3
ACAD_MLINESTYLE
350
17
  3
ACAD_LAYOUT
350
1A
  3
ACAD_PLOTSETTINGS
350
19
  3
ACAD_PLOTSTYLENAME
350
E
  0
DICTIONARY
  5
D
102
{ACAD_REACTORS
330
C
102
}
100
AcDbDictionary
280
0
281
1
  0
ACDBDICTIONARYWDFLT
  5
E
102
{ACAD_REACTORS
330
C
102
}
100
AcDbDictionary
281
1
  3
Normal
350
F
100
AcDbDictionaryWithDefault
340
F
  0
DICTIONARY
  5
17
102
{ACAD_REACTORS
330
C
102
}
100
AcDbDictionary
280
0
281
1
  3
Standard
350
18
  0
DICTIONARY
  5
19
102
{ACAD_REACTORS
330
C
102
}
100
AcDbDictionary
281
1
  0
DICTIONARY
  5
1A
102
{ACAD_REACTORS
330
C
102
}
100
AcDbDictionary
281
1
  3
Model
350
301
  3
Layout1
350
302
  0
ACDBPLACEHOLDER
  5
F
102
{ACAD_REACTORS
330
E
102
}
  0
MLINESTYLE
  5
18
102
{ACAD_REACTORS
330
17
102
}
100
AcDbMlineStyle
  2
STANDARD
 70
0
  3

 62
256
 51
90.0
 52
90.0
 71
2
 49
0.5
 62
256
  6
BYLAYER
 49
-0.5
 62
256
  6
BYLAYER
  0
LAYOUT
  5
301
102
{ACAD_REACTORS
330
1A
102
}
100
AcDbPlotSettings
  1

  2
none_device
  4

  6

 40
0.0
 41
0.0
 42
0.0
 43
0.0
 44
210.0
 45
297.0
 46
0.0
 47
0.0
 48
0.0
 49
0.0
140
0.0
141
0.0
142
1.0
143
1.0
 70
1024
 72
1
 73
0
 74
0
  7

 75
0
147
1.0
148
0.0
149
0.0
100
AcDbLayout
  1
Model
 70
0
 71
0
 10
0.0
 20
0.0
 11
210.0
 21
297.0
 12
0.0
 22
0.0
 32
0.0
 14
0.0
 24
0.0
 34
0.0
 15
0.0
 25
0.0
 35
0.0
146
0.0
 13
0.0
 23
0.0
 33
0.0
 16
1.0
 26
0.0
 36
0.0
 17
0.0
 27
1.0
 37
0.0
 76
0
330
210
345
0
346
0
  0
LAYOUT
  5
302
102
{ACAD_REACTORS
330
1A
102
}
100
AcDbPlotSettings
  1

  2
none_device
  4

  6

 40
0.0
 41
0.0
 42
0.0
 43
0.0
 44
210.0
 45
297.0
 46
0.0
 47
0.0
 48
0.0
 49
0.0
140
0.0
141
0.0
142
1.0
143
1.0
 70
0
 72
1
 73
0
 74
0
  7

 75
0
147
1.0
148
0.0
149
0.0
100
AcDbLayout
  1
Layout1
 70
0
 71
1
 10
0.0
 20
0.0
 11
210.0
 21
297.0
 12
0.0
 22
0.0
 32
0.0
 14
0.0
 24
0.0
 34
0.0
 15
0.0
 25
0.0
 35
0.0
146
0.0
 13
0.0
 23
0.0
 33
0.0
 16
1.0
 26
0.0
 36
0.0
 17
0.0
 27
1.0
 37
0.0
 76
0
330
211
345
0
346
0
  0
ENDSEC
  0
EOF
