999
DXF file: C:\Users\sesa63760\Dev\_Creo\CAD\MCADPD0004758_3D-CAD\drw0001_1.dxf
999
Pro/ENGINEER 2019471 by Parametric Technology Corporation
  0
SECTION
  2
HEADER
  9
$ACADVER
  1
AC1024
  9
$DWGCODEPAGE
  3
ANSI_1252
  9
$EXTMAX
 10
197.4643706796
 20
279.2710385326
 30
0.0
  9
$EXTMIN
 10
0.0
 20
0.0
 30
0.0
  9
$LIMMIN
 10
0.0
 20
0.0
  9
$LIMMAX
 10
197.4643706796
 20
279.2710385326
  9
$VIEWCTR
 10
98.7321853398
 20
139.6355192663
  9
$VIEWSIZE
 40
279.2710385326
  9
$CLAYER
  8
0
  9
$LTSCALE
 40
18.2043343636
  9
$CELTYPE
  6
BYLAYER
  9
$DIMSCALE
 40
1.0
  9
$DIMASZ
 40
2.3507663176
  9
$DIMEXO
 40
1.0
  9
$DIMDLI
 40
12.5775401058
  9
$DIMEXE
 40
1.0
  9
$DIMCEN
 40
2.9788910777
  9
$DIMLFAC
 40
1.0
  9
$DIMBLK
  1
_FILLED
  9
$DIMALT
 70
0
  9
$DIMALTF
 40
0.0393700787
  9
$DIMTXT
 40
3.2910728447
  9
$DIMTOL
 70
1
  9
$DIMLIM
 70
0
  9
$DIMTFAC
 40
1.0
  9
$DIMTP
 40
0.01
  9
$DIMTM
 40
0.01
  9
$DIMGAP
 40
0.625
  9
$DIMDSEP
 70
46
  9
$AUNITS
 70
0
  9
$PDMODE
 70
3
  9
$PDSIZE
 40
0.3125
  9
$HANDSEED
  5
49E
  9
$TILEMODE
 70
1
  9
$MEASUREMENT
 70
1
  9
$INSUNITS
 70
4
  0
ENDSEC
  0
SECTION
  2
CLASSES
  0
CLASS
  1
ACDBDICTIONARYWDFLT
  2
AcDbDictionaryWithDefault
  3
AutoCAD 2000
 90
0
 91
1
280
0
281
0
  0
CLASS
  1
ACDBPLACEHOLDER
  2
AcDbPlaceHolder
  3
AutoCAD 2000
 90
0
 91
1
280
0
281
0
  0
CLASS
  1
LAYOUT
  2
AcDbLayout
  3
AutoCAD 2000
 90
0
 91
0
280
0
281
0
  0
ENDSEC
  0
SECTION
  2
TABLES
  0
TABLE
  2
VPORT
  5
8
100
AcDbSymbolTable
 70
2
  0
VPORT
  5
1F4
100
AcDbSymbolTableRecord
100
AcDbViewportTableRecord
  2
*ACTIVE
 70
0
 10
0.0
 20
0.0
 11
1.0
 21
1.0
 12
98.7321853398
 22
139.6355192663
 13
0.0
 23
0.0
 14
1.0
 24
1.0
 15
0.0
 25
0.0
 16
0.0
 26
0.0
 36
1.0
 17
0.0
 27
0.0
 37
0.0
 40
279.2710385326
 41
0.7070707071
 42
50.0
 43
0.0
 44
0.0
 50
0.0
 51
0.0
 71
0
 72
100
 73
1
 74
1
 75
0
 76
0
 77
0
 78
0
  0
ENDTAB
  0
TABLE
  2
LTYPE
  5
5
100
AcDbSymbolTable
 70
6
  0
LTYPE
  5
14
100
AcDbSymbolTableRecord
100
AcDbLinetypeTableRecord
  2
BYBLOCK
 70
0
  3

 72
65
 73
0
 40
0.0
  0
LTYPE
  5
15
100
AcDbSymbolTableRecord
100
AcDbLinetypeTableRecord
  2
BYLAYER
 70
0
  3

 72
65
 73
0
 40
0.0
  0
LTYPE
  5
16
100
AcDbSymbolTableRecord
100
AcDbLinetypeTableRecord
  2
CONTINUOUS
 70
64
  3
Solid line
 72
65
 73
0
 40
0.0
  0
LTYPE
  5
1F5
100
AcDbSymbolTableRecord
100
AcDbLinetypeTableRecord
  2
CENTER
 70
64
  3
____ _ ____ _ ____ _ ____ _ ____ _ ____ _ ____
 72
65
 73
4
 40
0.6
 49
0.375
 74
0
 49
-0.075
 74
0
 49
0.075
 74
0
 49
-0.075
 74
0
  0
LTYPE
  5
1F6
100
AcDbSymbolTableRecord
100
AcDbLinetypeTableRecord
  2
HIDDEN
 70
64
  3
- - - - - - - - - - - - - - - - - - - -
 72
65
 73
2
 40
0.2
 49
0.1
 74
0
 49
-0.1
 74
0
  0
LTYPE
  5
1F7
100
AcDbSymbolTableRecord
100
AcDbLinetypeTableRecord
  2
PHANTOM
 70
64
  3
_____ _ _ _____ _ _ _____ _ _ _____
 72
65
 73
6
 40
0.8
 49
0.45
 74
0
 49
-0.05
 74
0
 49
0.1
 74
0
 49
-0.05
 74
0
 49
0.1
 74
0
 49
-0.05
 74
0
  0
LTYPE
  5
1F8
100
AcDbSymbolTableRecord
100
AcDbLinetypeTableRecord
  2
DOT
 70
64
  3
. . . . . . . . . . . . . . . . . . . .
 72
65
 73
2
 40
0.2
 49
0.1
 74
0
 49
-0.1
 74
0
  0
LTYPE
  5
1F9
100
AcDbSymbolTableRecord
100
AcDbLinetypeTableRecord
  2
DASHED
 70
64
  3
- - - - - - - - - - - - - - - - - - - -
 72
65
 73
2
 40
0.2
 49
0.1
 74
0
 49
-0.1
 74
0
  0
ENDTAB
  0
TABLE
  2
LAYER
  5
2
100
AcDbSymbolTable
 70
36
  0
LAYER
  5
10
100
AcDbSymbolTableRecord
100
AcDbLayerTableRecord
  2
0
 70
0
 62
7
  6
CONTINUOUS
370
-3
390
F
  0
LAYER
  5
1FA
100
AcDbSymbolTableRecord
100
AcDbLayerTableRecord
  2
DEFAULT_1
 70
0
 62
7
  6
CENTER
370
-3
390
F
  0
LAYER
  5
1FB
100
AcDbSymbolTableRecord
100
AcDbLayerTableRecord
  2
DEFAULT_2
 70
0
 62
7
  6
HIDDEN
370
-3
390
F
  0
LAYER
  5
1FC
100
AcDbSymbolTableRecord
100
AcDbLayerTableRecord
  2
DEFAULT_3
 70
0
 62
7
  6
PHANTOM
370
-3
390
F
  0
LAYER
  5
1FD
100
AcDbSymbolTableRecord
100
AcDbLayerTableRecord
  2
00_COMPONENTS
 70
0
 62
7
  6
CONTINUOUS
370
-3
390
F
  0
LAYER
  5
1FE
100
AcDbSymbolTableRecord
100
AcDbLayerTableRecord
  2
01_1_DEFAULT_DATUMS
 70
0
 62
7
  6
CONTINUOUS
370
-3
390
F
  0
LAYER
  5
1FF
100
AcDbSymbolTableRecord
100
AcDbLayerTableRecord
  2
01_PLANES
 70
0
 62
7
  6
CONTINUOUS
370
-3
390
F
  0
LAYER
  5
200
100
AcDbSymbolTableRecord
100
AcDbLayerTableRecord
  2
02_COORD_SYS
 70
0
 62
7
  6
CONTINUOUS
370
-3
390
F
  0
LAYER
  5
201
100
AcDbSymbolTableRecord
100
AcDbLayerTableRecord
  2
03_AXES
 70
0
 62
7
  6
CONTINUOUS
370
-3
390
F
  0
LAYER
  5
202
100
AcDbSymbolTableRecord
100
AcDbLayerTableRecord
  2
04_POINTS
 70
0
 62
7
  6
CONTINUOUS
370
-3
390
F
  0
LAYER
  5
203
100
AcDbSymbolTableRecord
100
AcDbLayerTableRecord
  2
05_CURVES
 70
0
 62
7
  6
CONTINUOUS
370
-3
390
F
  0
LAYER
  5
204
100
AcDbSymbolTableRecord
100
AcDbLayerTableRecord
  2
06_SURFS
 70
0
 62
7
  6
CONTINUOUS
370
-3
390
F
  0
LAYER
  5
205
100
AcDbSymbolTableRecord
100
AcDbLayerTableRecord
  2
07_COSMETICS
 70
0
 62
7
  6
CONTINUOUS
370
-3
390
F
  0
LAYER
  5
206
100
AcDbSymbolTableRecord
100
AcDbLayerTableRecord
  2
10_NOTES
 70
0
 62
7
  6
CONTINUOUS
370
-3
390
F
  0
LAYER
  5
207
100
AcDbSymbolTableRecord
100
AcDbLayerTableRecord
  2
11_NOTES_PUB
 70
0
 62
7
  6
CONTINUOUS
370
-3
390
F
  0
LAYER
  5
208
100
AcDbSymbolTableRecord
100
AcDbLayerTableRecord
  2
13_REF_GTOL
 70
0
 62
7
  6
CONTINUOUS
370
-3
390
F
  0
LAYER
  5
209
100
AcDbSymbolTableRecord
100
AcDbLayerTableRecord
  2
16_MISC
 70
0
 62
7
  6
CONTINUOUS
370
-3
390
F
  0
LAYER
  5
20A
100
AcDbSymbolTableRecord
100
AcDbLayerTableRecord
  2
17_NO_PRINT
 70
0
 62
7
  6
CONTINUOUS
370
-3
390
F
  0
LAYER
  5
20B
100
AcDbSymbolTableRecord
100
AcDbLayerTableRecord
  2
18_DATUM_CAMS_JOINTS
 70
0
 62
7
  6
CONTINUOUS
370
-3
390
F
  0
LAYER
  5
20C
100
AcDbSymbolTableRecord
100
AcDbLayerTableRecord
  2
19_DATUM_FUNCTIONAL
 70
0
 62
7
  6
CONTINUOUS
370
-3
390
F
  0
LAYER
  5
20D
100
AcDbSymbolTableRecord
100
AcDbLayerTableRecord
  2
20_DATUM_KINEMATIC_SCHEME
 70
0
 62
7
  6
CONTINUOUS
370
-3
390
F
  0
ENDTAB
  0
TABLE
  2
STYLE
  5
3
100
AcDbSymbolTable
 70
1
  0
STYLE
  5
11
100
AcDbSymbolTableRecord
100
AcDbTextStyleTableRecord
  2
STANDARD
 70
0
 40
0.0
 41
1.0
 50
0.0
 71
0
 42
0.2
  3
ARIAL.TTF
  4

  0
STYLE
  5
20E
100
AcDbSymbolTableRecord
100
AcDbTextStyleTableRecord
  2
TEXTSTYLE_1
 70
0
 40
0.0
 41
0.8
 50
0.0
 71
0
 42
0.2
  3
gdt
  4

  0
ENDTAB
  0
TABLE
  2
VIEW
  5
6
100
AcDbSymbolTable
 70
0
  0
ENDTAB
  0
TABLE
  2
UCS
  5
7
100
AcDbSymbolTable
 70
0
  0
ENDTAB
  0
TABLE
  2
APPID
  5
9
100
AcDbSymbolTable
 70
1
  0
APPID
  5
20F
100
AcDbSymbolTableRecord
100
AcDbRegAppTableRecord
  2
ACAD
 70
0
  0
ENDTAB
  0
TABLE
  2
BLOCK_RECORD
  5
1
100
AcDbSymbolTable
 70
0
  0
BLOCK_RECORD
  5
210
100
AcDbSymbolTableRecord
100
AcDbBlockTableRecord
  2
*Model_Space
  0
BLOCK_RECORD
  5
211
100
AcDbSymbolTableRecord
100
AcDbBlockTableRecord
  2
*Paper_Space
  0
BLOCK_RECORD
  5
212
100
AcDbSymbolTableRecord
100
AcDbBlockTableRecord
  2
_FILLED
  0
ENDTAB
  0
TABLE
  2
DIMSTYLE
  5
A
100
AcDbSymbolTable
 70
1
100
AcDbDimStyleTable
 71
0
  0
DIMSTYLE
105
213
100
AcDbSymbolTableRecord
100
AcDbDimStyleTableRecord
  2
STANDARD
 70
0
  3

  4

 40
1.0
 41
2.3507663176
 42
1.0
 43
0.38
 44
1.0
 45
0.0
 46
0.0
 47
0.01
 48
0.01
140
3.2910728447
141
0.09
142
0.0
143
25.4
144
1.0
145
0.0
146
1.0
147
0.625
 71
1
 72
0
 73
0
 74
0
 75
0
 76
0
 77
1
 78
8
 79
2
170
0
171
1
172
0
173
0
174
0
175
0
176
0
177
0
178
0
270
2
179
2
271
2
272
2
273
2
274
2
275
0
280
0
281
0
282
0
283
1
284
8
285
0
286
0
287
3
288
0
340
11
278
46
341
212
342
212
343
212
344
212
  0
ENDTAB
  0
ENDSEC
  0
SECTION
  2
BLOCKS
  0
BLOCK
  5
20
100
AcDbEntity
  8
0
100
AcDbBlockBegin
  2
*Model_Space
 70
0
 10
0.0
 20
0.0
 30
0.0
  3
*Model_Space
  1

  0
ENDBLK
  5
21
100
AcDbEntity
  8
0
100
AcDbBlockEnd
  0
BLOCK
  5
1C
100
AcDbEntity
  8
0
100
AcDbBlockBegin
  2
*Paper_Space
 70
0
 10
0.0
 20
0.0
 30
0.0
  3
*Paper_Space
  1

  0
ENDBLK
  5
1D
100
AcDbEntity
  8
0
100
AcDbBlockEnd
  0
BLOCK
  5
214
100
AcDbEntity
  8
0
100
AcDbBlockBegin
  2
_FILLED
 70
64
 10
0.0
 20
0.0
  3
_FILLED
  1

  0
SOLID
  5
215
100
AcDbEntity
  8
0
  6
BYBLOCK
 62
0
100
AcDbTrace
 10
0.0
 20
0.0
 11
-1.0
 21
0.25
 12
-1.0
 22
-0.25
 13
-1.0
 23
-0.25
  0
ENDBLK
  5
216
100
AcDbEntity
  8
0
  6
BYBLOCK
 62
0
100
AcDbBlockEnd
  0
ENDSEC
  0
SECTION
  2
ENTITIES
  0
LINE
  5
217
100
AcDbEntity
  8
0
100
AcDbLine
 62
7
  6
BYLAYER
 10
23.5091821468
 20
170.5682333267
 11
23.5091821468
 21
169.0393158116
  0
LINE
  5
218
100
AcDbEntity
  8
0
100
AcDbLine
 62
7
  6
BYLAYER
 10
26.4790429924
 20
167.3247046822
 11
26.4790429924
 21
168.8536221973
  0
LINE
  5
219
100
AcDbEntity
  8
0
100
AcDbLine
 62
7
  6
BYLAYER
 10
26.6558027599
 20
150.7557077598
 11
26.6558027599
 21
166.4994790516
  0
LINE
  5
21A
100
AcDbEntity
  8
0
100
AcDbLine
 62
7
  6
BYLAYER
 10
26.6558027599
 20
172.7860427752
 11
26.6558027599
 21
174.314944438
  0
LINE
  5
21B
100
AcDbEntity
  8
0
100
AcDbLine
 62
7
  6
BYLAYER
 10
27.5750454025
 20
150.2249947789
 11
27.5750454025
 21
167.0302008708
  0
LINE
  5
21C
100
AcDbEntity
  8
0
100
AcDbLine
 62
7
  6
BYLAYER
 10
27.5750454025
 20
172.2553297943
 11
27.5750454025
 21
173.7842314571
  0
LINE
  5
21D
100
AcDbEntity
  8
0
100
AcDbLine
 62
7
  6
BYLAYER
 10
28.2821492398
 20
174.192475611
 11
28.2821492398
 21
172.6635739481
  0
LINE
  5
21E
100
AcDbEntity
  8
0
100
AcDbLine
 62
7
  6
BYLAYER
 10
28.2821492398
 20
167.4384450247
 11
28.2821492398
 21
160.4411969731
  0
LINE
  5
21F
100
AcDbEntity
  8
0
100
AcDbLine
 62
7
  6
BYLAYER
 10
28.2821492398
 20
157.733164815
 11
28.2821492398
 21
150.9629818436
  0
LINE
  5
220
100
AcDbEntity
  8
0
100
AcDbLine
 62
7
  6
BYLAYER
 10
29.2720946119
 20
151.534523659
 11
29.2720946119
 21
151.2047807482
  0
LINE
  5
221
100
AcDbEntity
  8
0
100
AcDbLine
 62
7
  6
BYLAYER
 10
29.3428055844
 20
151.657000067
 11
29.3428055844
 21
151.1492530468
  0
LINE
  5
222
100
AcDbEntity
  8
0
100
AcDbLine
 62
7
  6
BYLAYER
 10
30.2266927408
 20
151.0973779492
 11
30.2266927408
 21
151.7182508159
  0
LINE
  5
223
100
AcDbEntity
  8
0
100
AcDbLine
 62
7
  6
BYLAYER
 10
30.4034601626
 20
141.7773092603
 11
30.4034601626
 21
138.062220738
  0
LINE
  5
224
100
AcDbEntity
  8
0
100
AcDbLine
 62
7
  6
BYLAYER
 10
31.4287692641
 20
151.7913930108
 11
31.4287692641
 21
152.4122658774
  0
LINE
  5
225
100
AcDbEntity
  8
0
100
AcDbLine
 62
7
  6
BYLAYER
 10
25.6804176509
 20
151.0416977033
 11
25.6852837882
 21
151.3934830024
  0
LINE
  5
226
100
AcDbEntity
  8
0
100
AcDbLine
 62
7
  6
BYLAYER
 10
35.7421385875
 20
143.063376971
 11
35.7421385875
 21
140.9404706864
  0
LINE
  5
227
100
AcDbEntity
  8
0
100
AcDbLine
 62
7
  6
BYLAYER
 10
36.8027943433
 20
143.6757432018
 11
36.8027943433
 21
141.5528369172
  0
LINE
  5
228
100
AcDbEntity
  8
0
100
AcDbLine
 62
7
  6
BYLAYER
 10
26.6558027599
 20
174.314944438
 11
27.3629065971
 21
174.7231885918
  0
LINE
  5
229
100
AcDbEntity
  8
0
100
AcDbLine
 62
7
  6
BYLAYER
 10
23.519119173
 20
171.5012477582
 11
26.3475345218
 21
173.1342243737
  0
LINE
  5
22A
100
AcDbEntity
  8
0
100
AcDbLine
 62
7
  6
BYLAYER
 10
27.5750454025
 20
173.7842314571
 11
28.2821492398
 21
174.192475611
  0
LINE
  5
22B
100
AcDbEntity
  8
0
100
AcDbLine
 62
7
  6
BYLAYER
 10
27.5750454025
 20
172.2553297943
 11
28.2821492398
 21
172.6635739481
  0
LINE
  5
22C
100
AcDbEntity
  8
0
100
AcDbLine
 62
7
  6
BYLAYER
 10
23.5091821468
 20
169.1732596899
 11
23.3931816872
 21
169.1062871931
  0
LINE
  5
22D
100
AcDbEntity
  8
0
100
AcDbLine
 62
7
  6
BYLAYER
 10
42.4596809764
 20
137.0621835185
 11
42.4596809764
 21
139.185089803
  0
LINE
  5
22E
100
AcDbEntity
  8
0
100
AcDbLine
 62
7
  6
BYLAYER
 10
26.4790429924
 20
167.3247046822
 11
26.6545111337
 21
167.4260106562
  0
LINE
  5
22F
100
AcDbEntity
  8
0
100
AcDbLine
 62
7
  6
BYLAYER
 10
26.4691059662
 20
166.3916902509
 11
29.297521315
 21
168.0246668664
  0
LINE
  5
230
100
AcDbEntity
  8
0
100
AcDbLine
 62
7
  6
BYLAYER
 10
28.6003156437
 20
166.7009725892
 11
28.2821492398
 21
166.5172802267
  0
LINE
  5
231
100
AcDbEntity
  8
0
100
AcDbLine
 62
7
  6
BYLAYER
 10
30.0145595324
 20
165.8844769709
 11
78.8400432777
 21
194.0737148875
  0
LINE
  5
232
100
AcDbEntity
  8
0
100
AcDbLine
 62
7
  6
BYLAYER
 10
80.4663956455
 20
194.7677659863
 11
54.7985263547
 21
179.9485032009
  0
LINE
  5
233
100
AcDbEntity
  8
0
100
AcDbLine
 62
7
  6
BYLAYER
 10
44.7576551046
 20
172.069364682
 11
44.7576551046
 21
169.6198574306
  0
LINE
  5
234
100
AcDbEntity
  8
0
100
AcDbLine
 62
7
  6
BYLAYER
 10
50.1497015683
 20
154.1100784338
 11
50.1497015683
 21
154.2597102837
  0
LINE
  5
235
100
AcDbEntity
  8
0
100
AcDbLine
 62
7
  6
BYLAYER
 10
32.0298222491
 20
164.7209908205
 11
44.7576551046
 21
172.069364682
  0
LINE
  5
236
100
AcDbEntity
  8
0
100
AcDbLine
 62
7
  6
BYLAYER
 10
44.7576551046
 20
169.6198574306
 11
34.1511880822
 21
163.4962473931
  0
LINE
  5
237
100
AcDbEntity
  8
0
100
AcDbLine
 62
7
  6
BYLAYER
 10
84.3503652938
 20
191.3415076052
 11
77.3853924972
 21
187.3203026896
  0
LINE
  5
238
100
AcDbEntity
  8
0
100
AcDbLine
 62
7
  6
BYLAYER
 10
118.827566031
 20
90.4874949448
 11
119.7868626303
 21
90.5758615154
  0
LINE
  5
239
100
AcDbEntity
  8
0
100
AcDbLine
 62
7
  6
BYLAYER
 10
51.0510641369
 20
151.6981163622
 11
51.0510641369
 21
133.4901124602
  0
LINE
  5
23A
100
AcDbEntity
  8
0
100
AcDbLine
 62
7
  6
BYLAYER
 10
51.4046160555
 20
133.6942345371
 11
51.4046160555
 21
151.9022384391
  0
LINE
  5
23B
100
AcDbEntity
  8
0
100
AcDbLine
 62
7
  6
BYLAYER
 10
51.8995958071
 20
151.2082274568
 11
51.8995958071
 21
133.0002235548
  0
LINE
  5
23C
100
AcDbEntity
  8
0
100
AcDbLine
 62
7
  6
BYLAYER
 10
52.0014242298
 20
174.4167991609
 11
52.0014242298
 21
176.0498039951
  0
LINE
  5
23D
100
AcDbEntity
  8
0
100
AcDbLine
 62
7
  6
BYLAYER
 10
53.6673488768
 20
152.0792097578
 11
53.6673488431
 21
152.2288416271
  0
LINE
  5
23E
100
AcDbEntity
  8
0
100
AcDbLine
 62
7
  6
BYLAYER
 10
54.7985825843
 20
172.1510723258
 11
54.7985825843
 21
170.5180674915
  0
LINE
  5
23F
100
AcDbEntity
  8
0
100
AcDbLine
 62
7
  6
BYLAYER
 10
52.2531477257
 20
151.4123495337
 11
52.4288688748
 21
151.6572939864
  0
LINE
  5
240
100
AcDbEntity
  8
0
100
AcDbLine
 62
7
  6
BYLAYER
 10
28.6624639526
 20
154.182564678
 11
28.2821492398
 21
153.9629911869
  0
LINE
  5
241
100
AcDbEntity
  8
0
100
AcDbLine
 62
7
  6
BYLAYER
 10
28.812463281
 20
154.1677073943
 11
28.2821492398
 21
153.8615322674
  0
LINE
  5
242
100
AcDbEntity
  8
0
100
AcDbLine
 62
7
  6
BYLAYER
 10
26.6558027599
 20
151.6048331971
 11
23.8676460161
 21
149.9950997593
  0
LINE
  5
243
100
AcDbEntity
  8
0
100
AcDbLine
 62
7
  6
BYLAYER
 10
28.2821492398
 20
152.0244166437
 11
28.3528519692
 21
152.0652366399
  0
LINE
  5
244
100
AcDbEntity
  8
0
100
AcDbLine
 62
7
  6
BYLAYER
 10
28.5804447123
 20
151.933838881
 11
28.7218691012
 21
152.0154898026
  0
LINE
  5
245
100
AcDbEntity
  8
0
100
AcDbLine
 62
7
  6
BYLAYER
 10
84.3585929951
 20
184.0024863453
 11
83.7453760946
 21
183.6484475161
  0
LINE
  5
246
100
AcDbEntity
  8
0
100
AcDbLine
 62
7
  6
BYLAYER
 10
30.0145598233
 20
152.0856737673
 11
31.2166363465
 21
152.7796888289
  0
LINE
  5
247
100
AcDbEntity
  8
0
100
AcDbLine
 62
7
  6
BYLAYER
 10
28.2821492398
 20
150.9629818436
 11
29.2720946119
 21
151.534523659
  0
LINE
  5
248
100
AcDbEntity
  8
0
100
AcDbLine
 62
7
  6
BYLAYER
 10
27.5750454025
 20
150.2249947789
 11
29.2720946119
 21
151.2047807482
  0
LINE
  5
249
100
AcDbEntity
  8
0
100
AcDbLine
 62
7
  6
BYLAYER
 10
31.4287692641
 20
152.4122658774
 11
30.2266927408
 21
151.7182508159
  0
LINE
  5
24A
100
AcDbEntity
  8
0
100
AcDbLine
 62
7
  6
BYLAYER
 10
30.2266927408
 20
151.0973779492
 11
31.4287692641
 21
151.7913930108
  0
LINE
  5
24B
100
AcDbEntity
  8
0
100
AcDbLine
 62
7
  6
BYLAYER
 10
31.5433210395
 20
151.5077616264
 11
30.3412445163
 21
150.8137465648
  0
LINE
  5
24C
100
AcDbEntity
  8
0
100
AcDbLine
 62
7
  6
BYLAYER
 10
60.4909789676
 20
128.7749505628
 11
60.4909789676
 21
126.6520442782
  0
LINE
  5
24D
100
AcDbEntity
  8
0
100
AcDbLine
 62
7
  6
BYLAYER
 10
61.5516347234
 20
129.3873167936
 11
61.5516347234
 21
127.264410509
  0
LINE
  5
24E
100
AcDbEntity
  8
0
100
AcDbLine
 62
7
  6
BYLAYER
 10
62.576789561
 20
166.0274191917
 11
62.576789561
 21
167.660424026
  0
LINE
  5
24F
100
AcDbEntity
  8
0
100
AcDbLine
 62
7
  6
BYLAYER
 10
88.8508547997
 20
180.7008646945
 11
95.8158275963
 21
184.7220696102
  0
LINE
  5
250
100
AcDbEntity
  8
0
100
AcDbLine
 62
7
  6
BYLAYER
 10
30.7874644487
 20
144.868114306
 11
27.8176283324
 21
143.1534888598
  0
LINE
  5
251
100
AcDbEntity
  8
0
100
AcDbLine
 62
7
  6
BYLAYER
 10
32.3645392931
 20
144.9126093455
 11
31.1624627698
 21
144.2185942839
  0
LINE
  5
252
100
AcDbEntity
  8
0
100
AcDbLine
 62
7
  6
BYLAYER
 10
50.1497015683
 20
154.2597102837
 11
50.0201147326
 21
154.1848937357
  0
LINE
  5
253
100
AcDbEntity
  8
0
100
AcDbLine
 62
7
  6
BYLAYER
 10
72.9616591971
 20
112.1037703612
 11
73.3938793555
 21
111.8542335817
  0
LINE
  5
254
100
AcDbEntity
  8
0
100
AcDbLine
 62
7
  6
BYLAYER
 10
64.2917526009
 20
157.7095809456
 11
64.2917526009
 21
160.7915736823
  0
LINE
  5
255
100
AcDbEntity
  8
0
100
AcDbLine
 62
7
  6
BYLAYER
 10
67.2085213565
 20
122.7737571103
 11
67.2085213565
 21
124.8966633948
  0
LINE
  5
256
100
AcDbEntity
  8
0
100
AcDbLine
 62
7
  6
BYLAYER
 10
67.8094035946
 20
155.6787068648
 11
67.8094035946
 21
158.7607050657
  0
LINE
  5
257
100
AcDbEntity
  8
0
100
AcDbLine
 62
7
  6
BYLAYER
 10
68.8348837338
 20
118.9590478569
 11
68.8348837338
 21
118.843310299
  0
LINE
  5
258
100
AcDbEntity
  8
0
100
AcDbLine
 62
7
  6
BYLAYER
 10
50.3911547259
 20
153.9706785419
 11
63.2485744172
 21
161.3938689513
  0
LINE
  5
259
100
AcDbEntity
  8
0
100
AcDbLine
 62
7
  6
BYLAYER
 10
76.0825290816
 20
167.6604564898
 11
101.7503983724
 21
182.4797192753
  0
LINE
  5
25A
100
AcDbEntity
  8
0
100
AcDbLine
 62
7
  6
BYLAYER
 10
51.4343586214
 20
153.3683981175
 11
64.2917526009
 21
160.7915736823
  0
LINE
  5
25B
100
AcDbEntity
  8
0
100
AcDbLine
 62
7
  6
BYLAYER
 10
36.8027943433
 20
143.6757432018
 11
35.7421385875
 21
143.063376971
  0
LINE
  5
25C
100
AcDbEntity
  8
0
100
AcDbLine
 62
7
  6
BYLAYER
 10
52.8188237299
 20
152.7187267469
 11
52.6892368942
 21
152.643910199
  0
LINE
  5
25D
100
AcDbEntity
  8
0
100
AcDbLine
 62
7
  6
BYLAYER
 10
51.0510641369
 20
151.6981163622
 11
51.4046160555
 21
151.9022384391
  0
LINE
  5
25E
100
AcDbEntity
  8
0
100
AcDbLine
 62
7
  6
BYLAYER
 10
101.7503983724
 20
180.846714441
 11
76.0825290816
 21
166.0274516555
  0
LINE
  5
25F
100
AcDbEntity
  8
0
100
AcDbLine
 62
7
  6
BYLAYER
 10
53.6673488431
 20
152.2288416271
 11
53.537761994
 21
152.1540250869
  0
LINE
  5
260
100
AcDbEntity
  8
0
100
AcDbLine
 62
7
  6
BYLAYER
 10
51.8995958071
 20
151.2082274568
 11
52.2531477257
 21
151.4123495337
  0
LINE
  5
261
100
AcDbEntity
  8
0
100
AcDbLine
 62
7
  6
BYLAYER
 10
54.103480783
 20
151.8274145807
 11
66.9608747625
 21
159.2505901455
  0
LINE
  5
262
100
AcDbEntity
  8
0
100
AcDbLine
 62
7
  6
BYLAYER
 10
35.7421385875
 20
140.9404706864
 11
36.8027943433
 21
141.5528369172
  0
LINE
  5
263
100
AcDbEntity
  8
0
100
AcDbLine
 62
7
  6
BYLAYER
 10
105.2152360256
 20
180.4793395781
 11
79.5473667349
 21
165.6600767927
  0
LINE
  5
264
100
AcDbEntity
  8
0
100
AcDbLine
 62
7
  6
BYLAYER
 10
54.952006098
 20
151.3375293443
 11
67.8094039589
 21
158.7607048554
  0
LINE
  5
265
100
AcDbEntity
  8
0
100
AcDbLine
 62
7
  6
BYLAYER
 10
56.3364775617
 20
150.6878543046
 11
56.206890726
 21
150.6130377567
  0
LINE
  5
266
100
AcDbEntity
  8
0
100
AcDbLine
 62
7
  6
BYLAYER
 10
121.2317043577
 20
100.8106407785
 11
121.0817082832
 21
100.8254924262
  0
LINE
  5
267
100
AcDbEntity
  8
0
100
AcDbLine
 62
7
  6
BYLAYER
 10
121.9918473122
 20
85.1848370088
 11
104.5057297868
 21
95.280223281
  0
LINE
  5
268
100
AcDbEntity
  8
0
100
AcDbLine
 62
7
  6
BYLAYER
 10
97.4402916777
 20
99.3593635928
 11
74.9137453232
 21
112.3647769727
  0
LINE
  5
269
100
AcDbEntity
  8
0
100
AcDbLine
 62
7
  6
BYLAYER
 10
66.6055430752
 20
117.1614112627
 11
55.0080490265
 21
123.8570760974
  0
LINE
  5
26A
100
AcDbEntity
  8
0
100
AcDbLine
 62
7
  6
BYLAYER
 10
47.9426109174
 20
127.9362164092
 11
30.4034601626
 21
138.062220738
  0
LINE
  5
26B
100
AcDbEntity
  8
0
100
AcDbLine
 62
7
  6
BYLAYER
 10
125.6157846537
 20
86.8893393792
 11
122.0171779614
 21
88.9669489198
  0
LINE
  5
26C
100
AcDbEntity
  8
0
100
AcDbLine
 62
7
  6
BYLAYER
 10
30.4034601626
 20
141.7773092603
 11
27.9610292808
 21
143.2362809418
  0
LINE
  5
26D
100
AcDbEntity
  8
0
100
AcDbLine
 62
7
  6
BYLAYER
 10
73.6567551166
 20
118.1978492595
 11
73.9705626327
 21
117.8074708692
  0
LINE
  5
26E
100
AcDbEntity
  8
0
100
AcDbLine
 62
7
  6
BYLAYER
 10
74.1025111038
 20
117.8318893535
 11
73.7274660891
 21
118.2984475512
  0
LINE
  5
26F
100
AcDbEntity
  8
0
100
AcDbLine
 62
7
  6
BYLAYER
 10
72.9557472525
 20
120.2012860902
 11
73.0607852451
 21
120.0706182114
  0
LINE
  5
270
100
AcDbEntity
  8
0
100
AcDbLine
 62
7
  6
BYLAYER
 10
74.0810209517
 20
118.8014390094
 11
75.0378222023
 21
117.6111726426
  0
LINE
  5
271
100
AcDbEntity
  8
0
100
AcDbLine
 62
7
  6
BYLAYER
 10
76.2398987256
 20
118.3051877042
 11
74.9020454911
 21
119.9694849735
  0
LINE
  5
272
100
AcDbEntity
  8
0
100
AcDbLine
 62
7
  6
BYLAYER
 10
52.4288688748
 20
151.6572939864
 11
52.2531441929
 21
151.9022404787
  0
LINE
  5
273
100
AcDbEntity
  8
0
100
AcDbLine
 62
7
  6
BYLAYER
 10
71.5217582014
 20
156.6174521234
 11
71.5217582014
 21
154.167944872
  0
LINE
  5
274
100
AcDbEntity
  8
0
100
AcDbLine
 62
7
  6
BYLAYER
 10
74.8851850605
 20
139.829363454
 11
74.8851850605
 21
139.9789953039
  0
LINE
  5
275
100
AcDbEntity
  8
0
100
AcDbLine
 62
7
  6
BYLAYER
 10
75.799904517
 20
137.409689954
 11
75.799904517
 21
123.9674776318
  0
LINE
  5
276
100
AcDbEntity
  8
0
100
AcDbLine
 62
7
  6
BYLAYER
 10
75.799904517
 20
121.2468409613
 11
75.799904517
 21
119.201686052
  0
LINE
  5
277
100
AcDbEntity
  8
0
100
AcDbLine
 62
7
  6
BYLAYER
 10
57.7507214505
 20
149.8713586864
 11
70.4785304884
 21
157.2197187968
  0
LINE
  5
278
100
AcDbEntity
  8
0
100
AcDbLine
 62
7
  6
BYLAYER
 10
58.7939253459
 20
149.2690782619
 11
71.5217582014
 21
156.6174521234
  0
LINE
  5
279
100
AcDbEntity
  8
0
100
AcDbLine
 62
7
  6
BYLAYER
 10
109.0992056739
 20
177.053081197
 11
102.1342328774
 21
173.0318762814
  0
LINE
  5
27A
100
AcDbEntity
  8
0
100
AcDbLine
 62
7
  6
BYLAYER
 10
71.5217582014
 20
154.167944872
 11
60.9152911791
 21
148.0443348345
  0
LINE
  5
27B
100
AcDbEntity
  8
0
100
AcDbLine
 62
7
  6
BYLAYER
 10
101.3972765674
 20
104.4233707383
 11
100.5487448972
 21
104.9132596438
  0
LINE
  5
27C
100
AcDbEntity
  8
0
100
AcDbLine
 62
7
  6
BYLAYER
 10
76.6484361872
 20
118.7117971466
 11
75.799904517
 21
119.201686052
  0
LINE
  5
27D
100
AcDbEntity
  8
0
100
AcDbLine
 62
7
  6
BYLAYER
 10
51.8995958071
 20
133.0002235548
 11
51.0510641369
 21
133.4901124602
  0
LINE
  5
27E
100
AcDbEntity
  8
0
100
AcDbLine
 62
7
  6
BYLAYER
 10
109.458327434
 20
100.3409778288
 11
103.0943399077
 21
104.0151446195
  0
LINE
  5
27F
100
AcDbEntity
  8
0
100
AcDbLine
 62
7
  6
BYLAYER
 10
98.8516815568
 20
106.4645891466
 11
92.4876940305
 21
110.1387559373
  0
LINE
  5
280
100
AcDbEntity
  8
0
100
AcDbLine
 62
7
  6
BYLAYER
 10
104.732512665
 20
104.9609384563
 11
105.7045714862
 21
104.3997327303
  0
LINE
  5
281
100
AcDbEntity
  8
0
100
AcDbLine
 62
7
  6
BYLAYER
 10
109.458327434
 20
102.3821816015
 11
105.834158322
 21
104.4745492782
  0
LINE
  5
282
100
AcDbEntity
  8
0
100
AcDbLine
 62
7
  6
BYLAYER
 10
98.8516815568
 20
108.5057929193
 11
94.2554536235
 21
111.159366322
  0
LINE
  5
283
100
AcDbEntity
  8
0
100
AcDbLine
 62
7
  6
BYLAYER
 10
92.4876940305
 20
114.3845685064
 11
98.8516815568
 21
110.7104017157
  0
LINE
  5
284
100
AcDbEntity
  8
0
100
AcDbLine
 62
7
  6
BYLAYER
 10
103.0943399077
 20
108.2609571886
 11
109.458327434
 21
104.5867903979
  0
LINE
  5
285
100
AcDbEntity
  8
0
100
AcDbLine
 62
7
  6
BYLAYER
 10
28.3528519692
 20
152.0652366399
 11
29.2720946119
 21
151.534523659
  0
LINE
  5
286
100
AcDbEntity
  8
0
100
AcDbLine
 62
7
  6
BYLAYER
 10
120.7720930459
 20
98.7081700241
 11
121.6913356886
 21
98.1774570432
  0
LINE
  5
287
100
AcDbEntity
  8
0
100
AcDbLine
 62
7
  6
BYLAYER
 10
28.2821409967
 20
152.2693611988
 11
29.3428055844
 21
151.657000067
  0
LINE
  5
288
100
AcDbEntity
  8
0
100
AcDbLine
 62
7
  6
BYLAYER
 10
120.7013917676
 20
98.9122889861
 11
121.7620479918
 21
98.2999326829
  0
LINE
  5
289
100
AcDbEntity
  8
0
100
AcDbLine
 62
7
  6
BYLAYER
 10
122.4338009
 20
98.7286071515
 11
120.7013903165
 21
99.7287922411
  0
LINE
  5
28A
100
AcDbEntity
  8
0
100
AcDbLine
 62
7
  6
BYLAYER
 10
30.0145598233
 20
152.0856737673
 11
28.2821492398
 21
153.0858588569
  0
LINE
  5
28B
100
AcDbEntity
  8
0
100
AcDbLine
 62
7
  6
BYLAYER
 10
79.1888358849
 20
125.8233398667
 11
79.0883765277
 21
125.9483118961
  0
LINE
  5
28C
100
AcDbEntity
  8
0
100
AcDbLine
 62
7
  6
BYLAYER
 10
76.5164015726
 20
129.1478637777
 11
76.4159422277
 21
129.2728357919
  0
LINE
  5
28D
100
AcDbEntity
  8
0
100
AcDbLine
 62
7
  6
BYLAYER
 10
79.6827985119
 20
126.2391558411
 11
79.6540595975
 21
126.2749072192
  0
LINE
  5
28E
100
AcDbEntity
  8
0
100
AcDbLine
 62
7
  6
BYLAYER
 10
76.0825290816
 20
167.6604564898
 11
76.0825290816
 21
166.0274516555
  0
LINE
  5
28F
100
AcDbEntity
  8
0
100
AcDbLine
 62
7
  6
BYLAYER
 10
76.1534564357
 20
119.4058081289
 11
76.1534564357
 21
122.0364437107
  0
LINE
  5
290
100
AcDbEntity
  8
0
100
AcDbLine
 62
7
  6
BYLAYER
 10
76.1534564357
 20
124.4704649018
 11
76.1534564357
 21
128.4484331225
  0
LINE
  5
291
100
AcDbEntity
  8
0
100
AcDbLine
 62
7
  6
BYLAYER
 10
76.1534564357
 20
129.8856771066
 11
76.1534564357
 21
137.6138120309
  0
LINE
  5
292
100
AcDbEntity
  8
0
100
AcDbLine
 62
7
  6
BYLAYER
 10
76.6484361872
 20
136.9198010485
 11
76.6484361872
 21
130.5737974992
  0
LINE
  5
293
100
AcDbEntity
  8
0
100
AcDbLine
 62
7
  6
BYLAYER
 10
76.6484361872
 20
127.297964946
 11
76.6484361872
 21
125.1746571316
  0
LINE
  5
294
100
AcDbEntity
  8
0
100
AcDbLine
 62
7
  6
BYLAYER
 10
76.6484361872
 20
122.6100349183
 11
76.6484361872
 21
118.7117971466
  0
LINE
  5
295
100
AcDbEntity
  8
0
100
AcDbLine
 62
7
  6
BYLAYER
 10
76.75026461
 20
160.1283727527
 11
76.75026461
 21
161.7613775869
  0
LINE
  5
296
100
AcDbEntity
  8
0
100
AcDbLine
 62
7
  6
BYLAYER
 10
78.4030559431
 20
137.7983657003
 11
78.4030559431
 21
137.9479975501
  0
LINE
  5
297
100
AcDbEntity
  8
0
100
AcDbLine
 62
7
  6
BYLAYER
 10
79.5474229644
 20
157.8626459175
 11
79.5474229644
 21
156.2296410833
  0
LINE
  5
298
100
AcDbEntity
  8
0
100
AcDbLine
 62
7
  6
BYLAYER
 10
109.0950917719
 20
169.7069345516
 11
108.4942164748
 21
169.3600211078
  0
LINE
  5
299
100
AcDbEntity
  8
0
100
AcDbLine
 62
7
  6
BYLAYER
 10
51.4046160555
 20
133.6942345371
 11
51.0510641369
 21
133.4901124602
  0
LINE
  5
29A
100
AcDbEntity
  8
0
100
AcDbLine
 62
7
  6
BYLAYER
 10
74.4020886651
 20
112.0696827128
 11
73.3938793555
 21
111.8542335817
  0
LINE
  5
29B
100
AcDbEntity
  8
0
100
AcDbLine
 62
7
  6
BYLAYER
 10
115.9383649046
 20
118.144173085
 11
116.9537323249
 21
118.2042436977
  0
LINE
  5
29C
100
AcDbEntity
  8
0
100
AcDbLine
 62
7
  6
BYLAYER
 10
123.6358774232
 20
99.4226222131
 11
121.2317043577
 21
100.8106407785
  0
LINE
  5
29D
100
AcDbEntity
  8
0
100
AcDbLine
 62
7
  6
BYLAYER
 10
31.2166363465
 20
152.7796888289
 11
28.812463281
 21
154.1677073943
  0
LINE
  5
29E
100
AcDbEntity
  8
0
100
AcDbLine
 62
7
  6
BYLAYER
 10
77.0779809438
 20
130.2146976244
 11
77.1784403009
 21
130.089725595
  0
LINE
  5
29F
100
AcDbEntity
  8
0
100
AcDbLine
 62
7
  6
BYLAYER
 10
79.7504152561
 20
126.8901737134
 11
79.850874601
 21
126.7652016992
  0
LINE
  5
2A0
100
AcDbEntity
  8
0
100
AcDbLine
 62
7
  6
BYLAYER
 10
81.5360617828
 20
132.1281293811
 11
82.3321492636
 21
131.1377918864
  0
LINE
  5
2A1
100
AcDbEntity
  8
0
100
AcDbLine
 62
7
  6
BYLAYER
 10
82.24316562
 20
132.536373535
 11
83.0392531008
 21
131.5460360403
  0
LINE
  5
2A2
100
AcDbEntity
  8
0
100
AcDbLine
 62
7
  6
BYLAYER
 10
77.177709255
 20
137.3688675782
 11
77.0019845731
 21
137.6138140705
  0
LINE
  5
2A3
100
AcDbEntity
  8
0
100
AcDbLine
 62
7
  6
BYLAYER
 10
84.3585929951
 20
184.0024863453
 11
84.3585929951
 21
189.7180032652
  0
LINE
  5
2A4
100
AcDbEntity
  8
0
100
AcDbLine
 62
7
  6
BYLAYER
 10
85.2398193478
 20
114.4865241545
 11
85.2398193478
 21
112.36361787
  0
LINE
  5
2A5
100
AcDbEntity
  8
0
100
AcDbLine
 62
7
  6
BYLAYER
 10
86.3004751036
 20
115.0988903854
 11
86.3004751036
 21
112.9759841008
  0
LINE
  5
2A6
100
AcDbEntity
  8
0
100
AcDbLine
 62
7
  6
BYLAYER
 10
87.3256299412
 20
151.7389927835
 11
87.3256299412
 21
153.3719976177
  0
LINE
  5
2A7
100
AcDbEntity
  8
0
100
AcDbLine
 62
7
  6
BYLAYER
 10
84.3483083427
 20
189.7096903253
 11
84.3503652938
 21
191.3415076052
  0
LINE
  5
2A8
100
AcDbEntity
  8
0
100
AcDbLine
 62
7
  6
BYLAYER
 10
77.1784403009
 20
130.089725595
 11
76.5164015726
 21
129.1478637777
  0
LINE
  5
2A9
100
AcDbEntity
  8
0
100
AcDbLine
 62
7
  6
BYLAYER
 10
77.0019881058
 20
137.1239231255
 11
77.177709255
 21
137.3688675782
  0
LINE
  5
2AA
100
AcDbEntity
  8
0
100
AcDbLine
 62
7
  6
BYLAYER
 10
113.5996951799
 20
166.4124382863
 11
120.5646679764
 21
170.433643202
  0
LINE
  5
2AB
100
AcDbEntity
  8
0
100
AcDbLine
 62
7
  6
BYLAYER
 10
49.7103705105
 20
128.9568267939
 11
47.9426109174
 21
127.9362164092
  0
LINE
  5
2AC
100
AcDbEntity
  8
0
100
AcDbLine
 62
7
  6
BYLAYER
 10
74.8851850605
 20
139.9789953039
 11
74.7555982247
 21
139.904178756
  0
LINE
  5
2AD
100
AcDbEntity
  8
0
100
AcDbLine
 62
7
  6
BYLAYER
 10
75.1399951061
 20
139.6822521337
 11
87.9974147973
 21
147.105442543
  0
LINE
  5
2AE
100
AcDbEntity
  8
0
100
AcDbLine
 62
7
  6
BYLAYER
 10
125.6157846537
 20
108.649128798
 11
120.7013903165
 21
111.486391504
  0
LINE
  5
2AF
100
AcDbEntity
  8
0
100
AcDbLine
 62
7
  6
BYLAYER
 10
119.0750438366
 20
112.4253418401
 11
118.2098698771
 21
112.9248389584
  0
LINE
  5
2B0
100
AcDbEntity
  8
0
100
AcDbLine
 62
7
  6
BYLAYER
 10
116.7206099529
 20
113.7846441251
 11
101.3972765674
 21
122.6313746403
  0
LINE
  5
2B1
100
AcDbEntity
  8
0
100
AcDbLine
 62
7
  6
BYLAYER
 10
100.5487448972
 20
123.1212635458
 11
76.6484361872
 21
136.9198010485
  0
LINE
  5
2B2
100
AcDbEntity
  8
0
100
AcDbLine
 62
7
  6
BYLAYER
 10
75.799904517
 20
137.409689954
 11
51.8995958071
 21
151.2082274568
  0
LINE
  5
2B3
100
AcDbEntity
  8
0
100
AcDbLine
 62
7
  6
BYLAYER
 10
51.0510641369
 20
151.6981163622
 11
28.2821492398
 21
164.8434581198
  0
LINE
  5
2B4
100
AcDbEntity
  8
0
100
AcDbLine
 62
7
  6
BYLAYER
 10
119.0142845428
 20
113.9006666768
 11
118.8982840691
 21
113.9676380664
  0
LINE
  5
2B5
100
AcDbEntity
  8
0
100
AcDbLine
 62
7
  6
BYLAYER
 10
115.9284232235
 20
115.6822491959
 11
115.8124227639
 21
115.7492205774
  0
LINE
  5
2B6
100
AcDbEntity
  8
0
100
AcDbLine
 62
7
  6
BYLAYER
 10
26.5950434661
 20
167.2577332926
 11
26.4790429924
 21
167.3247046822
  0
LINE
  5
2B7
100
AcDbEntity
  8
0
100
AcDbLine
 62
7
  6
BYLAYER
 10
23.5091821468
 20
169.0393158116
 11
23.3931816872
 21
169.1062871931
  0
LINE
  5
2B8
100
AcDbEntity
  8
0
100
AcDbLine
 62
7
  6
BYLAYER
 10
50.0201147326
 20
154.1848937357
 11
52.6892368942
 21
152.643910199
  0
LINE
  5
2B9
100
AcDbEntity
  8
0
100
AcDbLine
 62
7
  6
BYLAYER
 10
53.537761994
 20
152.1540250869
 11
56.206890726
 21
150.6130377567
  0
LINE
  5
2BA
100
AcDbEntity
  8
0
100
AcDbLine
 62
7
  6
BYLAYER
 10
74.7555982247
 20
139.904178756
 11
77.4512171115
 21
138.3478976738
  0
LINE
  5
2BB
100
AcDbEntity
  8
0
100
AcDbLine
 62
7
  6
BYLAYER
 10
78.2734691073
 20
137.8731810022
 11
80.9690879941
 21
136.3168999201
  0
LINE
  5
2BC
100
AcDbEntity
  8
0
100
AcDbLine
 62
7
  6
BYLAYER
 10
99.5178778405
 20
125.607993377
 11
102.1870006684
 21
124.0670094555
  0
LINE
  5
2BD
100
AcDbEntity
  8
0
100
AcDbLine
 62
7
  6
BYLAYER
 10
103.0354493247
 20
123.5771684771
 11
105.7045714862
 21
122.0361849403
  0
LINE
  5
2BE
100
AcDbEntity
  8
0
100
AcDbLine
 62
7
  6
BYLAYER
 10
127.3835442467
 20
109.6697391827
 11
120.7013903165
 21
113.5275952767
  0
LINE
  5
2BF
100
AcDbEntity
  8
0
100
AcDbLine
 62
7
  6
BYLAYER
 10
115.4019443483
 20
116.5871626163
 11
105.834158322
 21
122.1110014882
  0
LINE
  5
2C0
100
AcDbEntity
  8
0
100
AcDbLine
 62
7
  6
BYLAYER
 10
103.1650361604
 20
123.651985025
 11
102.3165875041
 21
124.1418260034
  0
LINE
  5
2C1
100
AcDbEntity
  8
0
100
AcDbLine
 62
7
  6
BYLAYER
 10
99.6474646763
 20
125.6828099249
 11
81.0986748299
 21
136.391716468
  0
LINE
  5
2C2
100
AcDbEntity
  8
0
100
AcDbLine
 62
7
  6
BYLAYER
 10
78.4030559431
 20
137.9479975501
 11
77.5808039473
 21
138.4227142217
  0
LINE
  5
2C3
100
AcDbEntity
  8
0
100
AcDbLine
 62
7
  6
BYLAYER
 10
74.8851850605
 20
139.9789953039
 11
56.3364775617
 21
150.6878543046
  0
LINE
  5
2C4
100
AcDbEntity
  8
0
100
AcDbLine
 62
7
  6
BYLAYER
 10
53.6673488431
 20
152.2288416271
 11
52.8188237299
 21
152.7187267469
  0
LINE
  5
2C5
100
AcDbEntity
  8
0
100
AcDbLine
 62
7
  6
BYLAYER
 10
50.1497015683
 20
154.2597102837
 11
28.6003156437
 21
166.7009725892
  0
LINE
  5
2C6
100
AcDbEntity
  8
0
100
AcDbLine
 62
7
  6
BYLAYER
 10
23.393181673
 20
170.6352047164
 11
23.5091821468
 21
170.5682333267
  0
LINE
  5
2C7
100
AcDbEntity
  8
0
100
AcDbLine
 62
7
  6
BYLAYER
 10
26.4790429924
 20
168.8536221973
 11
26.595043452
 21
168.7866508158
  0
LINE
  5
2C8
100
AcDbEntity
  8
0
100
AcDbLine
 62
7
  6
BYLAYER
 10
115.8124227497
 20
117.2781381006
 11
115.9284232235
 21
117.2111667109
  0
LINE
  5
2C9
100
AcDbEntity
  8
0
100
AcDbLine
 62
7
  6
BYLAYER
 10
118.8982840691
 20
115.4965555815
 11
119.0142845287
 21
115.4295842
  0
LINE
  5
2CA
100
AcDbEntity
  8
0
100
AcDbLine
 62
7
  6
BYLAYER
 10
89.0272379872
 20
143.3982717139
 11
89.0272379872
 21
146.5108597961
  0
LINE
  5
2CB
100
AcDbEntity
  8
0
100
AcDbLine
 62
7
  6
BYLAYER
 10
91.9573617367
 20
108.4853307021
 11
91.9573617367
 21
110.6082369866
  0
LINE
  5
2CC
100
AcDbEntity
  8
0
100
AcDbLine
 62
7
  6
BYLAYER
 10
92.4876940305
 20
110.1387559373
 11
92.4876940305
 21
114.3845685064
  0
LINE
  5
2CD
100
AcDbEntity
  8
0
100
AcDbLine
 62
7
  6
BYLAYER
 10
92.5451088698
 20
141.3672739601
 11
92.5451088698
 21
144.4798620423
  0
LINE
  5
2CE
100
AcDbEntity
  8
0
100
AcDbLine
 62
7
  6
BYLAYER
 10
94.2554536235
 20
113.3639751184
 11
94.2554536235
 21
111.159366322
  0
LINE
  5
2CF
100
AcDbEntity
  8
0
100
AcDbLine
 62
7
  6
BYLAYER
 10
72.397123263
 20
119.8964506416
 11
72.6659682981
 21
120.2789280746
  0
LINE
  5
2D0
100
AcDbEntity
  8
0
100
AcDbLine
 62
7
  6
BYLAYER
 10
71.3346435
 20
117.6148902739
 11
77.383778146
 21
126.2208051648
  0
LINE
  5
2D1
100
AcDbEntity
  8
0
100
AcDbLine
 62
7
  6
BYLAYER
 10
80.8740299187
 20
131.1862773293
 11
81.5360617828
 21
132.1281293811
  0
LINE
  5
2D2
100
AcDbEntity
  8
0
100
AcDbLine
 62
7
  6
BYLAYER
 10
72.1307309808
 20
116.6245527792
 11
78.3946455597
 21
125.5360283712
  0
LINE
  5
2D3
100
AcDbEntity
  8
0
100
AcDbLine
 62
7
  6
BYLAYER
 10
81.6701173995
 20
130.1959398346
 11
82.3321492636
 21
131.1377918864
  0
LINE
  5
2D4
100
AcDbEntity
  8
0
100
AcDbLine
 62
7
  6
BYLAYER
 10
79.0883765277
 20
125.9483118961
 11
79.7504152561
 21
126.8901737134
  0
LINE
  5
2D5
100
AcDbEntity
  8
0
100
AcDbLine
 62
7
  6
BYLAYER
 10
83.0392531008
 20
131.5460360403
 11
82.3772212367
 21
130.6041839885
  0
LINE
  5
2D6
100
AcDbEntity
  8
0
100
AcDbLine
 62
7
  6
BYLAYER
 10
78.7078103387
 20
125.3838277332
 11
77.0847925542
 21
123.0748110329
  0
LINE
  5
2D7
100
AcDbEntity
  8
0
100
AcDbLine
 62
7
  6
BYLAYER
 10
75.9121837323
 20
121.4065770933
 11
72.9806172606
 21
117.2359290538
  0
LINE
  5
2D8
100
AcDbEntity
  8
0
100
AcDbLine
 62
7
  6
BYLAYER
 10
79.6540595975
 20
126.2749072192
 11
79.7761879249
 21
126.4486553754
  0
LINE
  5
2D9
100
AcDbEntity
  8
0
100
AcDbLine
 62
7
  6
BYLAYER
 10
73.9705626327
 20
117.8074708692
 11
73.8277801901
 21
117.6043387485
  0
LINE
  5
2DA
100
AcDbEntity
  8
0
100
AcDbLine
 62
7
  6
BYLAYER
 10
73.8826508508
 20
117.5191010399
 11
74.1025111038
 21
117.8318893535
  0
LINE
  5
2DB
100
AcDbEntity
  8
0
100
AcDbLine
 62
7
  6
BYLAYER
 10
75.1154682391
 20
117.2317357833
 11
74.846623204
 21
116.8492583503
  0
LINE
  5
2DC
100
AcDbEntity
  8
0
100
AcDbLine
 62
7
  6
BYLAYER
 10
76.0486997273
 20
117.5432734119
 11
76.3175447624
 21
117.9257508449
  0
LINE
  5
2DD
100
AcDbEntity
  8
0
100
AcDbLine
 62
7
  6
BYLAYER
 10
76.3269022079
 20
130.2663230604
 11
76.6584254496
 21
130.573779446
  0
LINE
  5
2DE
100
AcDbEntity
  8
0
100
AcDbLine
 62
7
  6
BYLAYER
 10
100.8313694617
 20
153.3720300815
 11
126.4992387526
 21
168.1912928671
  0
LINE
  5
2DF
100
AcDbEntity
  8
0
100
AcDbLine
 62
7
  6
BYLAYER
 10
76.1698421135
 20
139.0876831377
 11
89.0272379872
 21
146.5108597961
  0
LINE
  5
2E0
100
AcDbEntity
  8
0
100
AcDbLine
 62
7
  6
BYLAYER
 10
61.5516347234
 20
129.3873167936
 11
60.4909789676
 21
128.7749505628
  0
LINE
  5
2E1
100
AcDbEntity
  8
0
100
AcDbLine
 62
7
  6
BYLAYER
 10
75.799904517
 20
137.409689954
 11
76.1534564357
 21
137.6138120309
  0
LINE
  5
2E2
100
AcDbEntity
  8
0
100
AcDbLine
 62
7
  6
BYLAYER
 10
77.5808039473
 20
138.4227142217
 11
77.4512171115
 21
138.3478976738
  0
LINE
  5
2E3
100
AcDbEntity
  8
0
100
AcDbLine
 62
7
  6
BYLAYER
 10
126.4992387526
 20
166.5582880328
 11
100.8313694617
 21
151.7390252473
  0
LINE
  5
2E4
100
AcDbEntity
  8
0
100
AcDbLine
 62
7
  6
BYLAYER
 10
78.4030559431
 20
137.9479975501
 11
78.2734691073
 21
137.8731810022
  0
LINE
  5
2E5
100
AcDbEntity
  8
0
100
AcDbLine
 62
7
  6
BYLAYER
 10
76.6484361872
 20
136.9198010485
 11
77.0019881058
 21
137.1239231255
  0
LINE
  5
2E6
100
AcDbEntity
  8
0
100
AcDbLine
 62
7
  6
BYLAYER
 10
78.8654610003
 20
137.5314020555
 11
91.722856874
 21
144.9545787139
  0
LINE
  5
2E7
100
AcDbEntity
  8
0
100
AcDbLine
 62
7
  6
BYLAYER
 10
60.4909789676
 20
126.6520442782
 11
61.5516347234
 21
127.264410509
  0
LINE
  5
2E8
100
AcDbEntity
  8
0
100
AcDbLine
 62
7
  6
BYLAYER
 10
129.9640764058
 20
166.1909131699
 11
104.296207115
 21
151.3716503844
  0
LINE
  5
2E9
100
AcDbEntity
  8
0
100
AcDbLine
 62
7
  6
BYLAYER
 10
79.6877129961
 20
137.056685384
 11
92.5451088698
 21
144.4798620423
  0
LINE
  5
2EA
100
AcDbEntity
  8
0
100
AcDbLine
 62
7
  6
BYLAYER
 10
81.0986748299
 20
136.391716468
 11
80.9690879941
 21
136.3168999201
  0
LINE
  5
2EB
100
AcDbEntity
  8
0
100
AcDbLine
 62
7
  6
BYLAYER
 10
26.6558027599
 20
174.314944438
 11
27.5750454025
 21
173.7842314571
  0
LINE
  5
2EC
100
AcDbEntity
  8
0
100
AcDbLine
 62
7
  6
BYLAYER
 10
119.0750438366
 20
120.9578778222
 11
119.9942864793
 21
120.4271648413
  0
LINE
  5
2ED
100
AcDbEntity
  8
0
100
AcDbLine
 62
7
  6
BYLAYER
 10
27.3629065971
 20
174.7231885918
 11
28.2821492398
 21
174.192475611
  0
LINE
  5
2EE
100
AcDbEntity
  8
0
100
AcDbLine
 62
7
  6
BYLAYER
 10
119.7821476738
 20
121.366121976
 11
120.7013903165
 21
120.8354089951
  0
LINE
  5
2EF
100
AcDbEntity
  8
0
100
AcDbLine
 62
7
  6
BYLAYER
 10
101.9265496351
 20
123.08044117
 11
101.7508249532
 21
123.3253876623
  0
LINE
  5
2F0
100
AcDbEntity
  8
0
100
AcDbLine
 62
7
  6
BYLAYER
 10
96.2705985816
 20
142.3290257152
 11
96.2705985816
 21
139.8795184638
  0
LINE
  5
2F1
100
AcDbEntity
  8
0
100
AcDbLine
 62
7
  6
BYLAYER
 10
98.8516815568
 20
110.7104017157
 11
98.8516815568
 21
106.4645891466
  0
LINE
  5
2F2
100
AcDbEntity
  8
0
100
AcDbLine
 62
7
  6
BYLAYER
 10
99.6474646763
 20
125.533178075
 11
99.6474646763
 21
125.6828099249
  0
LINE
  5
2F3
100
AcDbEntity
  8
0
100
AcDbLine
 62
7
  6
BYLAYER
 10
100.5487448972
 20
123.1212635458
 11
100.5487448972
 21
104.9132596438
  0
LINE
  5
2F4
100
AcDbEntity
  8
0
100
AcDbLine
 62
7
  6
BYLAYER
 10
100.8313694617
 20
153.3720300815
 11
100.8313694617
 21
151.7390252473
  0
LINE
  5
2F5
100
AcDbEntity
  8
0
100
AcDbLine
 62
7
  6
BYLAYER
 10
100.9022968158
 20
105.1173817207
 11
100.9022968158
 21
123.3253856227
  0
LINE
  5
2F6
100
AcDbEntity
  8
0
100
AcDbLine
 62
7
  6
BYLAYER
 10
79.9399146208
 20
125.7717144307
 11
79.6083913792
 21
125.4642580451
  0
LINE
  5
2F7
100
AcDbEntity
  8
0
100
AcDbLine
 62
7
  6
BYLAYER
 10
82.4368068332
 20
127.0972344787
 11
82.7683299697
 21
127.4046910462
  0
LINE
  5
2F8
100
AcDbEntity
  8
0
100
AcDbLine
 62
7
  6
BYLAYER
 10
72.3633693507
 20
119.865252288
 11
72.397123263
 21
119.8964506416
  0
LINE
  5
2F9
100
AcDbEntity
  8
0
100
AcDbLine
 62
7
  6
BYLAYER
 10
72.6659682981
 20
120.2789280746
 11
72.699786275
 21
120.310016549
  0
LINE
  5
2FA
100
AcDbEntity
  8
0
100
AcDbLine
 62
7
  6
BYLAYER
 10
82.5129187186
 20
135.5752208497
 11
95.2407277566
 21
142.9235809602
  0
LINE
  5
2FB
100
AcDbEntity
  8
0
100
AcDbLine
 62
7
  6
BYLAYER
 10
83.542765726
 20
134.9806518537
 11
96.2705985816
 21
142.3290257152
  0
LINE
  5
2FC
100
AcDbEntity
  8
0
100
AcDbLine
 62
7
  6
BYLAYER
 10
76.6584150178
 20
130.5737974992
 11
79.4868303666
 21
132.2067741147
  0
LINE
  5
2FD
100
AcDbEntity
  8
0
100
AcDbLine
 62
7
  6
BYLAYER
 10
133.8531884316
 20
162.7616859029
 11
126.8882156351
 21
158.7404809873
  0
LINE
  5
2FE
100
AcDbEntity
  8
0
100
AcDbLine
 62
7
  6
BYLAYER
 10
76.7328538964
 20
129.4558037369
 11
76.4159422277
 21
129.2728357919
  0
LINE
  5
2FF
100
AcDbEntity
  8
0
100
AcDbLine
 62
7
  6
BYLAYER
 10
81.5360617828
 20
132.1281293811
 11
82.24316562
 21
132.536373535
  0
LINE
  5
300
100
AcDbEntity
  8
0
100
AcDbLine
 62
7
  6
BYLAYER
 10
96.2705985816
 20
139.8795184638
 11
85.6641315592
 21
133.7559084263
  0
LINE
  5
301
100
AcDbEntity
  8
0
100
AcDbLine
 62
7
  6
BYLAYER
 10
82.3321492636
 20
131.1377918864
 11
83.0392531008
 21
131.5460360403
  0
LINE
  5
302
100
AcDbEntity
  8
0
100
AcDbLine
 62
7
  6
BYLAYER
 10
81.6701173995
 20
130.1959398346
 11
82.3772212367
 21
130.6041839885
  0
LINE
  5
303
100
AcDbEntity
  8
0
100
AcDbLine
 62
7
  6
BYLAYER
 10
77.0779809438
 20
130.2146976244
 11
76.9084141203
 21
130.1407837669
  0
LINE
  5
304
100
AcDbEntity
  8
0
100
AcDbLine
 62
7
  6
BYLAYER
 10
137.3889924411
 20
116.1403397523
 11
121.0194389617
 21
125.5910920556
  0
LINE
  5
305
100
AcDbEntity
  8
0
100
AcDbLine
 62
7
  6
BYLAYER
 10
110.6248893443
 20
131.5922523109
 11
96.2705985816
 21
139.8795184638
  0
LINE
  5
306
100
AcDbEntity
  8
0
100
AcDbLine
 62
7
  6
BYLAYER
 10
85.8760489642
 20
145.8806787191
 11
71.5217582014
 21
154.167944872
  0
LINE
  5
307
100
AcDbEntity
  8
0
100
AcDbLine
 62
7
  6
BYLAYER
 10
61.127208584
 20
160.1691051273
 11
44.7576551046
 21
169.6198574306
  0
LINE
  5
308
100
AcDbEntity
  8
0
100
AcDbLine
 62
7
  6
BYLAYER
 10
119.9762093546
 20
128.6428648869
 11
117.307087193
 21
130.1838484236
  0
LINE
  5
309
100
AcDbEntity
  8
0
100
AcDbLine
 62
7
  6
BYLAYER
 10
66.9608747625
 20
159.2505901455
 11
64.2917526009
 21
160.7915736823
  0
LINE
  5
30A
100
AcDbEntity
  8
0
100
AcDbLine
 62
7
  6
BYLAYER
 10
116.4586404309
 20
130.6736904956
 11
113.789517603
 21
132.2146744171
  0
LINE
  5
30B
100
AcDbEntity
  8
0
100
AcDbLine
 62
7
  6
BYLAYER
 10
95.2407277566
 20
142.9235809602
 11
92.5451088698
 21
144.4798620423
  0
LINE
  5
30C
100
AcDbEntity
  8
0
100
AcDbLine
 62
7
  6
BYLAYER
 10
91.722856874
 20
144.9545787139
 11
89.0272379872
 21
146.5108597961
  0
LINE
  5
30D
100
AcDbEntity
  8
0
100
AcDbLine
 62
7
  6
BYLAYER
 10
70.4785304884
 20
157.2197187968
 11
67.8094035946
 21
158.7607050657
  0
LINE
  5
30E
100
AcDbEntity
  8
0
100
AcDbLine
 62
7
  6
BYLAYER
 10
139.5103582743
 20
117.3651035762
 11
121.0194389617
 21
128.040599307
  0
LINE
  5
30F
100
AcDbEntity
  8
0
100
AcDbLine
 62
7
  6
BYLAYER
 10
112.7462551775
 20
132.8170161348
 11
96.2705985816
 21
142.3290257152
  0
LINE
  5
310
100
AcDbEntity
  8
0
100
AcDbLine
 62
7
  6
BYLAYER
 10
87.9974147973
 20
147.105442543
 11
71.5217582014
 21
156.6174521234
  0
LINE
  5
311
100
AcDbEntity
  8
0
100
AcDbLine
 62
7
  6
BYLAYER
 10
63.2485744172
 20
161.3938689513
 11
44.7576551046
 21
172.069364682
  0
LINE
  5
312
100
AcDbEntity
  8
0
100
AcDbLine
 62
7
  6
BYLAYER
 10
101.3972765674
 20
122.6313746403
 11
101.3972765674
 21
104.4233707383
  0
LINE
  5
313
100
AcDbEntity
  8
0
100
AcDbLine
 62
7
  6
BYLAYER
 10
101.4991049901
 20
145.8399463445
 11
101.4991049901
 21
147.4729511787
  0
LINE
  5
314
100
AcDbEntity
  8
0
100
AcDbLine
 62
7
  6
BYLAYER
 10
101.7503983725
 20
180.846714441
 11
101.7503983725
 21
182.4797192753
  0
LINE
  5
315
100
AcDbEntity
  8
0
100
AcDbLine
 62
7
  6
BYLAYER
 10
103.0943399077
 20
104.0151446195
 11
103.0943399077
 21
108.2609571886
  0
LINE
  5
316
100
AcDbEntity
  8
0
100
AcDbLine
 62
7
  6
BYLAYER
 10
103.1650361604
 20
123.5023531752
 11
103.1650361604
 21
123.651985025
  0
LINE
  5
317
100
AcDbEntity
  8
0
100
AcDbLine
 62
7
  6
BYLAYER
 10
104.2962633446
 20
143.5742195093
 11
104.2962633446
 21
141.9412146751
  0
LINE
  5
318
100
AcDbEntity
  8
0
100
AcDbLine
 62
7
  6
BYLAYER
 10
104.732512665
 20
104.9609384563
 11
104.732512665
 21
107.3151791025
  0
LINE
  5
319
100
AcDbEntity
  8
0
100
AcDbLine
 62
7
  6
BYLAYER
 10
79.0883765277
 20
125.9483118961
 11
79.6540595975
 21
126.2749072192
  0
LINE
  5
31A
100
AcDbEntity
  8
0
100
AcDbLine
 62
7
  6
BYLAYER
 10
79.1888358849
 20
125.8233398667
 11
79.5062284062
 21
126.0065854305
  0
LINE
  5
31B
100
AcDbEntity
  8
0
100
AcDbLine
 62
7
  6
BYLAYER
 10
70.9043200272
 20
120.9041168796
 11
69.7022435039
 21
120.210101818
  0
LINE
  5
31C
100
AcDbEntity
  8
0
100
AcDbLine
 62
7
  6
BYLAYER
 10
79.608401811
 20
125.4642399919
 11
82.4368171598
 21
127.0972166074
  0
LINE
  5
31D
100
AcDbEntity
  8
0
100
AcDbLine
 62
7
  6
BYLAYER
 10
70.0772418251
 20
119.5605817959
 11
67.1074057088
 21
117.8459563497
  0
LINE
  5
31E
100
AcDbEntity
  8
0
100
AcDbLine
 62
7
  6
BYLAYER
 10
73.590832497
 20
120.8246998785
 11
72.6996814653
 21
120.3101966616
  0
LINE
  5
31F
100
AcDbEntity
  8
0
100
AcDbLine
 62
7
  6
BYLAYER
 10
72.5166939837
 20
120.0665601707
 11
72.2037401004
 21
119.8858772404
  0
LINE
  5
320
100
AcDbEntity
  8
0
100
AcDbLine
 62
7
  6
BYLAYER
 10
133.865530035
 20
155.4202895342
 11
133.2523131345
 21
155.066250705
  0
LINE
  5
321
100
AcDbEntity
  8
0
100
AcDbLine
 62
7
  6
BYLAYER
 10
73.2871028426
 20
120.3925931874
 11
72.9557472525
 21
120.2012860902
  0
LINE
  5
322
100
AcDbEntity
  8
0
100
AcDbLine
 62
7
  6
BYLAYER
 10
76.1534564357
 20
119.4058081289
 11
75.799904517
 21
119.201686052
  0
LINE
  5
323
100
AcDbEntity
  8
0
100
AcDbLine
 62
7
  6
BYLAYER
 10
72.9806172606
 20
117.2359290538
 11
73.9705626327
 21
117.8074708692
  0
LINE
  5
324
100
AcDbEntity
  8
0
100
AcDbLine
 62
7
  6
BYLAYER
 10
72.1307309808
 20
116.6245527792
 11
73.8277801901
 21
117.6043387485
  0
LINE
  5
325
100
AcDbEntity
  8
0
100
AcDbLine
 62
7
  6
BYLAYER
 10
75.0378222023
 20
117.6111726426
 11
76.2398987256
 21
118.3051877042
  0
LINE
  5
326
100
AcDbEntity
  8
0
100
AcDbLine
 62
7
  6
BYLAYER
 10
76.3175447624
 20
117.9257508448
 11
75.1154682391
 21
117.2317357833
  0
LINE
  5
327
100
AcDbEntity
  8
0
100
AcDbLine
 62
7
  6
BYLAYER
 10
79.1888358849
 20
125.8233398667
 11
79.3584027084
 21
125.8972537242
  0
LINE
  5
328
100
AcDbEntity
  8
0
100
AcDbLine
 62
7
  6
BYLAYER
 10
28.812463281
 20
154.1677073943
 11
28.6624672065
 21
154.182559042
  0
LINE
  5
329
100
AcDbEntity
  8
0
100
AcDbLine
 62
7
  6
BYLAYER
 10
54.7985825842
 20
170.5180674915
 11
62.576789561
 21
166.0274191917
  0
LINE
  5
32A
100
AcDbEntity
  8
0
100
AcDbLine
 62
7
  6
BYLAYER
 10
79.5474229644
 20
156.2296410833
 11
87.3256299412
 21
151.7389927835
  0
LINE
  5
32B
100
AcDbEntity
  8
0
100
AcDbLine
 62
7
  6
BYLAYER
 10
104.2962633445
 20
141.9412146751
 11
112.0744703213
 21
137.4505663753
  0
LINE
  5
32C
100
AcDbEntity
  8
0
100
AcDbLine
 62
7
  6
BYLAYER
 10
129.0451037247
 20
127.6527882669
 11
136.8233107015
 21
123.1621399671
  0
LINE
  5
32D
100
AcDbEntity
  8
0
100
AcDbLine
 62
7
  6
BYLAYER
 10
54.7985825843
 20
172.1510723258
 11
62.576789561
 21
167.660424026
  0
LINE
  5
32E
100
AcDbEntity
  8
0
100
AcDbLine
 62
7
  6
BYLAYER
 10
79.5474229644
 20
157.8626459175
 11
87.3256299412
 21
153.3719976177
  0
LINE
  5
32F
100
AcDbEntity
  8
0
100
AcDbLine
 62
7
  6
BYLAYER
 10
104.2962633446
 20
143.5742195093
 11
112.0744703213
 21
139.0835712095
  0
LINE
  5
330
100
AcDbEntity
  8
0
100
AcDbLine
 62
7
  6
BYLAYER
 10
129.0451037247
 20
129.2857931011
 11
136.8233107015
 21
124.7951448013
  0
LINE
  5
331
100
AcDbEntity
  8
0
100
AcDbLine
 62
7
  6
BYLAYER
 10
109.458327434
 20
104.5867903979
 11
109.458327434
 21
100.3409778288
  0
LINE
  5
332
100
AcDbEntity
  8
0
100
AcDbLine
 62
7
  6
BYLAYER
 10
109.9886597279
 20
100.1980977463
 11
109.9886597279
 21
98.0751914618
  0
LINE
  5
333
100
AcDbEntity
  8
0
100
AcDbLine
 62
7
  6
BYLAYER
 10
111.0493154837
 20
100.8104639771
 11
111.0493154837
 21
98.6875576926
  0
LINE
  5
334
100
AcDbEntity
  8
0
100
AcDbLine
 62
7
  6
BYLAYER
 10
112.0744703213
 20
137.4505663753
 11
112.0744703213
 21
139.0835712095
  0
LINE
  5
335
100
AcDbEntity
  8
0
100
AcDbLine
 62
7
  6
BYLAYER
 10
109.0950917719
 20
169.7069345516
 11
109.0992056739
 21
177.053081197
  0
LINE
  5
336
100
AcDbEntity
  8
0
100
AcDbLine
 62
7
  6
BYLAYER
 10
101.750828486
 20
122.8354967173
 11
101.9265496351
 21
123.08044117
  0
LINE
  5
337
100
AcDbEntity
  8
0
100
AcDbLine
 62
7
  6
BYLAYER
 10
74.846623204
 20
116.8492583502
 11
76.0486997272
 21
117.5432734118
  0
LINE
  5
338
100
AcDbEntity
  8
0
100
AcDbLine
 62
7
  6
BYLAYER
 10
76.0537266663
 20
117.2858759904
 11
74.851650143
 21
116.5918609288
  0
LINE
  5
339
100
AcDbEntity
  8
0
100
AcDbLine
 62
7
  6
BYLAYER
 10
138.34853556
 20
152.1240118781
 11
145.3135083566
 21
156.1452167938
  0
LINE
  5
33A
100
AcDbEntity
  8
0
100
AcDbLine
 62
7
  6
BYLAYER
 10
74.0272241414
 20
112.7189708964
 11
71.0573880251
 21
111.0043454501
  0
LINE
  5
33B
100
AcDbEntity
  8
0
100
AcDbLine
 62
7
  6
BYLAYER
 10
75.6042989858
 20
112.7634659359
 11
74.4022224626
 21
112.0694508743
  0
LINE
  5
33C
100
AcDbEntity
  8
0
100
AcDbLine
 62
7
  6
BYLAYER
 10
99.6474646763
 20
125.6828099249
 11
99.5178778405
 21
125.607993377
  0
LINE
  5
33D
100
AcDbEntity
  8
0
100
AcDbLine
 62
7
  6
BYLAYER
 10
99.8888354862
 20
125.3938257255
 11
112.7462551775
 21
132.8170161348
  0
LINE
  5
33E
100
AcDbEntity
  8
0
100
AcDbLine
 62
7
  6
BYLAYER
 10
125.5802098419
 20
139.0836036733
 11
151.2480791327
 21
153.9028664589
  0
LINE
  5
33F
100
AcDbEntity
  8
0
100
AcDbLine
 62
7
  6
BYLAYER
 10
100.9321217293
 20
124.7914977587
 11
113.789517603
 21
132.2146744171
  0
LINE
  5
340
100
AcDbEntity
  8
0
100
AcDbLine
 62
7
  6
BYLAYER
 10
113.789517603
 20
129.132680911
 11
113.789517603
 21
132.2146744171
  0
LINE
  5
341
100
AcDbEntity
  8
0
100
AcDbLine
 62
7
  6
BYLAYER
 10
115.9284232235
 20
117.2111667109
 11
115.9284232235
 21
115.6822491959
  0
LINE
  5
342
100
AcDbEntity
  8
0
100
AcDbLine
 62
7
  6
BYLAYER
 10
117.307087193
 20
127.101855687
 11
117.307087193
 21
130.1838484236
  0
LINE
  5
343
100
AcDbEntity
  8
0
100
AcDbLine
 62
7
  6
BYLAYER
 10
118.8982840691
 20
113.9676380664
 11
118.8982840691
 21
115.4965555815
  0
LINE
  5
344
100
AcDbEntity
  8
0
100
AcDbLine
 62
7
  6
BYLAYER
 10
119.0750438366
 20
97.398641144
 11
119.0750438366
 21
113.1424124358
  0
LINE
  5
345
100
AcDbEntity
  8
0
100
AcDbLine
 62
7
  6
BYLAYER
 10
119.0750438366
 20
119.4289761593
 11
119.0750438366
 21
120.9578778222
  0
LINE
  5
346
100
AcDbEntity
  8
0
100
AcDbLine
 62
7
  6
BYLAYER
 10
119.9942864793
 20
96.8679281631
 11
119.9942864793
 21
113.673134255
  0
LINE
  5
347
100
AcDbEntity
  8
0
100
AcDbLine
 62
7
  6
BYLAYER
 10
119.9942864793
 20
118.8982631785
 11
119.9942864793
 21
120.4271648413
  0
LINE
  5
348
100
AcDbEntity
  8
0
100
AcDbLine
 62
7
  6
BYLAYER
 10
86.3004751036
 20
115.0988903854
 11
85.2398193478
 21
114.4865241545
  0
LINE
  5
349
100
AcDbEntity
  8
0
100
AcDbLine
 62
7
  6
BYLAYER
 10
100.5487448972
 20
123.1212635458
 11
100.9022968158
 21
123.3253856227
  0
LINE
  5
34A
100
AcDbEntity
  8
0
100
AcDbLine
 62
7
  6
BYLAYER
 10
102.3165875041
 20
124.1418260034
 11
102.1870006684
 21
124.0670094555
  0
LINE
  5
34B
100
AcDbEntity
  8
0
100
AcDbLine
 62
7
  6
BYLAYER
 10
151.2480791327
 20
152.2698616246
 11
125.5802098419
 21
137.4505988391
  0
LINE
  5
34C
100
AcDbEntity
  8
0
100
AcDbLine
 62
7
  6
BYLAYER
 10
103.1650361604
 20
123.651985025
 11
103.0354493247
 21
123.5771684771
  0
LINE
  5
34D
100
AcDbEntity
  8
0
100
AcDbLine
 62
7
  6
BYLAYER
 10
101.3972765674
 20
122.6313746403
 11
101.750828486
 21
122.8354967173
  0
LINE
  5
34E
100
AcDbEntity
  8
0
100
AcDbLine
 62
7
  6
BYLAYER
 10
103.6012445572
 20
123.2505138372
 11
116.4586404309
 21
130.6736904956
  0
LINE
  5
34F
100
AcDbEntity
  8
0
100
AcDbLine
 62
7
  6
BYLAYER
 10
85.2398193478
 20
112.36361787
 11
86.3004751036
 21
112.9759841008
  0
LINE
  5
350
100
AcDbEntity
  8
0
100
AcDbLine
 62
7
  6
BYLAYER
 10
154.7129167859
 20
151.9024867617
 11
129.0450474952
 21
137.0832239762
  0
LINE
  5
351
100
AcDbEntity
  8
0
100
AcDbLine
 62
7
  6
BYLAYER
 10
104.4496932134
 20
122.7606728588
 11
117.307087193
 21
130.1838484236
  0
LINE
  5
352
100
AcDbEntity
  8
0
100
AcDbLine
 62
7
  6
BYLAYER
 10
105.834158322
 20
122.1110014882
 11
105.7045714862
 21
122.0361849403
  0
LINE
  5
353
100
AcDbEntity
  8
0
100
AcDbLine
 62
7
  6
BYLAYER
 10
107.2484022107
 20
121.29450587
 11
119.9762093546
 21
128.6428648869
  0
LINE
  5
354
100
AcDbEntity
  8
0
100
AcDbLine
 62
7
  6
BYLAYER
 10
25.2769493941
 20
149.3040270585
 11
24.3176527948
 21
149.2156604879
  0
LINE
  5
355
100
AcDbEntity
  8
0
100
AcDbLine
 62
7
  6
BYLAYER
 10
124.3589038696
 20
94.4255306737
 11
124.3929807512
 21
91.9226795101
  0
LINE
  5
356
100
AcDbEntity
  8
0
100
AcDbLine
 62
7
  6
BYLAYER
 10
125.5950572744
 20
92.6166945717
 11
125.5609803928
 21
95.1195457354
  0
LINE
  5
357
100
AcDbEntity
  8
0
100
AcDbLine
 62
7
  6
BYLAYER
 10
120.7013903165
 20
120.8354089951
 11
120.7013903165
 21
119.3065073323
  0
LINE
  5
358
100
AcDbEntity
  8
0
100
AcDbLine
 62
7
  6
BYLAYER
 10
120.7013903165
 20
114.0813784089
 11
120.7013903165
 21
107.0841303573
  0
LINE
  5
359
100
AcDbEntity
  8
0
100
AcDbLine
 62
7
  6
BYLAYER
 10
120.7013903165
 20
104.3760981992
 11
120.7013903165
 21
97.6059152278
  0
LINE
  5
35A
100
AcDbEntity
  8
0
100
AcDbLine
 62
7
  6
BYLAYER
 10
121.0194389617
 20
128.040599307
 11
121.0194389617
 21
125.5910920556
  0
LINE
  5
35B
100
AcDbEntity
  8
0
100
AcDbLine
 62
7
  6
BYLAYER
 10
121.6913356886
 20
98.1774570432
 11
121.6913356886
 21
97.8477141324
  0
LINE
  5
35C
100
AcDbEntity
  8
0
100
AcDbLine
 62
7
  6
BYLAYER
 10
121.7620479918
 20
98.2999326829
 11
121.7620479918
 21
97.7921853655
  0
LINE
  5
35D
100
AcDbEntity
  8
0
100
AcDbLine
 62
7
  6
BYLAYER
 10
122.6459338175
 20
97.7403113334
 11
122.6459338175
 21
98.3611842
  0
LINE
  5
35E
100
AcDbEntity
  8
0
100
AcDbLine
 62
7
  6
BYLAYER
 10
123.8480103408
 20
98.434326395
 11
123.8480103408
 21
99.0551992616
  0
LINE
  5
35F
100
AcDbEntity
  8
0
100
AcDbLine
 62
7
  6
BYLAYER
 10
125.5802098419
 20
139.0836036733
 11
125.5802098419
 21
137.4505988391
  0
LINE
  5
360
100
AcDbEntity
  8
0
100
AcDbLine
 62
7
  6
BYLAYER
 10
125.6157846537
 20
108.649128798
 11
125.6157846537
 21
86.8893393792
  0
LINE
  5
361
100
AcDbEntity
  8
0
100
AcDbLine
 62
7
  6
BYLAYER
 10
126.2479453703
 20
131.5515199363
 11
126.2479453703
 21
133.1845247705
  0
LINE
  5
362
100
AcDbEntity
  8
0
100
AcDbLine
 62
7
  6
BYLAYER
 10
122.0171779614
 20
88.9669489198
 11
121.9918473122
 21
85.1848370088
  0
LINE
  5
363
100
AcDbEntity
  8
0
100
AcDbLine
 62
7
  6
BYLAYER
 10
123.7596069053
 20
86.2054473935
 11
123.7713192746
 21
87.9542178715
  0
LINE
  5
364
100
AcDbEntity
  8
0
100
AcDbLine
 62
7
  6
BYLAYER
 10
108.2916061062
 20
120.6922254455
 11
121.0194389617
 21
128.040599307
  0
LINE
  5
365
100
AcDbEntity
  8
0
100
AcDbLine
 62
7
  6
BYLAYER
 10
158.5968864342
 20
148.4762283806
 11
151.6319136377
 21
144.455023465
  0
LINE
  5
366
100
AcDbEntity
  8
0
100
AcDbLine
 62
7
  6
BYLAYER
 10
94.2554536235
 20
111.159366322
 11
92.4876940305
 21
110.1387559373
  0
LINE
  5
367
100
AcDbEntity
  8
0
100
AcDbLine
 62
7
  6
BYLAYER
 10
121.0194389617
 20
125.5910920556
 11
110.4129719393
 21
119.4674820181
  0
LINE
  5
368
100
AcDbEntity
  8
0
100
AcDbLine
 62
7
  6
BYLAYER
 10
119.0750438366
 20
120.9578778222
 11
119.7821476738
 21
121.366121976
  0
LINE
  5
369
100
AcDbEntity
  8
0
100
AcDbLine
 62
7
  6
BYLAYER
 10
126.4992387526
 20
166.5582880328
 11
126.4992387526
 21
168.1912928671
  0
LINE
  5
36A
100
AcDbEntity
  8
0
100
AcDbLine
 62
7
  6
BYLAYER
 10
127.3835442467
 20
87.9099497639
 11
127.3835442467
 21
90.8901835887
  0
LINE
  5
36B
100
AcDbEntity
  8
0
100
AcDbLine
 62
7
  6
BYLAYER
 10
127.3835442467
 20
108.0367343484
 11
127.3835442467
 21
109.6697391827
  0
LINE
  5
36C
100
AcDbEntity
  8
0
100
AcDbLine
 62
7
  6
BYLAYER
 10
129.0451037247
 20
129.2857931011
 11
129.0451037247
 21
127.6527882669
  0
LINE
  5
36D
100
AcDbEntity
  8
0
100
AcDbLine
 62
7
  6
BYLAYER
 10
115.9383602497
 20
118.1441811424
 11
118.7667755985
 21
119.7771577578
  0
LINE
  5
36E
100
AcDbEntity
  8
0
100
AcDbLine
 62
7
  6
BYLAYER
 10
119.9942864793
 20
120.4271648413
 11
120.7013903165
 21
120.8354089951
  0
LINE
  5
36F
100
AcDbEntity
  8
0
100
AcDbLine
 62
7
  6
BYLAYER
 10
119.9942864793
 20
118.8982631785
 11
120.7013903165
 21
119.3065073323
  0
LINE
  5
370
100
AcDbEntity
  8
0
100
AcDbLine
 62
7
  6
BYLAYER
 10
158.5927725321
 20
141.1300817352
 11
157.991897235
 21
140.7831682914
  0
LINE
  5
371
100
AcDbEntity
  8
0
100
AcDbLine
 62
7
  6
BYLAYER
 10
115.9284232235
 20
115.8161930742
 11
115.8124227639
 21
115.7492205774
  0
LINE
  5
372
100
AcDbEntity
  8
0
100
AcDbLine
 62
7
  6
BYLAYER
 10
100.9022968158
 20
105.1173817207
 11
100.5487448972
 21
104.9132596438
  0
LINE
  5
373
100
AcDbEntity
  8
0
100
AcDbLine
 62
7
  6
BYLAYER
 10
118.8982840691
 20
113.9676380664
 11
119.0566523794
 21
114.0590715072
  0
LINE
  5
374
100
AcDbEntity
  8
0
100
AcDbLine
 62
7
  6
BYLAYER
 10
104.732512665
 20
105.7774070109
 11
106.0642814003
 21
106.5462994591
  0
LINE
  5
375
100
AcDbEntity
  8
0
100
AcDbLine
 62
7
  6
BYLAYER
 10
77.3853924972
 20
187.3203026896
 11
88.8508547997
 21
180.7008646945
  0
LINE
  5
376
100
AcDbEntity
  8
0
100
AcDbLine
 62
7
  6
BYLAYER
 10
102.1342328774
 20
173.0318762814
 11
113.5996951799
 21
166.4124382863
  0
LINE
  5
377
100
AcDbEntity
  8
0
100
AcDbLine
 62
7
  6
BYLAYER
 10
126.8882156351
 20
158.7404809873
 11
138.34853556
 21
152.1240118781
  0
LINE
  5
378
100
AcDbEntity
  8
0
100
AcDbLine
 62
7
  6
BYLAYER
 10
151.6319136377
 20
144.455023465
 11
163.0973759402
 21
137.8355854699
  0
LINE
  5
379
100
AcDbEntity
  8
0
100
AcDbLine
 62
7
  6
BYLAYER
 10
163.6982512373
 20
138.1824989137
 11
158.5927725322
 21
141.1300817352
  0
LINE
  5
37A
100
AcDbEntity
  8
0
100
AcDbLine
 62
7
  6
BYLAYER
 10
114.200570477
 20
166.7593517301
 11
109.0950917719
 21
169.7069345516
  0
LINE
  5
37B
100
AcDbEntity
  8
0
100
AcDbLine
 62
7
  6
BYLAYER
 10
138.9617524605
 20
152.4780507074
 11
133.865530035
 21
155.4202895342
  0
LINE
  5
37C
100
AcDbEntity
  8
0
100
AcDbLine
 62
7
  6
BYLAYER
 10
89.4640717002
 20
181.0549035238
 11
84.3585929951
 21
184.0024863453
  0
LINE
  5
37D
100
AcDbEntity
  8
0
100
AcDbLine
 62
7
  6
BYLAYER
 10
133.8531884316
 20
161.1286810686
 11
133.8531884316
 21
162.7616859029
  0
LINE
  5
37E
100
AcDbEntity
  8
0
100
AcDbLine
 62
7
  6
BYLAYER
 10
133.865530035
 20
155.4202895342
 11
133.865530035
 21
161.1358064542
  0
LINE
  5
37F
100
AcDbEntity
  8
0
100
AcDbLine
 62
7
  6
BYLAYER
 10
136.8233107015
 20
123.1621399671
 11
136.8233107015
 21
124.7951448013
  0
LINE
  5
380
100
AcDbEntity
  8
0
100
AcDbLine
 62
7
  6
BYLAYER
 10
104.732512665
 20
104.9609384563
 11
103.0943399077
 21
104.0151446195
  0
LINE
  5
381
100
AcDbEntity
  8
0
100
AcDbLine
 62
7
  6
BYLAYER
 10
118.8883470429
 20
113.0346236351
 11
121.7167623917
 21
114.6676002506
  0
LINE
  5
382
100
AcDbEntity
  8
0
100
AcDbLine
 62
7
  6
BYLAYER
 10
163.0973759402
 20
137.8355854699
 11
170.0623487367
 21
141.8567903856
  0
LINE
  5
383
100
AcDbEntity
  8
0
100
AcDbLine
 62
7
  6
BYLAYER
 10
105.834158322
 20
104.4745492782
 11
105.7045714862
 21
104.3997327303
  0
LINE
  5
384
100
AcDbEntity
  8
0
100
AcDbLine
 62
7
  6
BYLAYER
 10
99.2080512708
 20
100.3799739774
 11
97.4402916777
 21
99.3593635928
  0
LINE
  5
385
100
AcDbEntity
  8
0
100
AcDbLine
 62
7
  6
BYLAYER
 10
150.329050222
 20
124.7951772651
 11
175.9969195129
 21
139.6144400506
  0
LINE
  5
386
100
AcDbEntity
  8
0
100
AcDbLine
 62
7
  6
BYLAYER
 10
94.4015837075
 20
183.9055603942
 11
84.3483083427
 21
189.7096903253
  0
LINE
  5
387
100
AcDbEntity
  8
0
100
AcDbLine
 62
7
  6
BYLAYER
 10
133.8531884316
 20
161.1286810686
 11
143.8992644678
 21
155.3287075778
  0
LINE
  5
388
100
AcDbEntity
  8
0
100
AcDbLine
 62
7
  6
BYLAYER
 10
78.8400432777
 20
194.0737148875
 11
79.0521517567
 21
193.9512567704
  0
LINE
  5
389
100
AcDbEntity
  8
0
100
AcDbLine
 62
7
  6
BYLAYER
 10
101.7503983724
 20
180.846714441
 11
103.8009921369
 21
179.6628303621
  0
LINE
  5
38A
100
AcDbEntity
  8
0
100
AcDbLine
 62
7
  6
BYLAYER
 10
126.4992387526
 20
166.5582880328
 11
128.549832517
 21
165.3744039539
  0
LINE
  5
38B
100
AcDbEntity
  8
0
100
AcDbLine
 62
7
  6
BYLAYER
 10
151.2480791327
 20
152.2698616246
 11
153.2986728972
 21
151.0859775457
  0
LINE
  5
38C
100
AcDbEntity
  8
0
100
AcDbLine
 62
7
  6
BYLAYER
 10
175.9969195129
 20
137.9814352164
 11
177.6232718807
 21
137.042481481
  0
LINE
  5
38D
100
AcDbEntity
  8
0
100
AcDbLine
 62
7
  6
BYLAYER
 10
170.0623487367
 20
141.8567903856
 11
158.5968864342
 21
148.4762283806
  0
LINE
  5
38E
100
AcDbEntity
  8
0
100
AcDbLine
 62
7
  6
BYLAYER
 10
145.3135083566
 20
156.1452167938
 11
133.8531884316
 21
162.7616859029
  0
LINE
  5
38F
100
AcDbEntity
  8
0
100
AcDbLine
 62
7
  6
BYLAYER
 10
120.5646679764
 20
170.433643202
 11
109.0992056739
 21
177.053081197
  0
LINE
  5
390
100
AcDbEntity
  8
0
100
AcDbLine
 62
7
  6
BYLAYER
 10
95.8158275963
 20
184.7220696102
 11
84.3503652938
 21
191.3415076052
  0
LINE
  5
391
100
AcDbEntity
  8
0
100
AcDbLine
 62
7
  6
BYLAYER
 10
175.9969195129
 20
139.6144400507
 11
154.712916786
 21
151.9024867617
  0
LINE
  5
392
100
AcDbEntity
  8
0
100
AcDbLine
 62
7
  6
BYLAYER
 10
151.2480791327
 20
153.9028664589
 11
129.9640764058
 21
166.1909131699
  0
LINE
  5
393
100
AcDbEntity
  8
0
100
AcDbLine
 62
7
  6
BYLAYER
 10
126.4992387526
 20
168.1912928671
 11
105.2152360257
 21
180.4793395781
  0
LINE
  5
394
100
AcDbEntity
  8
0
100
AcDbLine
 62
7
  6
BYLAYER
 10
101.7503983725
 20
182.4797192753
 11
80.4663956455
 21
194.7677659864
  0
LINE
  5
395
100
AcDbEntity
  8
0
100
AcDbLine
 62
7
  6
BYLAYER
 10
126.7825254188
 20
110.0167297148
 11
139.5103582743
 21
117.3651035762
  0
LINE
  5
396
100
AcDbEntity
  8
0
100
AcDbLine
 62
7
  6
BYLAYER
 10
111.0493154837
 20
100.8104639771
 11
109.9886597279
 21
100.1980977463
  0
LINE
  5
397
100
AcDbEntity
  8
0
100
AcDbLine
 62
7
  6
BYLAYER
 10
175.9969195129
 20
137.9814352164
 11
150.329050222
 21
123.1621724309
  0
LINE
  5
398
100
AcDbEntity
  8
0
100
AcDbLine
 62
7
  6
BYLAYER
 10
127.3835442467
 20
109.6697391827
 11
125.6157846537
 21
108.649128798
  0
LINE
  5
399
100
AcDbEntity
  8
0
100
AcDbLine
 62
7
  6
BYLAYER
 10
109.9886597279
 20
98.0751914618
 11
111.0493154837
 21
98.6875576926
  0
LINE
  5
39A
100
AcDbEntity
  8
0
100
AcDbLine
 62
7
  6
BYLAYER
 10
177.6232718807
 20
137.042481481
 11
127.3835442467
 21
108.0367343484
  0
LINE
  5
39B
100
AcDbEntity
  8
0
100
AcDbLine
 62
7
  6
BYLAYER
 10
121.0817050293
 20
100.8254980622
 11
120.7013903165
 21
100.6059245711
  0
LINE
  5
39C
100
AcDbEntity
  8
0
100
AcDbLine
 62
7
  6
BYLAYER
 10
121.2317043577
 20
100.8106407785
 11
120.7013903165
 21
100.5044656516
  0
LINE
  5
39D
100
AcDbEntity
  8
0
100
AcDbLine
 62
7
  6
BYLAYER
 10
150.329050222
 20
124.7951772651
 11
150.329050222
 21
123.1621724309
  0
LINE
  5
39E
100
AcDbEntity
  8
0
100
AcDbLine
 62
7
  6
BYLAYER
 10
151.2480791327
 20
152.2698616246
 11
151.2480791327
 21
153.9028664589
  0
LINE
  5
39F
100
AcDbEntity
  8
0
100
AcDbLine
 62
7
  6
BYLAYER
 10
119.0750438366
 20
98.2477665813
 11
116.2868870928
 21
96.6380331435
  0
LINE
  5
3A0
100
AcDbEntity
  8
0
100
AcDbLine
 62
7
  6
BYLAYER
 10
120.7013903165
 20
98.6673500279
 11
120.7720930459
 21
98.7081700241
  0
LINE
  5
3A1
100
AcDbEntity
  8
0
100
AcDbLine
 62
7
  6
BYLAYER
 10
120.9996936085
 20
98.5767677508
 11
121.1411179973
 21
98.6584186724
  0
LINE
  5
3A2
100
AcDbEntity
  8
0
100
AcDbLine
 62
7
  6
BYLAYER
 10
122.4338009
 20
98.7286071515
 11
123.6358774232
 21
99.4226222131
  0
LINE
  5
3A3
100
AcDbEntity
  8
0
100
AcDbLine
 62
7
  6
BYLAYER
 10
120.7013903165
 20
97.6059152278
 11
121.6913356886
 21
98.1774570432
  0
LINE
  5
3A4
100
AcDbEntity
  8
0
100
AcDbLine
 62
7
  6
BYLAYER
 10
119.9942864793
 20
96.8679281631
 11
121.6913356886
 21
97.8477141324
  0
LINE
  5
3A5
100
AcDbEntity
  8
0
100
AcDbLine
 62
7
  6
BYLAYER
 10
123.8480103408
 20
99.0551992616
 11
122.6459338175
 21
98.3611842
  0
LINE
  5
3A6
100
AcDbEntity
  8
0
100
AcDbLine
 62
7
  6
BYLAYER
 10
122.6459338175
 20
97.7403113334
 11
123.8480103408
 21
98.434326395
  0
LINE
  5
3A7
100
AcDbEntity
  8
0
100
AcDbLine
 62
7
  6
BYLAYER
 10
123.9625621163
 20
98.1506950106
 11
122.760485593
 21
97.456679949
  0
LINE
  5
3A8
100
AcDbEntity
  8
0
100
AcDbLine
 62
7
  6
BYLAYER
 10
125.5609803928
 20
95.1195457354
 11
124.3589038696
 21
94.4255306738
  0
LINE
  5
3A9
100
AcDbEntity
  8
0
100
AcDbLine
 62
7
  6
BYLAYER
 10
123.2067055254
 20
91.5110476902
 11
120.2368694091
 21
89.796422244
  0
LINE
  5
3AA
100
AcDbEntity
  8
0
100
AcDbLine
 62
7
  6
BYLAYER
 10
124.3929807511
 20
91.9226795101
 11
125.5950572744
 21
92.6166945717
  0
LINE
  5
3AB
100
AcDbEntity
  8
0
100
AcDbLine
 62
7
  6
BYLAYER
 10
124.7837803698
 20
91.5555427297
 11
123.5817038466
 21
90.8615276681
  0
LINE
  5
3AC
100
AcDbEntity
  8
0
100
AcDbLine
 62
7
  6
BYLAYER
 10
177.6232718807
 20
119.8959307213
 11
127.3835442467
 21
90.8901835887
  0
LINE
  5
3AD
100
AcDbEntity
  8
0
100
AcDbLine
 62
7
  6
BYLAYER
 10
158.5927725322
 20
141.1300817352
 11
158.5968864342
 21
148.4762283806
  0
LINE
  5
3AE
100
AcDbEntity
  8
0
100
AcDbLine
 62
7
  6
BYLAYER
 10
121.9918473123
 20
85.1848370088
 11
123.7596069053
 21
86.2054473935
  0
LINE
  5
3AF
100
AcDbEntity
  8
0
100
AcDbLine
 62
7
  6
BYLAYER
 10
125.6157846537
 20
86.8893393792
 11
127.3835442467
 21
87.9099497639
  0
LINE
  5
3B0
100
AcDbEntity
  8
0
100
AcDbLine
 62
7
  6
BYLAYER
 10
175.9969195129
 20
137.9814352164
 11
175.9969195129
 21
139.6144400507
  0
LINE
  5
3B1
100
AcDbEntity
  8
0
100
AcDbLine
 62
7
  6
BYLAYER
 10
177.6232718807
 20
119.8959307213
 11
177.6232718807
 21
137.042481481
  0
ARC
  5
3B2
100
AcDbEntity
  8
0
100
AcDbCircle
 62
7
  6
BYLAYER
 10
68.1264815313
 20
113.8740626482
 40
6.8132070357
100
AcDbArc
 50
31.9154180627
 51
32.3436389532
  0
ARC
  5
3B3
100
AcDbEntity
  8
0
100
AcDbCircle
 62
7
  6
BYLAYER
 10
118.7314612381
 20
94.0071075731
 40
4.8488421264
100
AcDbArc
 50
50.7797080067
 51
51.3168978862
  0
ARC
  5
3B4
100
AcDbEntity
  8
0
100
AcDbCircle
 62
7
  6
BYLAYER
 10
26.3122210232
 20
147.3641752516
 40
4.8488407581
100
AcDbArc
 50
50.7797079562
 51
51.3169181303
  0
ARC
  5
3B5
100
AcDbEntity
  8
0
100
AcDbCircle
 62
7
  6
BYLAYER
 10
24.4135835772
 20
167.7416165517
 40
2.6665027367
100
AcDbArc
 50
357.680306303
 51
0.0116509616
  0
ARC
  5
3B6
100
AcDbEntity
  8
0
100
AcDbCircle
 62
7
  6
BYLAYER
 10
116.8637095354
 20
114.383098474
 40
2.6355828408
100
AcDbArc
 50
357.7623455635
 51
358.9669135165
  0
ARC
  5
3B7
100
AcDbEntity
  8
0
100
AcDbCircle
 62
7
  6
BYLAYER
 10
116.9358477351
 20
114.3803675993
 40
2.5633930242
100
AcDbArc
 50
356.9812331436
 51
357.7603829101
  0
ARC
  5
3B8
100
AcDbEntity
  8
0
100
AcDbCircle
 62
7
  6
BYLAYER
 10
24.5233560768
 20
167.7376308412
 40
2.5566589099
100
AcDbArc
 50
356.8327054369
 51
357.6699835486
  0
ARC
  5
3B9
100
AcDbEntity
  8
0
100
AcDbCircle
 62
7
  6
BYLAYER
 10
119.6688275472
 20
97.6384455766
 40
1.5745773481
100
AcDbArc
 50
112.883120514
 51
119.9921524686
  0
ARC
  5
3BA
100
AcDbEntity
  8
0
100
AcDbCircle
 62
7
  6
BYLAYER
 10
27.248353047
 20
150.997000032
 40
1.5726975249
100
AcDbArc
 50
112.3206098213
 51
119.9803256449
  0
SPLINE
  5
3BB
100
AcDbEntity
  8
0
100
AcDbSpline
 62
7
  6
BYLAYER
 70
0
 71
3
 72
11
 73
7
 74
0
 42
0.0000001
 43
0.0000001
 44
0.0000000001
 40
0.0
 40
0.0
 40
0.0
 40
0.0
 40
0.2177794746
 40
0.4509225183
 40
0.7102595756
 40
1.0
 40
1.0
 40
1.0
 40
1.0
 10
41.4758852315
 20
134.8877243821
 30
0.0
 10
41.6325849215
 20
134.9781582639
 30
0.0
 10
41.9257243973
 20
135.2246594822
 30
0.0
 10
42.2378166282
 20
135.7349056055
 30
0.0
 10
42.423242001
 20
136.3637702309
 30
0.0
 10
42.4596809764
 20
136.8214782584
 30
0.0
 10
42.4596809764
 20
137.0621835185
 30
0.0
  0
SPLINE
  5
3BC
100
AcDbEntity
  8
0
100
AcDbSpline
 62
7
  6
BYLAYER
 70
0
 71
3
 72
11
 73
7
 74
0
 42
0.0000001
 43
0.0000001
 44
0.0000000001
 40
0.0
 40
0.0
 40
0.0
 40
0.0
 40
0.2177794746
 40
0.4509225183
 40
0.7102595756
 40
1.0
 40
1.0
 40
1.0
 40
1.0
 10
66.2247256116
 20
120.5992979739
 30
0.0
 10
66.3814253016
 20
120.6897318557
 30
0.0
 10
66.6745647774
 20
120.936233074
 30
0.0
 10
66.9866570084
 20
121.4464791973
 30
0.0
 10
67.1720823811
 20
122.0753438227
 30
0.0
 10
67.2085213565
 20
122.5330518502
 30
0.0
 10
67.2085213565
 20
122.7737571103
 30
0.0
  0
SPLINE
  5
3BD
100
AcDbEntity
  8
0
100
AcDbSpline
 62
7
  6
BYLAYER
 70
0
 71
3
 72
11
 73
7
 74
0
 42
0.0000001
 43
0.0000001
 44
0.0000000001
 40
0.0
 40
0.0
 40
0.0
 40
0.0
 40
0.2177794746
 40
0.4509225183
 40
0.7102595756
 40
1.0
 40
1.0
 40
1.0
 40
1.0
 10
90.9735659917
 20
106.3108715657
 30
0.0
 10
91.1302656818
 20
106.4013054475
 30
0.0
 10
91.4234051576
 20
106.6478066658
 30
0.0
 10
91.7354973885
 20
107.1580527891
 30
0.0
 10
91.9209227613
 20
107.7869174145
 30
0.0
 10
91.9573617367
 20
108.244625442
 30
0.0
 10
91.9573617367
 20
108.4853307021
 30
0.0
  0
SPLINE
  5
3BE
100
AcDbEntity
  8
0
100
AcDbSpline
 62
7
  6
BYLAYER
 70
0
 71
3
 72
9
 73
5
 74
0
 42
0.0000001
 43
0.0000001
 44
0.0000000001
 40
0.0
 40
0.0
 40
0.0
 40
0.0
 40
0.2468746579
 40
1.0
 40
1.0
 40
1.0
 40
1.0
 10
115.7224063719
 20
92.0224451575
 30
0.0
 10
115.7659472106
 20
92.0475732676
 30
0.0
 10
115.9374596144
 20
92.1576760658
 30
0.0
 10
116.0869565092
 20
92.3010838508
 30
0.0
 10
116.1831635241
 20
92.420514081
 30
0.0
  0
SPLINE
  5
3BF
100
AcDbEntity
  8
0
100
AcDbSpline
 62
7
  6
BYLAYER
 70
0
 71
3
 72
15
 73
11
 74
0
 42
0.0000001
 43
0.0000001
 44
0.0000000001
 40
0.0
 40
0.0
 40
0.0
 40
0.0
 40
0.0869258731
 40
0.1863900355
 40
0.3037775758
 40
0.4375856292
 40
0.582082136
 40
0.7293904368
 40
0.8711742898
 40
1.0
 40
1.0
 40
1.0
 40
1.0
 10
46.4397694293
 20
159.6179249882
 30
0.0
 10
46.4397678525
 20
159.5314159173
 30
0.0
 10
46.4919655169
 20
159.3442136074
 30
0.0
 10
46.6960202197
 20
159.1121749161
 30
0.0
 10
46.9971985355
 20
158.9286418922
 30
0.0
 10
47.373213341
 20
158.8029912854
 30
0.0
 10
47.7947259935
 20
158.7437976584
 30
0.0
 10
48.2281503295
 20
158.7557250944
 30
0.0
 10
48.6378972619
 20
158.837743038
 30
0.0
 10
48.8893407825
 20
158.9414601056
 30
0.0
 10
49.0003723348
 20
159.0055638195
 30
0.0
  0
SPLINE
  5
3C0
100
AcDbEntity
  8
0
100
AcDbSpline
 62
7
  6
BYLAYER
 70
0
 71
3
 72
11
 73
7
 74
0
 42
0.0000001
 43
0.0000001
 44
0.0000000001
 40
0.0
 40
0.0
 40
0.0
 40
0.0
 40
0.217781693
 40
0.4509077162
 40
0.7103175989
 40
1.0
 40
1.0
 40
1.0
 40
1.0
 10
29.2975068102
 20
168.0246919555
 30
0.0
 10
29.394791947
 20
168.0809151842
 30
0.0
 10
29.5768937354
 20
168.2339041641
 30
0.0
 10
29.7707325481
 20
168.550849888
 30
0.0
 10
29.8858170879
 20
168.9414154681
 30
0.0
 10
29.9085016076
 20
169.2256756747
 30
0.0
 10
29.9085016076
 20
169.3751353942
 30
0.0
  0
SPLINE
  5
3C1
100
AcDbEntity
  8
0
100
AcDbSpline
 62
7
  6
BYLAYER
 70
0
 71
3
 72
10
 73
6
 74
0
 42
0.0000001
 43
0.0000001
 44
0.0000000001
 40
0.0
 40
0.0
 40
0.0
 40
0.0
 40
0.2307499387
 40
0.47033274
 40
1.0
 40
1.0
 40
1.0
 40
1.0
 10
26.4690914507
 20
166.3917153579
 30
0.0
 10
26.3996103065
 20
166.3515606548
 30
0.0
 10
26.2471176158
 20
166.2871743189
 30
0.0
 10
25.9014240111
 20
166.230645226
 30
0.0
 10
25.6293543351
 20
166.2760437522
 30
0.0
 10
25.4537338909
 20
166.3316276955
 30
0.0
  0
SPLINE
  5
3C2
100
AcDbEntity
  8
0
100
AcDbSpline
 62
7
  6
BYLAYER
 70
0
 71
3
 72
11
 73
7
 74
0
 42
0.0000001
 43
0.0000001
 44
0.0000000001
 40
0.0
 40
0.0
 40
0.0
 40
0.0
 40
0.2177849011
 40
0.4509184398
 40
0.7103088704
 40
1.0
 40
1.0
 40
1.0
 40
1.0
 10
27.81761929
 20
143.1535046119
 30
0.0
 10
27.6873143406
 20
143.0782972068
 30
0.0
 10
27.3879547775
 20
142.9696227873
 30
0.0
 10
26.8906882056
 20
142.9570432188
 30
0.0
 10
26.3607402535
 20
143.0850251733
 30
0.0
 10
26.0159520685
 20
143.2490486247
 30
0.0
 10
25.8426371742
 20
143.3491097619
 30
0.0
  0
SPLINE
  5
3C3
100
AcDbEntity
  8
0
100
AcDbSpline
 62
7
  6
BYLAYER
 70
0
 71
3
 72
10
 73
6
 74
0
 42
0.0000001
 43
0.0000001
 44
0.0000000001
 40
0.0
 40
0.0
 40
0.0
 40
0.0
 40
0.2305222758
 40
0.4699179448
 40
1.0
 40
1.0
 40
1.0
 40
1.0
 10
31.1624472259
 20
144.2186210057
 30
0.0
 10
31.050696258
 20
144.1540744761
 30
0.0
 10
30.8052509356
 20
144.0508442497
 30
0.0
 10
30.2484479573
 20
143.9615559906
 30
0.0
 10
29.8105894763
 20
144.0370070447
 30
0.0
 10
29.5281996224
 20
144.1282147663
 30
0.0
  0
SPLINE
  5
3C4
100
AcDbEntity
  8
0
100
AcDbSpline
 62
7
  6
BYLAYER
 70
0
 71
3
 72
17
 73
13
 74
0
 42
0.0000001
 43
0.0000001
 44
0.0000000001
 40
0.0
 40
0.0
 40
0.0
 40
0.0
 40
0.0428579803
 40
0.0874855365
 40
0.1353182087
 40
0.1872817653
 40
0.3045429422
 40
0.4382107634
 40
0.5825533132
 40
0.729712045
 40
0.871310822
 40
1.0
 40
1.0
 40
1.0
 40
1.0
 10
27.3676031514
 20
143.932960186
 30
0.0
 10
27.4428112345
 20
143.9763410608
 30
0.0
 10
27.5853289251
 20
144.0854662973
 30
0.0
 10
27.7568753121
 20
144.302337893
 30
0.0
 10
27.8850365097
 20
144.5676218914
 30
0.0
 10
28.0001874893
 20
144.9941134545
 30
0.0
 10
28.0146259623
 20
145.615969633
 30
0.0
 10
27.8536628393
 20
146.4051599737
 30
0.0
 10
27.529342936
 20
147.2078693665
 30
0.0
 10
27.0676231974
 20
147.9588360783
 30
0.0
 10
26.5066812882
 20
148.5970240376
 30
0.0
 10
26.0684122393
 20
148.9342783361
 30
0.0
 10
25.8426371742
 20
149.0646266818
 30
0.0
  0
SPLINE
  5
3C5
100
AcDbEntity
  8
0
100
AcDbSpline
 62
7
  6
BYLAYER
 70
0
 71
3
 72
9
 73
5
 74
0
 42
0.0000001
 43
0.0000001
 44
0.0000000001
 40
0.0
 40
0.0
 40
0.0
 40
0.0
 40
0.2456460165
 40
1.0
 40
1.0
 40
1.0
 40
1.0
 10
79.3584026896
 20
125.8972537567
 30
0.0
 10
79.3851540674
 20
125.912696352
 30
0.0
 10
79.4904978134
 20
125.9816728755
 30
0.0
 10
79.5791796396
 20
126.075010459
 30
0.0
 10
79.6337271282
 20
126.1526134671
 30
0.0
  0
SPLINE
  5
3C6
100
AcDbEntity
  8
0
100
AcDbSpline
 62
7
  6
BYLAYER
 70
0
 71
3
 72
12
 73
8
 74
0
 42
0.0000001
 43
0.0000001
 44
0.0000000001
 40
0.0
 40
0.0
 40
0.0
 40
0.0
 40
0.1000472768
 40
0.2035840621
 40
0.4313288517
 40
0.6970667569
 40
1.0
 40
1.0
 40
1.0
 40
1.0
 10
79.6083953556
 20
125.4642511602
 30
0.0
 10
79.5413447203
 20
125.4254975089
 30
0.0
 10
79.3948504533
 20
125.3628831031
 30
0.0
 10
79.0635583485
 20
125.3045529099
 30
0.0
 10
78.5950064918
 20
125.3728128439
 30
0.0
 10
78.0338027114
 20
125.6417660403
 30
0.0
 10
77.6852688578
 20
125.9162175887
 30
0.0
 10
77.5140984217
 20
126.0764926234
 30
0.0
  0
SPLINE
  5
3C7
100
AcDbEntity
  8
0
100
AcDbSpline
 62
7
  6
BYLAYER
 70
0
 71
3
 72
14
 73
10
 74
0
 42
0.0000001
 43
0.0000001
 44
0.0000000001
 40
0.0
 40
0.0
 40
0.0
 40
0.0
 40
0.0908411684
 40
0.1880806971
 40
0.2961516322
 40
0.4169357591
 40
0.5501404113
 40
0.6938425002
 40
1.0
 40
1.0
 40
1.0
 40
1.0
 10
70.6073832784
 20
111.7837811899
 30
0.0
 10
70.7077577478
 20
111.8417243803
 30
0.0
 10
70.8956216457
 20
111.9994914496
 30
0.0
 10
71.0956928466
 20
112.326050216
 30
0.0
 10
71.2150859398
 20
112.7285463364
 30
0.0
 10
71.2526617229
 20
113.1915447013
 30
0.0
 10
71.208742958
 20
113.6990834792
 30
0.0
 10
71.0410869635
 20
114.4255146057
 30
0.0
 10
70.8074845535
 20
114.9574430362
 30
0.0
 10
70.6128839569
 20
115.2961232042
 30
0.0
  0
SPLINE
  5
3C8
100
AcDbEntity
  8
0
100
AcDbSpline
 62
7
  6
BYLAYER
 70
0
 71
3
 72
17
 73
13
 74
0
 42
0.0000001
 43
0.0000001
 44
0.0000000001
 40
0.0
 40
0.0
 40
0.0
 40
0.0
 40
0.1306165552
 40
0.2731507452
 40
0.4203463602
 40
0.5640777774
 40
0.6968483739
 40
0.8132975003
 40
0.8649727817
 40
0.9126263775
 40
0.9571676931
 40
1.0
 40
1.0
 40
1.0
 40
1.0
 10
104.5057297868
 20
95.280223281
 30
0.0
 10
104.4912375625
 20
95.7066110935
 30
0.0
 10
104.3489620998
 20
96.5955627383
 30
0.0
 10
103.881923925
 20
97.8932288512
 30
0.0
 10
103.1859034827
 20
99.1335802643
 30
0.0
 10
102.3150617234
 20
100.2181645878
 30
0.0
 10
101.3382205754
 20
101.0621819251
 30
0.0
 10
100.4586645484
 20
101.5299281142
 30
0.0
 10
99.7725524412
 20
101.7047187964
 30
0.0
 10
99.300396216
 20
101.7353321538
 30
0.0
 10
98.8607600505
 20
101.6679621261
 30
0.0
 10
98.5941791162
 20
101.5565831797
 30
0.0
 10
98.4730343866
 20
101.4866049175
 30
0.0
  0
SPLINE
  5
3C9
100
AcDbEntity
  8
0
100
AcDbSpline
 62
7
  6
BYLAYER
 70
0
 71
3
 72
11
 73
7
 74
0
 42
0.0000001
 43
0.0000001
 44
0.0000000001
 40
0.0
 40
0.0
 40
0.0
 40
0.0
 40
0.2177818167
 40
0.450907402
 40
0.710314875
 40
1.0
 40
1.0
 40
1.0
 40
1.0
 10
71.0573745495
 20
111.0043688565
 30
0.0
 10
70.9270635867
 20
110.9291764993
 30
0.0
 10
70.6277307045
 20
110.8204670167
 30
0.0
 10
70.1304513828
 20
110.8078970717
 30
0.0
 10
69.6005105289
 20
110.9358981576
 30
0.0
 10
69.2557079588
 20
111.0999074104
 30
0.0
 10
69.082396867
 20
111.1999663522
 30
0.0
  0
SPLINE
  5
3CA
100
AcDbEntity
  8
0
100
AcDbSpline
 62
7
  6
BYLAYER
 70
0
 71
3
 72
17
 73
13
 74
0
 42
0.0000001
 43
0.0000001
 44
0.0000000001
 40
0.0
 40
0.0
 40
0.0
 40
0.0
 40
0.1306165552
 40
0.2731507452
 40
0.4203463602
 40
0.5640777774
 40
0.6968483739
 40
0.8132975003
 40
0.8649727817
 40
0.9126263775
 40
0.9571676931
 40
1.0
 40
1.0
 40
1.0
 40
1.0
 10
55.0080490265
 20
123.8570760974
 30
0.0
 10
54.9935568022
 20
124.2834639099
 30
0.0
 10
54.8512813395
 20
125.1724155548
 30
0.0
 10
54.3842431647
 20
126.4700816676
 30
0.0
 10
53.6882227224
 20
127.7104330808
 30
0.0
 10
52.8173809631
 20
128.7950174042
 30
0.0
 10
51.8405398151
 20
129.6390347415
 30
0.0
 10
50.9609837881
 20
130.1067809307
 30
0.0
 10
50.2748716809
 20
130.2815716128
 30
0.0
 10
49.8027154557
 20
130.3121849702
 30
0.0
 10
49.3630792902
 20
130.2448149425
 30
0.0
 10
49.0964983559
 20
130.1334359961
 30
0.0
 10
48.9753536263
 20
130.0634577339
 30
0.0
  0
SPLINE
  5
3CB
100
AcDbEntity
  8
0
100
AcDbSpline
 62
7
  6
BYLAYER
 70
0
 71
3
 72
17
 73
13
 74
0
 42
0.0000001
 43
0.0000001
 44
0.0000000001
 40
0.0
 40
0.0
 40
0.0
 40
0.0
 40
0.1343065088
 40
0.2785642603
 40
0.4257384921
 40
0.5682605513
 40
0.6993244846
 40
0.8142654941
 40
0.8654307497
 40
0.9127711916
 40
0.9571861858
 40
1.0
 40
1.0
 40
1.0
 40
1.0
 10
116.6825106666
 20
96.7926456189
 30
0.0
 10
116.6434429504
 20
97.1933798446
 30
0.0
 10
116.4691470971
 20
98.0165259558
 30
0.0
 10
115.9903116015
 20
99.2052394065
 30
0.0
 10
115.3165711236
 20
100.3245981348
 30
0.0
 10
114.4969960609
 20
101.2915454132
 30
0.0
 10
113.5920133331
 20
102.0354262452
 30
0.0
 10
112.7851604402
 20
102.4403604163
 30
0.0
 10
112.1591645746
 20
102.5861834062
 30
0.0
 10
111.7283681641
 20
102.6062736592
 30
0.0
 10
111.3271714833
 20
102.5399199423
 30
0.0
 10
111.0836215037
 20
102.4367125661
 30
0.0
 10
110.9724554728
 20
102.3725568827
 30
0.0
  0
SPLINE
  5
3CC
100
AcDbEntity
  8
0
100
AcDbSpline
 62
7
  6
BYLAYER
 70
0
 71
3
 72
17
 73
13
 74
0
 42
0.0000001
 43
0.0000001
 44
0.0000000001
 40
0.0
 40
0.0
 40
0.0
 40
0.0
 40
0.1286956828
 40
0.2702806656
 40
0.4174357004
 40
0.5617781071
 40
0.6954483925
 40
0.8127114384
 40
0.8646776047
 40
0.91251006
 40
0.957139838
 40
1.0
 40
1.0
 40
1.0
 40
1.0
 10
91.9573617367
 20
110.6082369866
 30
0.0
 10
91.9573617367
 20
111.0142660631
 30
0.0
 10
91.8437838562
 20
111.8679659379
 30
0.0
 10
91.4197947117
 20
113.1214139854
 30
0.0
 10
90.7665572901
 20
114.3288882105
 30
0.0
 10
89.9364950137
 20
115.3913726877
 30
0.0
 10
88.9974453
 20
116.2230635921
 30
0.0
 10
88.1474529865
 20
116.6877284198
 30
0.0
 10
87.4825873427
 20
116.8647155033
 30
0.0
 10
87.024976872
 20
116.8982671068
 30
0.0
 10
86.5988547025
 20
116.8359154607
 30
0.0
 10
86.3407325587
 20
116.7285736421
 30
0.0
 10
86.2236150927
 20
116.6609832909
 30
0.0
  0
SPLINE
  5
3CD
100
AcDbEntity
  8
0
100
AcDbSpline
 62
7
  6
BYLAYER
 70
0
 71
3
 72
17
 73
13
 74
0
 42
0.0000001
 43
0.0000001
 44
0.0000000001
 40
0.0
 40
0.0
 40
0.0
 40
0.0
 40
0.1286956828
 40
0.2702806656
 40
0.4174357004
 40
0.5617781071
 40
0.6954483925
 40
0.8127114384
 40
0.8646776047
 40
0.91251006
 40
0.957139838
 40
1.0
 40
1.0
 40
1.0
 40
1.0
 10
67.2085213565
 20
124.8966633948
 30
0.0
 10
67.2085213565
 20
125.3026924713
 30
0.0
 10
67.0949434761
 20
126.1563923462
 30
0.0
 10
66.6709543316
 20
127.4098403936
 30
0.0
 10
66.0177169099
 20
128.6173146187
 30
0.0
 10
65.1876546335
 20
129.679799096
 30
0.0
 10
64.2486049198
 20
130.5114900003
 30
0.0
 10
63.3986126063
 20
130.976154828
 30
0.0
 10
62.7337469626
 20
131.1531419115
 30
0.0
 10
62.2761364919
 20
131.186693515
 30
0.0
 10
61.8500143223
 20
131.1243418689
 30
0.0
 10
61.5918921786
 20
131.0170000503
 30
0.0
 10
61.4747747125
 20
130.9494096991
 30
0.0
  0
SPLINE
  5
3CE
100
AcDbEntity
  8
0
100
AcDbSpline
 62
7
  6
BYLAYER
 70
0
 71
3
 72
17
 73
13
 74
0
 42
0.0000001
 43
0.0000001
 44
0.0000000001
 40
0.0
 40
0.0
 40
0.0
 40
0.0
 40
0.1286956828
 40
0.2702806656
 40
0.4174357004
 40
0.5617781071
 40
0.6954483925
 40
0.8127114384
 40
0.8646776047
 40
0.91251006
 40
0.957139838
 40
1.0
 40
1.0
 40
1.0
 40
1.0
 10
42.4596809764
 20
139.185089803
 30
0.0
 10
42.4596809764
 20
139.5911188796
 30
0.0
 10
42.3461030959
 20
140.4448187544
 30
0.0
 10
41.9221139515
 20
141.6982668018
 30
0.0
 10
41.2688765298
 20
142.905741027
 30
0.0
 10
40.4388142534
 20
143.9682255042
 30
0.0
 10
39.4997645397
 20
144.7999164085
 30
0.0
 10
38.6497722262
 20
145.2645812362
 30
0.0
 10
37.9849065824
 20
145.4415683197
 30
0.0
 10
37.5272961117
 20
145.4751199232
 30
0.0
 10
37.1011739422
 20
145.4127682771
 30
0.0
 10
36.8430517984
 20
145.3054264585
 30
0.0
 10
36.7259343324
 20
145.2378361073
 30
0.0
  0
SPLINE
  5
3CF
100
AcDbEntity
  8
0
100
AcDbSpline
 62
7
  6
BYLAYER
 70
0
 71
3
 72
11
 73
7
 74
0
 42
0.0000001
 43
0.0000001
 44
0.0000000001
 40
0.0
 40
0.0
 40
0.0
 40
0.0
 40
0.2177706029
 40
0.450948419
 40
0.7101982379
 40
1.0
 40
1.0
 40
1.0
 40
1.0
 10
101.4991212939
 20
147.4729511787
 30
0.0
 10
101.4991212853
 20
147.836678246
 30
0.0
 10
101.6333711556
 20
148.5949556468
 30
0.0
 10
102.2083389669
 20
149.651030663
 30
0.0
 10
103.1166418082
 20
150.6062246241
 30
0.0
 10
103.8770192818
 20
151.1296336207
 30
0.0
 10
104.296207115
 20
151.3716503844
 30
0.0
  0
SPLINE
  5
3D0
100
AcDbEntity
  8
0
100
AcDbSpline
 62
7
  6
BYLAYER
 70
0
 71
3
 72
16
 73
12
 74
0
 42
0.0000001
 43
0.0000001
 44
0.0000000001
 40
0.0
 40
0.0
 40
0.0
 40
0.0
 40
0.0428949605
 40
0.0872547413
 40
0.1845509894
 40
0.297773428
 40
0.4267933838
 40
0.5678035715
 40
0.7148820088
 40
0.8611938603
 40
1.0
 40
1.0
 40
1.0
 40
1.0
 10
121.7167528863
 20
114.667616707
 30
0.0
 10
121.7825590206
 20
114.7056395144
 30
0.0
 10
121.9077574866
 20
114.7990639201
 30
0.0
 10
122.1210820241
 20
115.0500146028
 30
0.0
 10
122.2967047167
 20
115.4778185163
 30
0.0
 10
122.3507000389
 20
116.0828492838
 30
0.0
 10
122.2618084108
 20
116.7605284933
 30
0.0
 10
122.036371295
 20
117.4678165674
 30
0.0
 10
121.6898735253
 20
118.1584961455
 30
0.0
 10
121.2458020971
 20
118.7857519407
 30
0.0
 10
120.8898744077
 20
119.1485248674
 30
0.0
 10
120.7013903165
 20
119.3065073323
 30
0.0
  0
SPLINE
  5
3D1
100
AcDbEntity
  8
0
100
AcDbSpline
 62
7
  6
BYLAYER
 70
0
 71
3
 72
10
 73
6
 74
0
 42
0.0000001
 43
0.0000001
 44
0.0000000001
 40
0.0
 40
0.0
 40
0.0
 40
0.0
 40
0.2307444235
 40
0.4703235277
 40
1.0
 40
1.0
 40
1.0
 40
1.0
 10
118.8883364867
 20
113.0346419046
 30
0.0
 10
118.8188537817
 20
112.994493323
 30
0.0
 10
118.6663645949
 20
112.9301099333
 30
0.0
 10
118.3206713405
 20
112.8735684954
 30
0.0
 10
118.0485989182
 20
112.9189760266
 30
0.0
 10
117.8729749676
 20
112.9745610797
 30
0.0
  0
SPLINE
  5
3D2
100
AcDbEntity
  8
0
100
AcDbSpline
 62
7
  6
BYLAYER
 70
0
 71
3
 72
10
 73
6
 74
0
 42
0.0000001
 43
0.0000001
 44
0.0000000001
 40
0.0
 40
0.0
 40
0.0
 40
0.0
 40
0.2331789818
 40
0.4739507055
 40
1.0
 40
1.0
 40
1.0
 40
1.0
 10
123.5817019609
 20
90.8615306815
 30
0.0
 10
123.4796917896
 20
90.8026315035
 30
0.0
 10
123.2577883573
 20
90.7064355979
 30
0.0
 10
122.7586718373
 20
90.6104019741
 30
0.0
 10
122.3631618397
 20
90.657278154
 30
0.0
 10
122.106117465
 20
90.7247006375
 30
0.0
  0
SPLINE
  5
3D3
100
AcDbEntity
  8
0
100
AcDbSpline
 62
7
  6
BYLAYER
 70
0
 71
3
 72
11
 73
7
 74
0
 42
0.0000001
 43
0.0000001
 44
0.0000000001
 40
0.0
 40
0.0
 40
0.0
 40
0.0
 40
0.2895468475
 40
0.5491384346
 40
0.782278826
 40
1.0
 40
1.0
 40
1.0
 40
1.0
 10
98.4980530951
 20
130.4287110031
 30
0.0
 10
98.5638342272
 20
130.4666895307
 30
0.0
 10
98.6832066871
 20
130.5490010429
 30
0.0
 10
98.8260021765
 20
130.6989109249
 30
0.0
 10
98.9163247893
 20
130.8648751047
 30
0.0
 10
98.937325784
 20
130.9839568733
 30
0.0
 10
98.9373268251
 20
131.0410720981
 30
0.0
  0
SPLINE
  5
3D4
100
AcDbEntity
  8
0
100
AcDbSpline
 62
7
  6
BYLAYER
 70
0
 71
3
 72
11
 73
7
 74
0
 42
0.0000001
 43
0.0000001
 44
0.0000000001
 40
0.0
 40
0.0
 40
0.0
 40
0.0
 40
0.2292396433
 40
0.4677400291
 40
0.7232296309
 40
1.0
 40
1.0
 40
1.0
 40
1.0
 10
120.2368407442
 20
89.7964716505
 30
0.0
 10
120.1407511975
 20
89.7409688777
 30
0.0
 10
119.9292455217
 20
89.6525884254
 30
0.0
 10
119.580117426
 20
89.5996730797
 30
0.0
 10
119.2053973442
 20
89.6249076026
 30
0.0
 10
118.9544673041
 20
89.6893310647
 30
0.0
 10
118.827566031
 20
89.7322901754
 30
0.0
  0
SPLINE
  5
3D5
100
AcDbEntity
  8
0
100
AcDbSpline
 62
7
  6
BYLAYER
 70
0
 71
3
 72
15
 73
11
 74
0
 42
0.0000001
 43
0.0000001
 44
0.0000000001
 40
0.0
 40
0.0
 40
0.0
 40
0.0
 40
0.0868371553
 40
0.1839034737
 40
0.2965173522
 40
0.4247760624
 40
0.5652075165
 40
0.7122470735
 40
0.8593609317
 40
1.0
 40
1.0
 40
1.0
 40
1.0
 10
119.7868680755
 20
90.575852085
 30
0.0
 10
119.9215633052
 20
90.6536447551
 30
0.0
 10
120.1690368655
 20
90.8898092369
 30
0.0
 10
120.3789270895
 20
91.389023147
 30
0.0
 10
120.4424061748
 20
91.9973824204
 30
0.0
 10
120.362532888
 20
92.6800580692
 30
0.0
 10
120.1463952509
 20
93.3961239264
 30
0.0
 10
119.8078776887
 20
94.1004260714
 30
0.0
 10
119.3691734532
 20
94.7471790524
 30
0.0
 10
119.015635772
 20
95.1261675919
 30
0.0
 10
118.827566031
 20
95.2937752355
 30
0.0
  0
SPLINE
  5
3D6
100
AcDbEntity
  8
0
100
AcDbSpline
 62
7
  6
BYLAYER
 70
0
 71
3
 72
9
 73
5
 74
0
 42
0.0000001
 43
0.0000001
 44
0.0000000001
 40
0.0
 40
0.0
 40
0.0
 40
0.0
 40
0.5253921161
 40
1.0
 40
1.0
 40
1.0
 40
1.0
 10
122.2550409397
 20
115.8875769712
 30
0.0
 10
122.4355459597
 20
115.892338166
 30
0.0
 10
122.7790712154
 20
115.9366130436
 30
0.0
 10
123.1056322435
 20
116.0587278716
 30
0.0
 10
123.2468934752
 20
116.1402845949
 30
0.0
  0
SPLINE
  5
3D7
100
AcDbEntity
  8
0
100
AcDbSpline
 62
7
  6
BYLAYER
 70
0
 71
3
 72
11
 73
7
 74
0
 42
0.0000001
 43
0.0000001
 44
0.0000000001
 40
0.0
 40
0.0
 40
0.0
 40
0.0
 40
0.2177706029
 40
0.450948419
 40
0.7101982379
 40
1.0
 40
1.0
 40
1.0
 40
1.0
 10
126.2479616741
 20
133.1845247705
 30
0.0
 10
126.2479616655
 20
133.5482518378
 30
0.0
 10
126.3822115358
 20
134.3065292386
 30
0.0
 10
126.957179347
 20
135.3626042547
 30
0.0
 10
127.8654821883
 20
136.3177982159
 30
0.0
 10
128.6258596619
 20
136.8412072125
 30
0.0
 10
129.0450474952
 20
137.0832239762
 30
0.0
  0
SPLINE
  5
3D8
100
AcDbEntity
  8
0
100
AcDbSpline
 62
7
  6
BYLAYER
 70
0
 71
3
 72
11
 73
7
 74
0
 42
0.0000001
 43
0.0000001
 44
0.0000000001
 40
0.0
 40
0.0
 40
0.0
 40
0.0
 40
0.2177706029
 40
0.450948419
 40
0.7101982379
 40
1.0
 40
1.0
 40
1.0
 40
1.0
 10
76.7502809138
 20
161.7613775869
 30
0.0
 10
76.7502809052
 20
162.1251046542
 30
0.0
 10
76.8845307755
 20
162.883382055
 30
0.0
 10
77.4594985867
 20
163.9394570712
 30
0.0
 10
78.367801428
 20
164.8946510323
 30
0.0
 10
79.1281789016
 20
165.4180600289
 30
0.0
 10
79.5473667349
 20
165.6600767927
 30
0.0
  0
SPLINE
  5
3D9
100
AcDbEntity
  8
0
100
AcDbSpline
 62
7
  6
BYLAYER
 70
0
 71
3
 72
15
 73
11
 74
0
 42
0.0000001
 43
0.0000001
 44
0.0000000001
 40
0.0
 40
0.0
 40
0.0
 40
0.0
 40
0.0869258731
 40
0.1863900355
 40
0.3037775758
 40
0.4375856292
 40
0.582082136
 40
0.7293904368
 40
0.8711742898
 40
1.0
 40
1.0
 40
1.0
 40
1.0
 10
71.1886098095
 20
145.3294985799
 30
0.0
 10
71.1886082326
 20
145.2429895091
 30
0.0
 10
71.240805897
 20
145.0557871992
 30
0.0
 10
71.4448605999
 20
144.8237485079
 30
0.0
 10
71.7460389156
 20
144.640215484
 30
0.0
 10
72.1220537211
 20
144.5145648772
 30
0.0
 10
72.5435663736
 20
144.4553712501
 30
0.0
 10
72.9769907097
 20
144.4672986862
 30
0.0
 10
73.386737642
 20
144.5493166298
 30
0.0
 10
73.6381811627
 20
144.6530336974
 30
0.0
 10
73.749212715
 20
144.7171374113
 30
0.0
  0
SPLINE
  5
3DA
100
AcDbEntity
  8
0
100
AcDbSpline
 62
7
  6
BYLAYER
 70
0
 71
3
 72
11
 73
7
 74
0
 42
0.0000001
 43
0.0000001
 44
0.0000000001
 40
0.0
 40
0.0
 40
0.0
 40
0.0
 40
0.2177706029
 40
0.450948419
 40
0.7101982379
 40
1.0
 40
1.0
 40
1.0
 40
1.0
 10
52.0014405336
 20
176.0498039952
 30
0.0
 10
52.001440525
 20
176.4135310624
 30
0.0
 10
52.1356903954
 20
177.1718084632
 30
0.0
 10
52.7106582066
 20
178.2278834794
 30
0.0
 10
53.6189610479
 20
179.1830774405
 30
0.0
 10
54.3793385215
 20
179.7064864371
 30
0.0
 10
54.7985263548
 20
179.9485032009
 30
0.0
  0
SPLINE
  5
3DB
100
AcDbEntity
  8
0
100
AcDbSpline
 62
7
  6
BYLAYER
 70
0
 71
3
 72
15
 73
11
 74
0
 42
0.0000001
 43
0.0000001
 44
0.0000000001
 40
0.0
 40
0.0
 40
0.0
 40
0.0
 40
0.0869258731
 40
0.1863900355
 40
0.3037775758
 40
0.4375856292
 40
0.582082136
 40
0.7293904368
 40
0.8711742898
 40
1.0
 40
1.0
 40
1.0
 40
1.0
 10
95.9374501896
 20
131.0410721717
 30
0.0
 10
95.9374486127
 20
130.9545631009
 30
0.0
 10
95.9896462772
 20
130.767360791
 30
0.0
 10
96.19370098
 20
130.5353220997
 30
0.0
 10
96.4948792958
 20
130.3517890758
 30
0.0
 10
96.8708941013
 20
130.2261384689
 30
0.0
 10
97.2924067538
 20
130.1669448419
 30
0.0
 10
97.7258310898
 20
130.178872278
 30
0.0
 10
98.1355780222
 20
130.2608902216
 30
0.0
 10
98.3870215428
 20
130.3646072892
 30
0.0
 10
98.4980530951
 20
130.4287110031
 30
0.0
  0
SPLINE
  5
3DC
100
AcDbEntity
  8
0
100
AcDbSpline
 62
7
  6
BYLAYER
 70
0
 71
3
 72
9
 73
5
 74
0
 42
0.0000001
 43
0.0000001
 44
0.0000000001
 40
0.0
 40
0.0
 40
0.0
 40
0.0
 40
0.2701701802
 40
1.0
 40
1.0
 40
1.0
 40
1.0
 10
49.7103705105
 20
128.9568267939
 30
0.0
 10
49.7145483359
 20
129.0749220494
 30
0.0
 10
49.7473316903
 20
129.5107058797
 30
0.0
 10
49.8555317746
 20
129.9448502156
 30
0.0
 10
49.9912893648
 20
130.2337626814
 30
0.0
  0
SPLINE
  5
3DD
100
AcDbEntity
  8
0
100
AcDbSpline
 62
7
  6
BYLAYER
 70
0
 71
3
 72
11
 73
7
 74
0
 42
0.0000001
 43
0.0000001
 44
0.0000000001
 40
0.0
 40
0.0
 40
0.0
 40
0.0
 40
0.2895468475
 40
0.5491384346
 40
0.782278826
 40
1.0
 40
1.0
 40
1.0
 40
1.0
 10
49.0003723348
 20
159.0055638195
 30
0.0
 10
49.0661534669
 20
159.0435423472
 30
0.0
 10
49.1855259268
 20
159.1258538593
 30
0.0
 10
49.3283214162
 20
159.2757637413
 30
0.0
 10
49.418644029
 20
159.4417279211
 30
0.0
 10
49.4396450237
 20
159.5608096897
 30
0.0
 10
49.4396460648
 20
159.6179249145
 30
0.0
  0
SPLINE
  5
3DE
100
AcDbEntity
  8
0
100
AcDbSpline
 62
7
  6
BYLAYER
 70
0
 71
3
 72
9
 73
5
 74
0
 42
0.0000001
 43
0.0000001
 44
0.0000000001
 40
0.0
 40
0.0
 40
0.0
 40
0.0
 40
0.2355398923
 40
1.0
 40
1.0
 40
1.0
 40
1.0
 10
26.7265313962
 20
167.946279156
 30
0.0
 10
26.7265313962
 20
168.013195416
 30
0.0
 10
26.714168462
 20
168.2972676661
 30
0.0
 10
26.6568325598
 20
168.5784448275
 30
0.0
 10
26.595043452
 20
168.7866508158
 30
0.0
  0
SPLINE
  5
3DF
100
AcDbEntity
  8
0
100
AcDbSpline
 62
7
  6
BYLAYER
 70
0
 71
3
 72
9
 73
5
 74
0
 42
0.0000001
 43
0.0000001
 44
0.0000000001
 40
0.0
 40
0.0
 40
0.0
 40
0.0
 40
0.2301110449
 40
1.0
 40
1.0
 40
1.0
 40
1.0
 10
26.5950434661
 20
167.2577332926
 30
0.0
 10
26.6172656067
 20
167.3069541913
 30
0.0
 10
26.6993817305
 20
167.5274082248
 30
0.0
 10
26.7265313962
 20
167.7655937256
 30
0.0
 10
26.7265313962
 20
167.946279156
 30
0.0
  0
SPLINE
  5
3E0
100
AcDbEntity
  8
0
100
AcDbSpline
 62
7
  6
BYLAYER
 70
0
 71
3
 72
9
 73
5
 74
0
 42
0.0000001
 43
0.0000001
 44
0.0000000001
 40
0.0
 40
0.0
 40
0.0
 40
0.0
 40
0.2295475981
 40
1.0
 40
1.0
 40
1.0
 40
1.0
 10
25.4537338909
 20
166.3316276955
 30
0.0
 10
25.3760154011
 20
166.3562256298
 30
0.0
 10
25.0442357276
 20
166.4848482685
 30
0.0
 10
24.7441822045
 20
166.6865831685
 30
0.0
 10
24.5344912482
 20
166.8623406764
 30
0.0
  0
SPLINE
  5
3E1
100
AcDbEntity
  8
0
100
AcDbSpline
 62
7
  6
BYLAYER
 70
0
 71
3
 72
11
 73
7
 74
0
 42
0.0000001
 43
0.0000001
 44
0.0000000001
 40
0.0
 40
0.0
 40
0.0
 40
0.0
 40
0.2895468475
 40
0.5491384346
 40
0.782278826
 40
1.0
 40
1.0
 40
1.0
 40
1.0
 10
73.749212715
 20
144.7171374113
 30
0.0
 10
73.814993847
 20
144.7551159389
 30
0.0
 10
73.934366307
 20
144.8374274511
 30
0.0
 10
74.0771617964
 20
144.9873373331
 30
0.0
 10
74.1674844091
 20
145.1533015129
 30
0.0
 10
74.1884854039
 20
145.2723832815
 30
0.0
 10
74.188486445
 20
145.3294985063
 30
0.0
  0
SPLINE
  5
3E2
100
AcDbEntity
  8
0
100
AcDbSpline
 62
7
  6
BYLAYER
 70
0
 71
3
 72
11
 73
7
 74
0
 42
0.0000001
 43
0.0000001
 44
0.0000000001
 40
0.0
 40
0.0
 40
0.0
 40
0.0
 40
0.2896824096
 40
0.5490923888
 40
0.782218374
 40
1.0
 40
1.0
 40
1.0
 40
1.0
 10
22.9081388804
 20
170.1507792304
 30
0.0
 10
22.9081388804
 20
170.3002389538
 30
0.0
 10
22.9308234714
 20
170.5844992082
 30
0.0
 10
23.0459079755
 20
170.9750648233
 30
0.0
 10
23.2397467801
 20
171.2920105706
 30
0.0
 10
23.4218485913
 20
171.4449994234
 30
0.0
 10
23.5191336884
 20
171.5012226511
 30
0.0
  0
SPLINE
  5
3E3
100
AcDbEntity
  8
0
100
AcDbSpline
 62
7
  6
BYLAYER
 70
0
 71
3
 72
11
 73
7
 74
0
 42
0.0000001
 43
0.0000001
 44
0.0000000001
 40
0.0
 40
0.0
 40
0.0
 40
0.0
 40
0.2496125778
 40
0.5121726406
 40
0.768264248
 40
1.0
 40
1.0
 40
1.0
 40
1.0
 10
24.5344912482
 20
166.8623406764
 30
0.0
 10
24.2943645537
 20
167.0636086288
 30
0.0
 10
23.8518814328
 20
167.538134774
 30
0.0
 10
23.3406421683
 20
168.3622559968
 30
0.0
 10
23.0016365753
 20
169.2469395025
 30
0.0
 10
22.9081388804
 20
169.859898383
 30
0.0
 10
22.9081388804
 20
170.1507792304
 30
0.0
  0
SPLINE
  5
3E4
100
AcDbEntity
  8
0
100
AcDbSpline
 62
7
  6
BYLAYER
 70
0
 71
3
 72
9
 73
5
 74
0
 42
0.0000001
 43
0.0000001
 44
0.0000000001
 40
0.0
 40
0.0
 40
0.0
 40
0.0
 40
0.5411701253
 40
1.0
 40
1.0
 40
1.0
 40
1.0
 10
27.9285973212
 20
158.8830588171
 30
0.0
 10
27.9285973212
 20
158.6626680774
 30
0.0
 10
27.9737695936
 20
158.2521502683
 30
0.0
 10
28.1603502898
 20
157.8748717336
 30
0.0
 10
28.2821492398
 20
157.733164815
 30
0.0
  0
SPLINE
  5
3E5
100
AcDbEntity
  8
0
100
AcDbSpline
 62
7
  6
BYLAYER
 70
0
 71
3
 72
9
 73
5
 74
0
 42
0.0000001
 43
0.0000001
 44
0.0000000001
 40
0.0
 40
0.0
 40
0.0
 40
0.0
 40
0.5238328618
 40
1.0
 40
1.0
 40
1.0
 40
1.0
 10
28.2821492398
 20
160.4411969731
 30
0.0
 10
28.1710914298
 20
160.1837490803
 30
0.0
 10
27.9994050477
 20
159.6736611171
 30
0.0
 10
27.9285973212
 20
159.1379263815
 30
0.0
 10
27.9285973212
 20
158.8830588171
 30
0.0
  0
SPLINE
  5
3E6
100
AcDbEntity
  8
0
100
AcDbSpline
 62
7
  6
BYLAYER
 70
0
 71
3
 72
9
 73
5
 74
0
 42
0.0000001
 43
0.0000001
 44
0.0000000001
 40
0.0
 40
0.0
 40
0.0
 40
0.0
 40
0.2534740614
 40
1.0
 40
1.0
 40
1.0
 40
1.0
 10
26.6209444755
 20
173.2420852928
 30
0.0
 10
26.5967295456
 20
173.2363598393
 30
0.0
 10
26.50201265
 20
173.2104768308
 30
0.0
 10
26.4109988126
 20
173.1708683169
 30
0.0
 10
26.3475490267
 20
173.1341992845
 30
0.0
  0
SPLINE
  5
3E7
100
AcDbEntity
  8
0
100
AcDbSpline
 62
7
  6
BYLAYER
 70
0
 71
3
 72
11
 73
7
 74
0
 42
0.0000001
 43
0.0000001
 44
0.0000000001
 40
0.0
 40
0.0
 40
0.0
 40
0.0
 40
0.2317358815
 40
0.4878275376
 40
0.7503875585
 40
1.0
 40
1.0
 40
1.0
 40
1.0
 10
29.9085016076
 20
169.3751353942
 30
0.0
 10
29.9085016076
 20
169.6660164041
 30
0.0
 10
29.815003829
 20
170.2789755085
 30
0.0
 10
29.4759980679
 20
171.163659133
 30
0.0
 10
28.964758796
 20
171.9877801583
 30
0.0
 10
28.5222758031
 20
172.4623061057
 30
0.0
 10
28.2821492398
 20
172.6635739481
 30
0.0
  0
SPLINE
  5
3E8
100
AcDbEntity
  8
0
100
AcDbSpline
 62
7
  6
BYLAYER
 70
0
 71
3
 72
9
 73
5
 74
0
 42
0.0000001
 43
0.0000001
 44
0.0000000001
 40
0.0
 40
0.0
 40
0.0
 40
0.0
 40
0.2701701397
 40
1.0
 40
1.0
 40
1.0
 40
1.0
 10
99.2080512708
 20
100.3799739774
 30
0.0
 10
99.2122290926
 20
100.4980691324
 30
0.0
 10
99.2450124333
 20
100.9338526548
 30
0.0
 10
99.3532123052
 20
101.3679967079
 30
0.0
 10
99.4889697307
 20
101.6569090233
 30
0.0
  0
SPLINE
  5
3E9
100
AcDbEntity
  8
0
100
AcDbSpline
 62
7
  6
BYLAYER
 70
0
 71
3
 72
9
 73
5
 74
0
 42
0.0000001
 43
0.0000001
 44
0.0000000001
 40
0.0
 40
0.0
 40
0.0
 40
0.0
 40
0.5208028624
 40
1.0
 40
1.0
 40
1.0
 40
1.0
 10
25.6852837882
 20
151.3934830024
 30
0.0
 10
25.7628704248
 20
151.597708677
 30
0.0
 10
25.9648778496
 20
151.9741732059
 30
0.0
 10
26.2883796369
 20
152.2587745386
 30
0.0
 10
26.4624720162
 20
152.3592659789
 30
0.0
  0
SPLINE
  5
3EA
100
AcDbEntity
  8
0
100
AcDbSpline
 62
7
  6
BYLAYER
 70
0
 71
3
 72
9
 73
5
 74
0
 42
0.0000001
 43
0.0000001
 44
0.0000000001
 40
0.0
 40
0.0
 40
0.0
 40
0.0
 40
0.2640209776
 40
1.0
 40
1.0
 40
1.0
 40
1.0
 10
25.8426371742
 20
149.0646266818
 30
0.0
 10
25.7957460421
 20
149.0916986771
 30
0.0
 10
25.6153543525
 20
149.1891672478
 30
0.0
 10
25.4229016016
 20
149.2655723008
 30
0.0
 10
25.2769493941
 20
149.3040270585
 30
0.0
  0
SPLINE
  5
3EB
100
AcDbEntity
  8
0
100
AcDbSpline
 62
7
  6
BYLAYER
 70
0
 71
3
 72
9
 73
5
 74
0
 42
0.0000001
 43
0.0000001
 44
0.0000000001
 40
0.0
 40
0.0
 40
0.0
 40
0.0
 40
0.2414835553
 40
1.0
 40
1.0
 40
1.0
 40
1.0
 10
25.8426371742
 20
143.3491097619
 30
0.0
 10
25.7945732536
 20
143.3768588516
 30
0.0
 10
25.5981169391
 20
143.4962158851
 30
0.0
 10
25.4120050544
 20
143.6323162483
 30
0.0
 10
25.2769493941
 20
143.7425419985
 30
0.0
  0
SPLINE
  5
3EC
100
AcDbEntity
  8
0
100
AcDbSpline
 62
7
  6
BYLAYER
 70
0
 71
3
 72
16
 73
12
 74
0
 42
0.0000001
 43
0.0000001
 44
0.0000000001
 40
0.0
 40
0.0
 40
0.0
 40
0.0
 40
0.138045405
 40
0.2840186467
 40
0.4311419982
 40
0.572428044
 40
0.7018082064
 40
0.8153262152
 40
0.9127544553
 40
0.9571214479
 40
1.0
 40
1.0
 40
1.0
 40
1.0
 10
25.2769493941
 20
143.7425419985
 30
0.0
 10
25.0209360652
 20
143.9514874153
 30
0.0
 10
24.5365467933
 20
144.4346358967
 30
0.0
 10
23.9309003407
 20
145.2750268418
 30
0.0
 10
23.4560732047
 20
146.2048137508
 30
0.0
 10
23.1448947701
 20
147.1600394383
 30
0.0
 10
23.0190153459
 20
148.0771287164
 30
0.0
 10
23.0874177479
 20
148.8969135578
 30
0.0
 10
23.3223894021
 20
149.4770962173
 30
0.0
 10
23.6096616255
 20
149.8174216907
 30
0.0
 10
23.7787929893
 20
149.9437109458
 30
0.0
 10
23.867674681
 20
149.9950503528
 30
0.0
  0
SPLINE
  5
3ED
100
AcDbEntity
  8
0
100
AcDbSpline
 62
7
  6
BYLAYER
 70
0
 71
3
 72
11
 73
7
 74
0
 42
0.0000001
 43
0.0000001
 44
0.0000000001
 40
0.0
 40
0.0
 40
0.0
 40
0.0
 40
0.2895468475
 40
0.5491384346
 40
0.782278826
 40
1.0
 40
1.0
 40
1.0
 40
1.0
 10
123.2468934752
 20
116.1402845949
 30
0.0
 10
123.3126746073
 20
116.1782631225
 30
0.0
 10
123.4320470673
 20
116.2605746346
 30
0.0
 10
123.5748425567
 20
116.4104845167
 30
0.0
 10
123.6651651694
 20
116.5764486965
 30
0.0
 10
123.6861661642
 20
116.6955304651
 30
0.0
 10
123.6861672053
 20
116.7526456898
 30
0.0
  0
SPLINE
  5
3EE
100
AcDbEntity
  8
0
100
AcDbSpline
 62
7
  6
BYLAYER
 70
0
 71
3
 72
9
 73
5
 74
0
 42
0.0000001
 43
0.0000001
 44
0.0000000001
 40
0.0
 40
0.0
 40
0.0
 40
0.0
 40
0.2397328584
 40
1.0
 40
1.0
 40
1.0
 40
1.0
 10
118.827566031
 20
89.7322901754
 30
0.0
 10
118.7804060801
 20
89.7482549448
 30
0.0
 10
118.5855592047
 20
89.8203441054
 30
0.0
 10
118.398620998
 20
89.9130964703
 30
0.0
 10
118.2618782509
 20
89.9920431461
 30
0.0
  0
SPLINE
  5
3EF
100
AcDbEntity
  8
0
100
AcDbSpline
 62
7
  6
BYLAYER
 70
0
 71
3
 72
17
 73
13
 74
0
 42
0.0000001
 43
0.0000001
 44
0.0000000001
 40
0.0
 40
0.0
 40
0.0
 40
0.0
 40
0.1286921972
 40
0.2702783352
 40
0.4174363104
 40
0.5617776607
 40
0.6954471983
 40
0.8127108538
 40
0.8646737188
 40
0.9125097962
 40
0.957137988
 40
1.0
 40
1.0
 40
1.0
 40
1.0
 10
118.2618782509
 20
89.9920431461
 30
0.0
 10
117.9694740093
 20
90.1608589946
 30
0.0
 10
117.4018885348
 20
90.5976047494
 30
0.0
 10
116.6754727808
 20
91.4241177023
 30
0.0
 10
116.0774977782
 20
92.3966283529
 30
0.0
 10
115.6574775357
 20
93.4362047482
 30
0.0
 10
115.4489944502
 20
94.4582722135
 30
0.0
 10
115.4676630015
 20
95.2636383171
 30
0.0
 10
115.6167728674
 20
95.8159971097
 30
0.0
 10
115.7827373161
 20
96.1595845935
 30
0.0
 10
116.0049561995
 20
96.4404338605
 30
0.0
 10
116.1895011799
 20
96.5818044703
 30
0.0
 10
116.2868961351
 20
96.6380173914
 30
0.0
  0
SPLINE
  5
3F0
100
AcDbEntity
  8
0
100
AcDbSpline
 62
7
  6
BYLAYER
 70
0
 71
3
 72
9
 73
5
 74
0
 42
0.0000001
 43
0.0000001
 44
0.0000000001
 40
0.0
 40
0.0
 40
0.0
 40
0.0
 40
0.2605170042
 40
1.0
 40
1.0
 40
1.0
 40
1.0
 10
118.827566031
 20
95.2937752355
 30
0.0
 10
118.7820857664
 20
95.3343072208
 30
0.0
 10
118.6040344944
 20
95.4858838212
 30
0.0
 10
118.4116355572
 20
95.6210996009
 30
0.0
 10
118.2618782509
 20
95.707560066
 30
0.0
  0
SPLINE
  5
3F1
100
AcDbEntity
  8
0
100
AcDbSpline
 62
7
  6
BYLAYER
 70
0
 71
3
 72
11
 73
7
 74
0
 42
0.0000001
 43
0.0000001
 44
0.0000000001
 40
0.0
 40
0.0
 40
0.0
 40
0.0
 40
0.2896403952
 40
0.5491094116
 40
0.7822346475
 40
1.0
 40
1.0
 40
1.0
 40
1.0
 10
118.2618782509
 20
95.707560066
 30
0.0
 10
118.1280767043
 20
95.7848086774
 30
0.0
 10
117.8618124605
 20
95.9114161211
 30
0.0
 10
117.4526321321
 20
96.0103000644
 30
0.0
 10
117.0686105397
 20
96.0006425691
 30
0.0
 10
116.8375335112
 20
95.9166012876
 30
0.0
 10
116.7369122737
 20
95.8585618173
 30
0.0
  0
SPLINE
  5
3F2
100
AcDbEntity
  8
0
100
AcDbSpline
 62
7
  6
BYLAYER
 70
0
 71
3
 72
10
 73
6
 74
0
 42
0.0000001
 43
0.0000001
 44
0.0000000001
 40
0.0
 40
0.0
 40
0.0
 40
0.0
 40
0.527286514
 40
0.7676473747
 40
1.0
 40
1.0
 40
1.0
 40
1.0
 10
118.0122870576
 20
97.7430206711
 30
0.0
 10
118.0801871151
 20
98.0098438872
 30
0.0
 10
118.2367358337
 20
98.3914889852
 30
0.0
 10
118.5766963153
 20
98.7923007288
 30
0.0
 10
118.7766579069
 20
98.9415102269
 30
0.0
 10
118.8817256496
 20
99.0021773787
 30
0.0
  0
SPLINE
  5
3F3
100
AcDbEntity
  8
0
100
AcDbSpline
 62
7
  6
BYLAYER
 70
0
 71
3
 72
9
 73
5
 74
0
 42
0.0000001
 43
0.0000001
 44
0.0000000001
 40
0.0
 40
0.0
 40
0.0
 40
0.0
 40
0.2375708516
 40
1.0
 40
1.0
 40
1.0
 40
1.0
 10
79.6337271282
 20
126.1526134671
 30
0.0
 10
79.6528747313
 20
126.1798541639
 30
0.0
 10
79.7276578282
 20
126.2985976015
 30
0.0
 10
79.7789249425
 20
126.4313096735
 30
0.0
 10
79.8066235195
 20
126.5345163197
 30
0.0
  0
SPLINE
  5
3F4
100
AcDbEntity
  8
0
100
AcDbSpline
 62
7
  6
BYLAYER
 70
0
 71
3
 72
9
 73
5
 74
0
 42
0.0000001
 43
0.0000001
 44
0.0000000001
 40
0.0
 40
0.0
 40
0.0
 40
0.0
 40
0.2431631302
 40
1.0
 40
1.0
 40
1.0
 40
1.0
 10
79.8066235195
 20
126.5345163197
 30
0.0
 10
79.8115608624
 20
126.5529131713
 30
0.0
 10
79.830420842
 20
126.6289538835
 30
0.0
 10
79.8436581956
 20
126.7063566848
 30
0.0
 10
79.850874601
 20
126.7652016992
 30
0.0
  0
SPLINE
  5
3F5
100
AcDbEntity
  8
0
100
AcDbSpline
 62
7
  6
BYLAYER
 70
0
 71
3
 72
13
 73
9
 74
0
 42
0.0000001
 43
0.0000001
 44
0.0000000001
 40
0.0
 40
0.0
 40
0.0
 40
0.0
 40
0.2764080768
 40
0.4183489858
 40
0.5563653892
 40
0.6861587732
 40
0.8043943175
 40
1.0
 40
1.0
 40
1.0
 40
1.0
 10
77.5140984217
 20
126.0764926234
 30
0.0
 10
77.2021253005
 20
126.3686079207
 30
0.0
 10
76.7958484749
 20
126.8854344982
 30
0.0
 10
76.3978871031
 20
127.6495691128
 30
0.0
 10
76.1799847936
 20
128.2464483889
 30
0.0
 10
76.0571411088
 20
128.8340875736
 30
0.0
 10
76.0273304961
 20
129.518082668
 30
0.0
 10
76.1529776717
 20
130.0188860561
 30
0.0
 10
76.3269022079
 20
130.2663230604
 30
0.0
  0
SPLINE
  5
3F6
100
AcDbEntity
  8
0
100
AcDbSpline
 62
7
  6
BYLAYER
 70
0
 71
3
 72
9
 73
5
 74
0
 42
0.0000001
 43
0.0000001
 44
0.0000000001
 40
0.0
 40
0.0
 40
0.0
 40
0.0
 40
0.2533602682
 40
1.0
 40
1.0
 40
1.0
 40
1.0
 10
119.0349634605
 20
119.8837699984
 30
0.0
 10
119.0112272157
 20
119.8780313809
 30
0.0
 10
118.9183448408
 20
119.8522002561
 30
0.0
 10
118.8290962752
 20
119.8131447179
 30
0.0
 10
118.766785104
 20
119.7771413014
 30
0.0
  0
SPLINE
  5
3F7
100
AcDbEntity
  8
0
100
AcDbSpline
 62
7
  6
BYLAYER
 70
0
 71
3
 72
9
 73
5
 74
0
 42
0.0000001
 43
0.0000001
 44
0.0000000001
 40
0.0
 40
0.0
 40
0.0
 40
0.0
 40
0.5238328618
 40
1.0
 40
1.0
 40
1.0
 40
1.0
 10
120.7013903165
 20
107.0841303573
 30
0.0
 10
120.5903325066
 20
106.8266824645
 30
0.0
 10
120.4186461244
 20
106.3165945013
 30
0.0
 10
120.3478383979
 20
105.7808597657
 30
0.0
 10
120.3478383979
 20
105.5259922013
 30
0.0
  0
SPLINE
  5
3F8
100
AcDbEntity
  8
0
100
AcDbSpline
 62
7
  6
BYLAYER
 70
0
 71
3
 72
9
 73
5
 74
0
 42
0.0000001
 43
0.0000001
 44
0.0000000001
 40
0.0
 40
0.0
 40
0.0
 40
0.0
 40
0.5411701253
 40
1.0
 40
1.0
 40
1.0
 40
1.0
 10
120.3478383979
 20
105.5259922013
 30
0.0
 10
120.3478383979
 20
105.3056014616
 30
0.0
 10
120.3930106703
 20
104.8950836525
 30
0.0
 10
120.5795913665
 20
104.5178051178
 30
0.0
 10
120.7013903165
 20
104.3760981992
 30
0.0
  0
SPLINE
  5
3F9
100
AcDbEntity
  8
0
100
AcDbSpline
 62
7
  6
BYLAYER
 70
0
 71
3
 72
16
 73
12
 74
0
 42
0.0000001
 43
0.0000001
 44
0.0000000001
 40
0.0
 40
0.0
 40
0.0
 40
0.0
 40
0.1388061397
 40
0.2851179912
 40
0.4321964285
 40
0.5732066162
 40
0.702226572
 40
0.8154490106
 40
0.9127452587
 40
0.9571050395
 40
1.0
 40
1.0
 40
1.0
 40
1.0
 10
116.9537323249
 20
113.5052740606
 30
0.0
 10
116.7652482337
 20
113.6632565256
 30
0.0
 10
116.4093205443
 20
114.0260294523
 30
0.0
 10
115.9652491161
 20
114.6532852475
 30
0.0
 10
115.6187513464
 20
115.3439648256
 30
0.0
 10
115.3933142306
 20
116.0512528997
 30
0.0
 10
115.3044226025
 20
116.7289321092
 30
0.0
 10
115.3584179247
 20
117.3339628766
 30
0.0
 10
115.5340406173
 20
117.7617667902
 30
0.0
 10
115.7473651548
 20
118.0127174728
 30
0.0
 10
115.8725636208
 20
118.1061418785
 30
0.0
 10
115.9383697551
 20
118.1441646859
 30
0.0
  0
SPLINE
  5
3FA
100
AcDbEntity
  8
0
100
AcDbSpline
 62
7
  6
BYLAYER
 70
0
 71
3
 72
9
 73
5
 74
0
 42
0.0000001
 43
0.0000001
 44
0.0000000001
 40
0.0
 40
0.0
 40
0.0
 40
0.0
 40
0.2387765066
 40
1.0
 40
1.0
 40
1.0
 40
1.0
 10
117.8729749676
 20
112.9745610797
 30
0.0
 10
117.8347068308
 20
112.9866729609
 30
0.0
 10
117.6760274677
 20
113.0423853901
 30
0.0
 10
117.5241744742
 20
113.1167392708
 30
0.0
 10
117.4133536463
 20
113.1807202582
 30
0.0
  0
SPLINE
  5
3FB
100
AcDbEntity
  8
0
100
AcDbSpline
 62
7
  6
BYLAYER
 70
0
 71
3
 72
9
 73
5
 74
0
 42
0.0000001
 43
0.0000001
 44
0.0000000001
 40
0.0
 40
0.0
 40
0.0
 40
0.0
 40
0.2408267644
 40
1.0
 40
1.0
 40
1.0
 40
1.0
 10
117.4133536463
 20
113.1807202582
 30
0.0
 10
117.3742085827
 20
113.2033201599
 30
0.0
 10
117.213961734
 20
113.3011231386
 30
0.0
 10
117.0629346649
 20
113.4137434984
 30
0.0
 10
116.9537323249
 20
113.5052740606
 30
0.0
  0
SPLINE
  5
3FC
100
AcDbEntity
  8
0
100
AcDbSpline
 62
7
  6
BYLAYER
 70
0
 71
3
 72
9
 73
5
 74
0
 42
0.0000001
 43
0.0000001
 44
0.0000000001
 40
0.0
 40
0.0
 40
0.0
 40
0.0
 40
0.4517842473
 40
1.0
 40
1.0
 40
1.0
 40
1.0
 10
119.0142845428
 20
113.9006666768
 30
0.0
 10
119.1104324468
 20
114.1136293403
 30
0.0
 10
119.1881808386
 20
114.6434723882
 30
0.0
 10
119.0949516902
 20
115.157766291
 30
0.0
 10
119.0142845287
 20
115.4295842
 30
0.0
  0
SPLINE
  5
3FD
100
AcDbEntity
  8
0
100
AcDbSpline
 62
7
  6
BYLAYER
 70
0
 71
3
 72
14
 73
10
 74
0
 42
0.0000001
 43
0.0000001
 44
0.0000000001
 40
0.0
 40
0.0
 40
0.0
 40
0.0
 40
0.369217338
 40
0.5294635329
 40
0.6693319142
 40
0.786560471
 40
0.8797798827
 40
0.9494670584
 40
1.0
 40
1.0
 40
1.0
 40
1.0
 10
77.0847925542
 20
123.0748110329
 30
0.0
 10
76.896980792
 20
122.8981421336
 30
0.0
 10
76.6352148969
 20
122.6362242179
 30
0.0
 10
76.328988867
 20
122.2828292751
 30
0.0
 10
76.1512843008
 20
122.0515334923
 30
0.0
 10
76.0174468878
 20
121.8463685401
 30
0.0
 10
75.9302330356
 20
121.6703858247
 30
0.0
 10
75.8884272464
 20
121.5264117982
 30
0.0
 10
75.896468078
 20
121.4381748874
 30
0.0
 10
75.9121837323
 20
121.4065770933
 30
0.0
  0
SPLINE
  5
3FE
100
AcDbEntity
  8
0
100
AcDbSpline
 62
7
  6
BYLAYER
 70
0
 71
3
 72
11
 73
7
 74
0
 42
0.0000001
 43
0.0000001
 44
0.0000000001
 40
0.0
 40
0.0
 40
0.0
 40
0.0
 40
0.2981900251
 40
0.5609051889
 40
0.7908090543
 40
1.0
 40
1.0
 40
1.0
 40
1.0
 10
81.2969937245
 20
131.8357942606
 30
0.0
 10
81.1431428546
 20
131.9535330488
 30
0.0
 10
80.8344571688
 20
132.1520925351
 30
0.0
 10
80.3477604975
 20
132.3319573634
 30
0.0
 10
79.8849710231
 20
132.3644044919
 30
0.0
 10
79.6045070434
 20
132.2747734774
 30
0.0
 10
79.4868368063
 20
132.2067629734
 30
0.0
  0
SPLINE
  5
3FF
100
AcDbEntity
  8
0
100
AcDbSpline
 62
7
  6
BYLAYER
 70
0
 71
3
 72
12
 73
8
 74
0
 42
0.0000001
 43
0.0000001
 44
0.0000000001
 40
0.0
 40
0.0
 40
0.0
 40
0.0
 40
0.1968104652
 40
0.3108056371
 40
0.4349974664
 40
0.7080378919
 40
1.0
 40
1.0
 40
1.0
 40
1.0
 10
82.7683299697
 20
127.4046910462
 30
0.0
 10
82.8955463433
 20
127.5856778068
 30
0.0
 10
83.016023672
 20
127.9286782058
 30
0.0
 10
83.0573747428
 20
128.4159742439
 30
0.0
 10
83.022157982
 20
128.9917756894
 30
0.0
 10
82.8269070123
 20
129.7484565648
 30
0.0
 10
82.5477744491
 20
130.3238033933
 30
0.0
 10
82.3772212367
 20
130.6041839885
 30
0.0
  0
SPLINE
  5
400
100
AcDbEntity
  8
0
100
AcDbSpline
 62
7
  6
BYLAYER
 70
0
 71
3
 72
11
 73
7
 74
0
 42
0.0000001
 43
0.0000001
 44
0.0000000001
 40
0.0
 40
0.0
 40
0.0
 40
0.0
 40
0.2896283568
 40
0.5491132854
 40
0.7822373842
 40
1.0
 40
1.0
 40
1.0
 40
1.0
 10
69.082396867
 20
116.9154832721
 30
0.0
 10
68.948601194
 20
116.9927284924
 30
0.0
 10
68.6823301545
 20
117.1193232463
 30
0.0
 10
68.2731558469
 20
117.2182258081
 30
0.0
 10
67.8891239562
 20
117.2085730604
 30
0.0
 10
67.6580578892
 20
117.1245107782
 30
0.0
 10
67.5574387343
 20
117.0664711618
 30
0.0
  0
SPLINE
  5
401
100
AcDbEntity
  8
0
100
AcDbSpline
 62
7
  6
BYLAYER
 70
0
 71
3
 72
9
 73
5
 74
0
 42
0.0000001
 43
0.0000001
 44
0.0000000001
 40
0.0
 40
0.0
 40
0.0
 40
0.0
 40
0.5255664313
 40
1.0
 40
1.0
 40
1.0
 40
1.0
 10
70.6128839569
 20
115.2961232042
 30
0.0
 10
70.4168265847
 20
115.6373387241
 30
0.0
 10
69.971875865
 20
116.247582635
 30
0.0
 10
69.390048805
 20
116.7378643612
 30
0.0
 10
69.082396867
 20
116.9154832721
 30
0.0
  0
SPLINE
  5
402
100
AcDbEntity
  8
0
100
AcDbSpline
 62
7
  6
BYLAYER
 70
0
 71
3
 72
16
 73
12
 74
0
 42
0.0000001
 43
0.0000001
 44
0.0000000001
 40
0.0
 40
0.0
 40
0.0
 40
0.0
 40
0.1426642838
 40
0.2905330931
 40
0.4373128873
 40
0.5768635053
 40
0.7040606949
 40
0.8158409621
 40
0.9125665333
 40
0.9569538967
 40
1.0
 40
1.0
 40
1.0
 40
1.0
 10
68.2046974717
 20
111.8700715214
 30
0.0
 10
67.9725300558
 20
112.0928485767
 30
0.0
 10
67.538475001
 20
112.5880864529
 30
0.0
 10
67.0036263334
 20
113.4206159849
 30
0.0
 10
66.5969879593
 20
114.3154579987
 30
0.0
 10
66.3437265811
 20
115.2172836788
 30
0.0
 10
66.2599216894
 20
116.0723759152
 30
0.0
 10
66.3516039048
 20
116.8312976307
 30
0.0
 10
66.5874943892
 20
117.364812036
 30
0.0
 10
66.8631303102
 20
117.679210994
 30
0.0
 10
67.0233376294
 20
117.797395504
 30
0.0
 10
67.1074128216
 20
117.8459440429
 30
0.0
  0
SPLINE
  5
403
100
AcDbEntity
  8
0
100
AcDbSpline
 62
7
  6
BYLAYER
 70
0
 71
3
 72
9
 73
5
 74
0
 42
0.0000001
 43
0.0000001
 44
0.0000000001
 40
0.0
 40
0.0
 40
0.0
 40
0.0
 40
0.2376079114
 40
1.0
 40
1.0
 40
1.0
 40
1.0
 10
69.082396867
 20
111.1999663522
 30
0.0
 10
69.0065478495
 20
111.2437568122
 30
0.0
 10
68.693860597
 20
111.4393142723
 30
0.0
 10
68.4074656203
 20
111.6755046357
 30
0.0
 10
68.2046974717
 20
111.8700715214
 30
0.0
  0
SPLINE
  5
404
100
AcDbEntity
  8
0
100
AcDbSpline
 62
7
  6
BYLAYER
 70
0
 71
3
 72
10
 73
6
 74
0
 42
0.0000001
 43
0.0000001
 44
0.0000000001
 40
0.0
 40
0.0
 40
0.0
 40
0.0
 40
0.52712928
 40
0.7675268442
 40
1.0
 40
1.0
 40
1.0
 40
1.0
 10
68.8348837338
 20
118.9590478569
 30
0.0
 10
68.9031657268
 20
119.2241853432
 30
0.0
 10
69.0597729589
 20
119.6033216227
 30
0.0
 10
69.3986451813
 20
120.0013766883
 30
0.0
 10
69.5976910599
 20
120.149700593
 30
0.0
 10
69.7022678561
 20
120.2100595026
 30
0.0
  0
SPLINE
  5
405
100
AcDbEntity
  8
0
100
AcDbSpline
 62
7
  6
BYLAYER
 70
0
 71
3
 72
11
 73
7
 74
0
 42
0.0000001
 43
0.0000001
 44
0.0000000001
 40
0.0
 40
0.0
 40
0.0
 40
0.0
 40
0.2152824625
 40
0.4474248027
 40
0.7076828135
 40
1.0
 40
1.0
 40
1.0
 40
1.0
 10
69.7022678561
 20
120.2100595026
 30
0.0
 10
69.8664664065
 20
120.3048304826
 30
0.0
 10
70.2475198919
 20
120.4386093649
 30
0.0
 10
70.8799761427
 20
120.437249405
 30
0.0
 10
71.5518751203
 20
120.2502653475
 30
0.0
 10
71.9859380006
 20
120.0230996147
 30
0.0
 10
72.2037401004
 20
119.8858772404
 30
0.0
  0
SPLINE
  5
406
100
AcDbEntity
  8
0
100
AcDbSpline
 62
7
  6
BYLAYER
 70
0
 71
3
 72
9
 73
5
 74
0
 42
0.0000001
 43
0.0000001
 44
0.0000000001
 40
0.0
 40
0.0
 40
0.0
 40
0.0
 40
0.4752094038
 40
1.0
 40
1.0
 40
1.0
 40
1.0
 10
51.4046160555
 20
133.6942345371
 30
0.0
 10
51.4749867856
 20
133.7348628546
 30
0.0
 10
51.6405713676
 20
133.7898982845
 30
0.0
 10
51.8131568309
 20
133.7994610482
 30
0.0
 10
51.9026625498
 20
133.7930505998
 30
0.0
  0
SPLINE
  5
407
100
AcDbEntity
  8
0
100
AcDbSpline
 62
7
  6
BYLAYER
 70
0
 71
3
 72
9
 73
5
 74
0
 42
0.0000001
 43
0.0000001
 44
0.0000000001
 40
0.0
 40
0.0
 40
0.0
 40
0.0
 40
0.2798196104
 40
1.0
 40
1.0
 40
1.0
 40
1.0
 10
76.0202793053
 20
117.4372062163
 30
0.0
 10
76.0202793053
 20
117.4475307284
 30
0.0
 10
76.0222307404
 20
117.4842549958
 30
0.0
 10
76.0334190444
 20
117.5215340617
 30
0.0
 10
76.0486997273
 20
117.5432734119
 30
0.0
  0
SPLINE
  5
408
100
AcDbEntity
  8
0
100
AcDbSpline
 62
7
  6
BYLAYER
 70
0
 71
3
 72
11
 73
7
 74
0
 42
0.0000001
 43
0.0000001
 44
0.0000000001
 40
0.0
 40
0.0
 40
0.0
 40
0.0
 40
0.2177701422
 40
0.4509477659
 40
0.7101977596
 40
1.0
 40
1.0
 40
1.0
 40
1.0
 10
101.4991212939
 20
145.8399463445
 30
0.0
 10
101.4991212694
 20
145.4762153614
 30
0.0
 10
101.6333742506
 20
144.7179292139
 30
0.0
 10
102.2083544758
 20
143.6618439694
 30
0.0
 10
103.1166757743
 20
142.7066429302
 30
0.0
 10
103.8770676743
 20
142.183231933
 30
0.0
 10
104.2962633445
 20
141.9412146751
 30
0.0
  0
SPLINE
  5
409
100
AcDbEntity
  8
0
100
AcDbSpline
 62
7
  6
BYLAYER
 70
0
 71
3
 72
9
 73
5
 74
0
 42
0.0000001
 43
0.0000001
 44
0.0000000001
 40
0.0
 40
0.0
 40
0.0
 40
0.0
 40
0.2245242948
 40
1.0
 40
1.0
 40
1.0
 40
1.0
 10
76.3175447624
 20
117.9257508449
 30
0.0
 10
76.3223148252
 20
117.9325370642
 30
0.0
 10
76.3404301416
 20
117.9649942132
 30
0.0
 10
76.3459651844
 20
118.0031684199
 30
0.0
 10
76.3459651844
 20
118.0318180403
 30
0.0
  0
SPLINE
  5
40A
100
AcDbEntity
  8
0
100
AcDbSpline
 62
7
  6
BYLAYER
 70
0
 71
3
 72
9
 73
5
 74
0
 42
0.0000001
 43
0.0000001
 44
0.0000000001
 40
0.0
 40
0.0
 40
0.0
 40
0.0
 40
0.4772232017
 40
1.0
 40
1.0
 40
1.0
 40
1.0
 10
76.3459651844
 20
118.0318180403
 30
0.0
 10
76.3459651844
 20
118.0790717657
 30
0.0
 10
76.3226231175
 20
118.1779215979
 30
0.0
 10
76.272330402
 20
118.2648425084
 30
0.0
 10
76.2398987256
 20
118.3051877042
 30
0.0
  0
SPLINE
  5
40B
100
AcDbEntity
  8
0
100
AcDbSpline
 62
7
  6
BYLAYER
 70
0
 71
3
 72
11
 73
7
 74
0
 42
0.0000001
 43
0.0000001
 44
0.0000000001
 40
0.0
 40
0.0
 40
0.0
 40
0.0
 40
0.2177838317
 40
0.4509146513
 40
0.7102866703
 40
1.0
 40
1.0
 40
1.0
 40
1.0
 10
67.1074128216
 20
117.8459440429
 30
0.0
 10
67.237701595
 20
117.92117824
 30
0.0
 10
67.5370863522
 20
118.0297998131
 30
0.0
 10
68.0343243967
 20
118.0424082581
 30
0.0
 10
68.5642827527
 20
117.9144384653
 30
0.0
 10
68.909068547
 20
117.7504043359
 30
0.0
 10
69.082396867
 20
117.6503354476
 30
0.0
  0
SPLINE
  5
40C
100
AcDbEntity
  8
0
100
AcDbSpline
 62
7
  6
BYLAYER
 70
0
 71
3
 72
11
 73
7
 74
0
 42
0.0000001
 43
0.0000001
 44
0.0000000001
 40
0.0
 40
0.0
 40
0.0
 40
0.0
 40
0.2899691986
 40
0.5492154207
 40
0.7823253401
 40
1.0
 40
1.0
 40
1.0
 40
1.0
 10
73.2594422321
 20
120.6683630556
 30
0.0
 10
73.0526643922
 20
120.7880642797
 30
0.0
 10
72.6416549798
 20
120.9844837708
 30
0.0
 10
72.0095926275
 20
121.1376279139
 30
0.0
 10
71.4166791251
 20
121.1233031232
 30
0.0
 10
71.0596841739
 20
120.9937324917
 30
0.0
 10
70.9043443796
 20
120.9040745637
 30
0.0
  0
SPLINE
  5
40D
100
AcDbEntity
  8
0
100
AcDbSpline
 62
7
  6
BYLAYER
 70
0
 71
3
 72
9
 73
5
 74
0
 42
0.0000001
 43
0.0000001
 44
0.0000000001
 40
0.0
 40
0.0
 40
0.0
 40
0.0
 40
0.2456460165
 40
1.0
 40
1.0
 40
1.0
 40
1.0
 10
76.9084141391
 20
130.1407837345
 30
0.0
 10
76.8816627613
 20
130.1253411391
 30
0.0
 10
76.7763190153
 20
130.0563646156
 30
0.0
 10
76.6876371891
 20
129.9630270321
 30
0.0
 10
76.6330897005
 20
129.885424024
 30
0.0
  0
SPLINE
  5
40E
100
AcDbEntity
  8
0
100
AcDbSpline
 62
7
  6
BYLAYER
 70
0
 71
3
 72
10
 73
6
 74
0
 42
0.0000001
 43
0.0000001
 44
0.0000000001
 40
0.0
 40
0.0
 40
0.0
 40
0.0
 40
0.2312415372
 40
0.4710011051
 40
1.0
 40
1.0
 40
1.0
 40
1.0
 10
74.0272106836
 20
112.7189942714
 30
0.0
 10
74.1189935228
 20
112.7719550665
 30
0.0
 10
74.2933035399
 20
112.9034480718
 30
0.0
 10
74.587338949
 20
113.2590993377
 30
0.0
 10
74.7174401132
 20
113.5980423209
 30
0.0
 10
74.7717179257
 20
113.8343019338
 30
0.0
  0
SPLINE
  5
40F
100
AcDbEntity
  8
0
100
AcDbSpline
 62
7
  6
BYLAYER
 70
0
 71
3
 72
9
 73
5
 74
0
 42
0.0000001
 43
0.0000001
 44
0.0000000001
 40
0.0
 40
0.0
 40
0.0
 40
0.0
 40
0.2436381827
 40
1.0
 40
1.0
 40
1.0
 40
1.0
 10
74.7717179257
 20
113.8343019338
 30
0.0
 10
74.7782112616
 20
113.8625660247
 30
0.0
 10
74.8028752111
 20
113.9790268741
 30
0.0
 10
74.8198036114
 20
114.097087318
 30
0.0
 10
74.8287628195
 20
114.1866705808
 30
0.0
  0
SPLINE
  5
410
100
AcDbEntity
  8
0
100
AcDbSpline
 62
7
  6
BYLAYER
 70
0
 71
3
 72
11
 73
7
 74
0
 42
0.0000001
 43
0.0000001
 44
0.0000000001
 40
0.0
 40
0.0
 40
0.0
 40
0.0
 40
0.2218894839
 40
0.4675061727
 40
0.7299879217
 40
1.0
 40
1.0
 40
1.0
 40
1.0
 10
74.8287628195
 20
114.1866705808
 30
0.0
 10
74.8542949817
 20
114.4419670736
 30
0.0
 10
74.8430883181
 20
114.9869392404
 30
0.0
 10
74.6752535983
 20
115.8175792884
 30
0.0
 10
74.3650300396
 20
116.6653999329
 30
0.0
 10
74.0747898143
 20
117.2109625021
 30
0.0
 10
73.9097323549
 20
117.4759788081
 30
0.0
  0
SPLINE
  5
411
100
AcDbEntity
  8
0
100
AcDbSpline
 62
7
  6
BYLAYER
 70
0
 71
3
 72
11
 73
7
 74
0
 42
0.0000001
 43
0.0000001
 44
0.0000000001
 40
0.0
 40
0.0
 40
0.0
 40
0.0
 40
0.2177794746
 40
0.4509225183
 40
0.7102595756
 40
1.0
 40
1.0
 40
1.0
 40
1.0
 10
36.7259343324
 20
145.2378361073
 30
0.0
 10
36.5692346424
 20
145.1474022255
 30
0.0
 10
36.2760951665
 20
144.9009010072
 30
0.0
 10
35.9640029356
 20
144.3906548839
 30
0.0
 10
35.7785775629
 20
143.7617902585
 30
0.0
 10
35.7421385875
 20
143.3040822311
 30
0.0
 10
35.7421385875
 20
143.063376971
 30
0.0
  0
SPLINE
  5
412
100
AcDbEntity
  8
0
100
AcDbSpline
 62
7
  6
BYLAYER
 70
0
 71
3
 72
10
 73
6
 74
0
 42
0.0000001
 43
0.0000001
 44
0.0000000001
 40
0.0
 40
0.0
 40
0.0
 40
0.0
 40
0.2307499387
 40
0.47033274
 40
1.0
 40
1.0
 40
1.0
 40
1.0
 10
23.5191336884
 20
171.5012226511
 30
0.0
 10
23.5886148327
 20
171.5413773543
 30
0.0
 10
23.7411075234
 20
171.6057636902
 30
0.0
 10
24.086801128
 20
171.6622927831
 30
0.0
 10
24.358870804
 20
171.6168942569
 30
0.0
 10
24.5344912482
 20
171.5613103135
 30
0.0
  0
SPLINE
  5
413
100
AcDbEntity
  8
0
100
AcDbSpline
 62
7
  6
BYLAYER
 70
0
 71
3
 72
16
 73
12
 74
0
 42
0.0000001
 43
0.0000001
 44
0.0000000001
 40
0.0
 40
0.0
 40
0.0
 40
0.0
 40
0.0434877478
 40
0.0881352484
 40
0.184408184
 40
0.2943149438
 40
0.4188820018
 40
0.5561312983
 40
0.7021464871
 40
0.851923305
 40
1.0
 40
1.0
 40
1.0
 40
1.0
 10
32.3645232812
 20
144.9126368781
 30
0.0
 10
32.4567310885
 20
144.9658957363
 30
0.0
 10
32.6329988026
 20
145.0934339479
 30
0.0
 10
32.9407745078
 20
145.427352449
 30
0.0
 10
33.2194510758
 20
145.988760738
 30
0.0
 10
33.3605295621
 20
146.7939992007
 30
0.0
 10
33.3224499623
 20
147.7090387883
 30
0.0
 10
33.1088211909
 20
148.6887686859
 30
0.0
 10
32.7316510826
 20
149.6835536757
 30
0.0
 10
32.2108426804
 20
150.6409779108
 30
0.0
 10
31.778251773
 20
151.2315889669
 30
0.0
 10
31.5433210396
 20
151.5077616264
 30
0.0
  0
SPLINE
  5
414
100
AcDbEntity
  8
0
100
AcDbSpline
 62
7
  6
BYLAYER
 70
0
 71
3
 72
9
 73
5
 74
0
 42
0.0000001
 43
0.0000001
 44
0.0000000001
 40
0.0
 40
0.0
 40
0.0
 40
0.0
 40
0.2355398923
 40
1.0
 40
1.0
 40
1.0
 40
1.0
 10
23.2616937429
 20
169.9466588531
 30
0.0
 10
23.2616937429
 20
169.879742593
 30
0.0
 10
23.2740566771
 20
169.5956703429
 30
0.0
 10
23.3313925793
 20
169.3144931814
 30
0.0
 10
23.3931816872
 20
169.1062871931
 30
0.0
  0
SPLINE
  5
415
100
AcDbEntity
  8
0
100
AcDbSpline
 62
7
  6
BYLAYER
 70
0
 71
3
 72
15
 73
11
 74
0
 42
0.0000001
 43
0.0000001
 44
0.0000000001
 40
0.0
 40
0.0
 40
0.0
 40
0.0
 40
0.0923291905
 40
0.1996265839
 40
0.3223404124
 40
0.4572087917
 40
0.5987872197
 40
0.7406271068
 40
0.8762108647
 40
1.0
 40
1.0
 40
1.0
 40
1.0
 10
116.1638999294
 20
92.4284956993
 30
0.0
 10
115.8950942942
 20
92.3934004913
 30
0.0
 10
115.2957797464
 20
92.4473721996
 30
0.0
 10
114.4159213848
 20
92.8214070272
 30
0.0
 10
113.5426781734
 20
93.4546599673
 30
0.0
 10
112.730044954
 20
94.3066370533
 30
0.0
 10
112.0294296258
 20
95.3210655564
 30
0.0
 10
111.4875988959
 20
96.4309991252
 30
0.0
 10
111.1404612726
 20
97.5616889282
 30
0.0
 10
111.0493154837
 20
98.3241014449
 30
0.0
 10
111.0493154837
 20
98.6875576926
 30
0.0
  0
SPLINE
  5
416
100
AcDbEntity
  8
0
100
AcDbSpline
 62
7
  6
BYLAYER
 70
0
 71
3
 72
9
 73
5
 74
0
 42
0.0000001
 43
0.0000001
 44
0.0000000001
 40
0.0
 40
0.0
 40
0.0
 40
0.0
 40
0.2301110449
 40
1.0
 40
1.0
 40
1.0
 40
1.0
 10
23.393181673
 20
170.6352047164
 30
0.0
 10
23.3709595324
 20
170.5859838177
 30
0.0
 10
23.2888434086
 20
170.3655297842
 30
0.0
 10
23.2616937429
 20
170.1273442834
 30
0.0
 10
23.2616937429
 20
169.9466588531
 30
0.0
  0
SPLINE
  5
417
100
AcDbEntity
  8
0
100
AcDbSpline
 62
7
  6
BYLAYER
 70
0
 71
3
 72
11
 73
7
 74
0
 42
0.0000001
 43
0.0000001
 44
0.0000000001
 40
0.0
 40
0.0
 40
0.0
 40
0.0
 40
0.2862545682
 40
0.544250058
 40
0.778820025
 40
1.0
 40
1.0
 40
1.0
 40
1.0
 10
27.0761096018
 20
167.5963714265
 30
0.0
 10
27.0687103589
 20
167.4627236811
 30
0.0
 10
27.0347584089
 20
167.2088809429
 30
0.0
 10
26.9137839654
 20
166.8621607345
 30
0.0
 10
26.7269072589
 20
166.5807505624
 30
0.0
 10
26.5586367137
 20
166.4434655629
 30
0.0
 10
26.4690914507
 20
166.3917153579
 30
0.0
  0
SPLINE
  5
418
100
AcDbEntity
  8
0
100
AcDbSpline
 62
7
  6
BYLAYER
 70
0
 71
3
 72
15
 73
11
 74
0
 42
0.0000001
 43
0.0000001
 44
0.0000000001
 40
0.0
 40
0.0
 40
0.0
 40
0.0
 40
0.1141549974
 40
0.2373268943
 40
0.3669765742
 40
0.5000005394
 40
0.633024429
 40
0.7626738905
 40
0.8858454396
 40
1.0
 40
1.0
 40
1.0
 40
1.0
 10
62.576789561
 20
166.0274191917
 30
0.0
 10
63.0390799497
 20
165.7605217494
 30
0.0
 10
64.0499596381
 20
165.2898014353
 30
0.0
 10
65.6961159889
 20
164.7894784448
 30
0.0
 10
67.478334745
 20
164.4815140549
 30
0.0
 10
69.3296709498
 20
164.3776137743
 30
0.0
 10
71.181005642
 20
164.4815228873
 30
0.0
 10
72.9632199047
 20
164.7894957799
 30
0.0
 10
74.6093690143
 20
165.2898265716
 30
0.0
 10
75.6202423874
 20
165.7605519013
 30
0.0
 10
76.0825290816
 20
166.0274516555
 30
0.0
  0
SPLINE
  5
419
100
AcDbEntity
  8
0
100
AcDbSpline
 62
7
  6
BYLAYER
 70
0
 71
3
 72
11
 73
7
 74
0
 42
0.0000001
 43
0.0000001
 44
0.0000000001
 40
0.0
 40
0.0
 40
0.0
 40
0.0
 40
0.2895468475
 40
0.5491384346
 40
0.782278826
 40
1.0
 40
1.0
 40
1.0
 40
1.0
 10
71.6278835395
 20
145.9418596749
 30
0.0
 10
71.5621024074
 20
145.9038811473
 30
0.0
 10
71.4427299475
 20
145.8215696352
 30
0.0
 10
71.2999344581
 20
145.6716597531
 30
0.0
 10
71.2096118453
 20
145.5056955733
 30
0.0
 10
71.1886108506
 20
145.3866138047
 30
0.0
 10
71.1886098095
 20
145.3294985799
 30
0.0
  0
SPLINE
  5
41A
100
AcDbEntity
  8
0
100
AcDbSpline
 62
7
  6
BYLAYER
 70
0
 71
3
 72
11
 73
7
 74
0
 42
0.0000001
 43
0.0000001
 44
0.0000000001
 40
0.0
 40
0.0
 40
0.0
 40
0.0
 40
0.2485777825
 40
0.5227953902
 40
0.7840635103
 40
1.0
 40
1.0
 40
1.0
 40
1.0
 10
71.6278835395
 20
145.4519582246
 30
0.0
 10
71.8102808257
 20
145.5572647183
 30
0.0
 10
72.2408525024
 20
145.6971915047
 30
0.0
 10
72.9113373358
 20
145.7252680589
 30
0.0
 10
73.5395516003
 20
145.5890967809
 30
0.0
 10
73.8999679691
 20
145.3728544121
 30
0.0
 10
74.0218231154
 20
145.2363814731
 30
0.0
  0
SPLINE
  5
41B
100
AcDbEntity
  8
0
100
AcDbSpline
 62
7
  6
BYLAYER
 70
0
 71
3
 72
9
 73
5
 74
0
 42
0.0000001
 43
0.0000001
 44
0.0000000001
 40
0.0
 40
0.0
 40
0.0
 40
0.0
 40
0.2589748789
 40
1.0
 40
1.0
 40
1.0
 40
1.0
 10
74.0218231154
 20
145.2363814731
 30
0.0
 10
74.0313586054
 20
145.225702102
 30
0.0
 10
74.0671150081
 20
145.183538818
 30
0.0
 10
74.0984411062
 20
145.1375314263
 30
0.0
 10
74.1181837297
 20
145.1016363705
 30
0.0
  0
SPLINE
  5
41C
100
AcDbEntity
  8
0
100
AcDbSpline
 62
7
  6
BYLAYER
 70
0
 71
3
 72
11
 73
7
 74
0
 42
0.0000001
 43
0.0000001
 44
0.0000000001
 40
0.0
 40
0.0
 40
0.0
 40
0.0
 40
0.2146900978
 40
0.4621668605
 40
0.7297607411
 40
1.0
 40
1.0
 40
1.0
 40
1.0
 10
24.5344912482
 20
171.5613103135
 30
0.0
 10
24.7711425517
 20
171.4864100779
 30
0.0
 10
25.2504001692
 20
171.229444566
 30
0.0
 10
25.8797960437
 20
170.6593898699
 30
0.0
 10
26.4252301981
 20
169.9270382749
 30
0.0
 10
26.7028640226
 20
169.3659642368
 30
0.0
 10
26.8136643182
 20
169.0738236261
 30
0.0
  0
SPLINE
  5
41D
100
AcDbEntity
  8
0
100
AcDbSpline
 62
7
  6
BYLAYER
 70
0
 71
3
 72
9
 73
5
 74
0
 42
0.0000001
 43
0.0000001
 44
0.0000000001
 40
0.0
 40
0.0
 40
0.0
 40
0.0
 40
0.5223207153
 40
1.0
 40
1.0
 40
1.0
 40
1.0
 10
26.8136643182
 20
169.0738236261
 30
0.0
 10
26.8978483099
 20
168.8518606554
 30
0.0
 10
27.0277319387
 20
168.4141742125
 30
0.0
 10
27.0800862587
 20
167.9592606048
 30
0.0
 10
27.0800862587
 20
167.7421587787
 30
0.0
  0
SPLINE
  5
41E
100
AcDbEntity
  8
0
100
AcDbSpline
 62
7
  6
BYLAYER
 70
0
 71
3
 72
15
 73
11
 74
0
 42
0.0000001
 43
0.0000001
 44
0.0000000001
 40
0.0
 40
0.0
 40
0.0
 40
0.0
 40
0.1141549974
 40
0.2373268943
 40
0.3669765742
 40
0.5000005394
 40
0.633024429
 40
0.7626738905
 40
0.8858454396
 40
1.0
 40
1.0
 40
1.0
 40
1.0
 10
87.3256299412
 20
151.7389927835
 30
0.0
 10
87.7879203298
 20
151.4720953412
 30
0.0
 10
88.7988000182
 20
151.0013750271
 30
0.0
 10
90.4449563691
 20
150.5010520366
 30
0.0
 10
92.2271751251
 20
150.1930876466
 30
0.0
 10
94.0785113299
 20
150.0891873661
 30
0.0
 10
95.9298460221
 20
150.193096479
 30
0.0
 10
97.7120602848
 20
150.5010693717
 30
0.0
 10
99.3582093945
 20
151.0014001634
 30
0.0
 10
100.3690827675
 20
151.4721254931
 30
0.0
 10
100.8313694617
 20
151.7390252473
 30
0.0
  0
SPLINE
  5
41F
100
AcDbEntity
  8
0
100
AcDbSpline
 62
7
  6
BYLAYER
 70
0
 71
3
 72
11
 73
7
 74
0
 42
0.0000001
 43
0.0000001
 44
0.0000000001
 40
0.0
 40
0.0
 40
0.0
 40
0.0
 40
0.2177849011
 40
0.4509184398
 40
0.7103088704
 40
1.0
 40
1.0
 40
1.0
 40
1.0
 10
116.2868961351
 20
96.6380173914
 30
0.0
 10
116.4172010845
 20
96.7132247965
 30
0.0
 10
116.7165606477
 20
96.821899216
 30
0.0
 10
117.2138272196
 20
96.8344787845
 30
0.0
 10
117.7437751717
 20
96.70649683
 30
0.0
 10
118.0885633566
 20
96.5424733786
 30
0.0
 10
118.2618782509
 20
96.4424122414
 30
0.0
  0
SPLINE
  5
420
100
AcDbEntity
  8
0
100
AcDbSpline
 62
7
  6
BYLAYER
 70
0
 71
3
 72
9
 73
5
 74
0
 42
0.0000001
 43
0.0000001
 44
0.0000000001
 40
0.0
 40
0.0
 40
0.0
 40
0.0
 40
0.2583848994
 40
1.0
 40
1.0
 40
1.0
 40
1.0
 10
27.1154240812
 20
150.5343183342
 30
0.0
 10
27.0773500031
 20
150.5562999162
 30
0.0
 10
26.9285128059
 20
150.6387503829
 30
0.0
 10
26.7735737786
 20
150.7104016647
 30
0.0
 10
26.6558027599
 20
150.7557077598
 30
0.0
  0
SPLINE
  5
421
100
AcDbEntity
  8
0
100
AcDbSpline
 62
7
  6
BYLAYER
 70
0
 71
3
 72
9
 73
5
 74
0
 42
0.0000001
 43
0.0000001
 44
0.0000000001
 40
0.0
 40
0.0
 40
0.0
 40
0.0
 40
0.2570440044
 40
1.0
 40
1.0
 40
1.0
 40
1.0
 10
27.5750454025
 20
150.2249947789
 30
0.0
 10
27.5374189526
 20
150.2539663156
 30
0.0
 10
27.3893322522
 20
150.3644295319
 30
0.0
 10
27.2342938924
 20
150.4656903693
 30
0.0
 10
27.1154240812
 20
150.5343183342
 30
0.0
  0
SPLINE
  5
422
100
AcDbEntity
  8
0
100
AcDbSpline
 62
7
  6
BYLAYER
 70
0
 71
3
 72
15
 73
11
 74
0
 42
0.0000001
 43
0.0000001
 44
0.0000000001
 40
0.0
 40
0.0
 40
0.0
 40
0.0
 40
0.1141549974
 40
0.2373268943
 40
0.3669765742
 40
0.5000005394
 40
0.633024429
 40
0.7626738905
 40
0.8858454396
 40
1.0
 40
1.0
 40
1.0
 40
1.0
 10
112.0744703213
 20
137.4505663753
 30
0.0
 10
112.53676071
 20
137.183668933
 30
0.0
 10
113.5476403983
 20
136.7129486188
 30
0.0
 10
115.1937967492
 20
136.2126256283
 30
0.0
 10
116.9760155052
 20
135.9046612384
 30
0.0
 10
118.8273517101
 20
135.8007609578
 30
0.0
 10
120.6786864023
 20
135.9046700708
 30
0.0
 10
122.460900665
 20
136.2126429635
 30
0.0
 10
124.1070497746
 20
136.7129737551
 30
0.0
 10
125.1179231477
 20
137.1836990849
 30
0.0
 10
125.5802098419
 20
137.4505988391
 30
0.0
  0
SPLINE
  5
423
100
AcDbEntity
  8
0
100
AcDbSpline
 62
7
  6
BYLAYER
 70
0
 71
3
 72
9
 73
5
 74
0
 42
0.0000001
 43
0.0000001
 44
0.0000000001
 40
0.0
 40
0.0
 40
0.0
 40
0.0
 40
0.4958699592
 40
1.0
 40
1.0
 40
1.0
 40
1.0
 10
125.5609803928
 20
95.1195457354
 30
0.0
 10
125.4155018829
 20
95.670458576
 30
0.0
 10
124.9831859625
 20
96.7468023545
 30
0.0
 10
124.3379082312
 20
97.7094571475
 30
0.0
 10
123.9625621163
 20
98.1506950106
 30
0.0
  0
SPLINE
  5
424
100
AcDbEntity
  8
0
100
AcDbSpline
 62
7
  6
BYLAYER
 70
0
 71
3
 72
9
 73
5
 74
0
 42
0.0000001
 43
0.0000001
 44
0.0000000001
 40
0.0
 40
0.0
 40
0.0
 40
0.0
 40
0.2708370655
 40
1.0
 40
1.0
 40
1.0
 40
1.0
 10
27.5750454025
 20
172.2553297943
 30
0.0
 10
27.5013614544
 20
172.3170897639
 30
0.0
 10
27.2209364094
 20
172.534214253
 30
0.0
 10
26.9025811268
 20
172.7079373197
 30
0.0
 10
26.6558027599
 20
172.7860427752
 30
0.0
  0
SPLINE
  5
425
100
AcDbEntity
  8
0
100
AcDbSpline
 62
7
  6
BYLAYER
 70
0
 71
3
 72
15
 73
11
 74
0
 42
0.0000001
 43
0.0000001
 44
0.0000000001
 40
0.0
 40
0.0
 40
0.0
 40
0.0
 40
0.1141549974
 40
0.2373268943
 40
0.3669765742
 40
0.5000005394
 40
0.633024429
 40
0.7626738905
 40
0.8858454396
 40
1.0
 40
1.0
 40
1.0
 40
1.0
 10
136.8233107015
 20
123.1621399671
 30
0.0
 10
137.2856010901
 20
122.8952425248
 30
0.0
 10
138.2964807785
 20
122.4245222106
 30
0.0
 10
139.9426371294
 20
121.9241992201
 30
0.0
 10
141.7248558854
 20
121.6162348302
 30
0.0
 10
143.5761920902
 20
121.5123345496
 30
0.0
 10
145.4275267824
 20
121.6162436626
 30
0.0
 10
147.2097410451
 20
121.9242165553
 30
0.0
 10
148.8558901548
 20
122.4245473469
 30
0.0
 10
149.8667635278
 20
122.8952726767
 30
0.0
 10
150.329050222
 20
123.1621724309
 30
0.0
  0
SPLINE
  5
426
100
AcDbEntity
  8
0
100
AcDbSpline
 62
7
  6
BYLAYER
 70
0
 71
3
 72
9
 73
5
 74
0
 42
0.0000001
 43
0.0000001
 44
0.0000000001
 40
0.0
 40
0.0
 40
0.0
 40
0.0
 40
0.5217044336
 40
1.0
 40
1.0
 40
1.0
 40
1.0
 10
123.9625621163
 20
98.1506950106
 30
0.0
 10
123.9276104838
 20
98.1917823777
 30
0.0
 10
123.87340175
 20
98.2817056135
 30
0.0
 10
123.8480103408
 20
98.3848722694
 30
0.0
 10
123.8480103408
 20
98.434326395
 30
0.0
  0
SPLINE
  5
427
100
AcDbEntity
  8
0
100
AcDbSpline
 62
7
  6
BYLAYER
 70
0
 71
3
 72
15
 73
11
 74
0
 42
0.0000001
 43
0.0000001
 44
0.0000000001
 40
0.0
 40
0.0
 40
0.0
 40
0.0
 40
0.1141545727
 40
0.2373261359
 40
0.366975604
 40
0.4999994966
 40
0.6330234588
 40
0.7626731321
 40
0.8858450149
 40
1.0
 40
1.0
 40
1.0
 40
1.0
 10
100.8313694617
 20
153.3720300815
 30
0.0
 10
100.3690827177
 20
153.1051302986
 30
0.0
 10
99.3582092227
 20
152.6344049355
 30
0.0
 10
97.7120599583
 20
152.1340741199
 30
0.0
 10
95.929845575
 20
151.8261012677
 30
0.0
 10
94.0785108499
 20
151.7221922003
 30
0.0
 10
92.227174678
 20
151.8260925265
 30
0.0
 10
90.4449560425
 20
152.1340569568
 30
0.0
 10
88.7987998465
 20
152.6343799234
 30
0.0
 10
87.78792028
 20
153.1051002042
 30
0.0
 10
87.3256299412
 20
153.3719976177
 30
0.0
  0
SPLINE
  5
428
100
AcDbEntity
  8
0
100
AcDbSpline
 62
7
  6
BYLAYER
 70
0
 71
3
 72
11
 73
7
 74
0
 42
0.0000001
 43
0.0000001
 44
0.0000000001
 40
0.0
 40
0.0
 40
0.0
 40
0.0
 40
0.2898022491
 40
0.549052252
 40
0.7822298681
 40
1.0
 40
1.0
 40
1.0
 40
1.0
 10
79.5474229644
 20
157.8626459176
 30
0.0
 10
79.1282272819
 20
158.1046631826
 30
0.0
 10
78.3678353657
 20
158.6280742086
 30
0.0
 10
77.459514058
 20
159.5832752589
 30
0.0
 10
76.884533854
 20
160.6393605078
 30
0.0
 10
76.7502809224
 20
161.3976466213
 30
0.0
 10
76.7502809138
 20
161.7613775869
 30
0.0
  0
SPLINE
  5
429
100
AcDbEntity
  8
0
100
AcDbSpline
 62
7
  6
BYLAYER
 70
0
 71
3
 72
9
 73
5
 74
0
 42
0.0000001
 43
0.0000001
 44
0.0000000001
 40
0.0
 40
0.0
 40
0.0
 40
0.0
 40
0.5000011283
 40
1.0
 40
1.0
 40
1.0
 40
1.0
 10
123.8480103408
 20
99.0551992616
 30
0.0
 10
123.8480103408
 20
99.1279037509
 30
0.0
 10
123.7983240389
 20
99.2714621394
 30
0.0
 10
123.6988414298
 20
99.3862707493
 30
0.0
 10
123.6358774232
 20
99.4226222131
 30
0.0
  0
SPLINE
  5
42A
100
AcDbEntity
  8
0
100
AcDbSpline
 62
7
  6
BYLAYER
 70
0
 71
3
 72
11
 73
7
 74
0
 42
0.0000001
 43
0.0000001
 44
0.0000000001
 40
0.0
 40
0.0
 40
0.0
 40
0.0
 40
0.2177609771
 40
0.4509206111
 40
0.7102301642
 40
1.0
 40
1.0
 40
1.0
 40
1.0
 10
75.6042961729
 20
112.763470901
 30
0.0
 10
75.759317893
 20
112.8529726154
 30
0.0
 10
76.0493720356
 20
113.0968629542
 30
0.0
 10
76.3581779148
 20
113.60171662
 30
0.0
 10
76.5416884392
 20
114.223967052
 30
0.0
 10
76.5777252147
 20
114.6768636249
 30
0.0
 10
76.5777252147
 20
114.9150598615
 30
0.0
  0
SPLINE
  5
42B
100
AcDbEntity
  8
0
100
AcDbSpline
 62
7
  6
BYLAYER
 70
0
 71
3
 72
12
 73
8
 74
0
 42
0.0000001
 43
0.0000001
 44
0.0000000001
 40
0.0
 40
0.0
 40
0.0
 40
0.0
 40
0.1000472768
 40
0.2035840621
 40
0.4313288517
 40
0.6970667569
 40
1.0
 40
1.0
 40
1.0
 40
1.0
 10
76.6584214731
 20
130.573786331
 30
0.0
 10
76.7254721084
 20
130.6125399822
 30
0.0
 10
76.8719663754
 20
130.675154388
 30
0.0
 10
77.2032584802
 20
130.7334845812
 30
0.0
 10
77.6718103369
 20
130.6652246473
 30
0.0
 10
78.2330141173
 20
130.3962714508
 30
0.0
 10
78.5815479709
 20
130.1218199025
 30
0.0
 10
78.752718407
 20
129.9615448677
 30
0.0
  0
SPLINE
  5
42C
100
AcDbEntity
  8
0
100
AcDbSpline
 62
7
  6
BYLAYER
 70
0
 71
3
 72
11
 73
7
 74
0
 42
0.0000001
 43
0.0000001
 44
0.0000000001
 40
0.0
 40
0.0
 40
0.0
 40
0.0
 40
0.193946947
 40
0.4207138573
 40
0.6922206408
 40
1.0
 40
1.0
 40
1.0
 40
1.0
 10
72.6997018858
 20
120.3101625974
 30
0.0
 10
72.7164217295
 20
120.3198393454
 30
0.0
 10
72.7596936015
 20
120.329406921
 30
0.0
 10
72.8278274439
 20
120.310876759
 30
0.0
 10
72.8960352317
 20
120.2669692295
 30
0.0
 10
72.9365401585
 20
120.2251798278
 30
0.0
 10
72.9557472525
 20
120.2012860902
 30
0.0
  0
SPLINE
  5
42D
100
AcDbEntity
  8
0
100
AcDbSpline
 62
7
  6
BYLAYER
 70
0
 71
3
 72
9
 73
5
 74
0
 42
0.0000001
 43
0.0000001
 44
0.0000000001
 40
0.0
 40
0.0
 40
0.0
 40
0.0
 40
0.47658286
 40
1.0
 40
1.0
 40
1.0
 40
1.0
 10
124.783778491
 20
91.5555457317
 30
0.0
 10
124.970668564
 20
91.6634533138
 30
0.0
 10
125.3165050054
 20
91.9770640191
 30
0.0
 10
125.5197117585
 20
92.391976754
 30
0.0
 10
125.5950572744
 20
92.6166945717
 30
0.0
  0
SPLINE
  5
42E
100
AcDbEntity
  8
0
100
AcDbSpline
 62
7
  6
BYLAYER
 70
0
 71
3
 72
9
 73
5
 74
0
 42
0.0000001
 43
0.0000001
 44
0.0000000001
 40
0.0
 40
0.0
 40
0.0
 40
0.0
 40
0.5217044336
 40
1.0
 40
1.0
 40
1.0
 40
1.0
 10
31.5433210396
 20
151.5077616264
 30
0.0
 10
31.5083694071
 20
151.5488489935
 30
0.0
 10
31.4541606733
 20
151.6387722294
 30
0.0
 10
31.4287692641
 20
151.7419388852
 30
0.0
 10
31.4287692641
 20
151.7913930108
 30
0.0
  0
SPLINE
  5
42F
100
AcDbEntity
  8
0
100
AcDbSpline
 62
7
  6
BYLAYER
 70
0
 71
3
 72
9
 73
5
 74
0
 42
0.0000001
 43
0.0000001
 44
0.0000000001
 40
0.0
 40
0.0
 40
0.0
 40
0.0
 40
0.5000011283
 40
1.0
 40
1.0
 40
1.0
 40
1.0
 10
31.4287692641
 20
152.4122658774
 30
0.0
 10
31.4287692641
 20
152.4849703667
 30
0.0
 10
31.3790829622
 20
152.6285287552
 30
0.0
 10
31.2796003531
 20
152.7433373651
 30
0.0
 10
31.2166363465
 20
152.7796888289
 30
0.0
  0
SPLINE
  5
430
100
AcDbEntity
  8
0
100
AcDbSpline
 62
7
  6
BYLAYER
 70
0
 71
3
 72
11
 73
7
 74
0
 42
0.0000001
 43
0.0000001
 44
0.0000000001
 40
0.0
 40
0.0
 40
0.0
 40
0.0
 40
0.2895468475
 40
0.5491384346
 40
0.782278826
 40
1.0
 40
1.0
 40
1.0
 40
1.0
 10
96.3767239197
 20
131.6534332667
 30
0.0
 10
96.3109427876
 20
131.6154547391
 30
0.0
 10
96.1915703276
 20
131.5331432269
 30
0.0
 10
96.0487748382
 20
131.3832333449
 30
0.0
 10
95.9584522255
 20
131.2172691651
 30
0.0
 10
95.9374512307
 20
131.0981873965
 30
0.0
 10
95.9374501896
 20
131.0410721717
 30
0.0
  0
SPLINE
  5
431
100
AcDbEntity
  8
0
100
AcDbSpline
 62
7
  6
BYLAYER
 70
0
 71
3
 72
11
 73
7
 74
0
 42
0.0000001
 43
0.0000001
 44
0.0000000001
 40
0.0
 40
0.0
 40
0.0
 40
0.0
 40
0.2485777825
 40
0.5227953902
 40
0.7840635103
 40
1.0
 40
1.0
 40
1.0
 40
1.0
 10
96.3767239197
 20
131.1635318164
 30
0.0
 10
96.5591212058
 20
131.2688383101
 30
0.0
 10
96.9896928826
 20
131.4087650965
 30
0.0
 10
97.6601777159
 20
131.4368416507
 30
0.0
 10
98.2883919805
 20
131.3006703727
 30
0.0
 10
98.6488083493
 20
131.0844280039
 30
0.0
 10
98.7706634956
 20
130.9479550649
 30
0.0
  0
SPLINE
  5
432
100
AcDbEntity
  8
0
100
AcDbSpline
 62
7
  6
BYLAYER
 70
0
 71
3
 72
9
 73
5
 74
0
 42
0.0000001
 43
0.0000001
 44
0.0000000001
 40
0.0
 40
0.0
 40
0.0
 40
0.0
 40
0.2589748789
 40
1.0
 40
1.0
 40
1.0
 40
1.0
 10
98.7706634956
 20
130.9479550649
 30
0.0
 10
98.7801989856
 20
130.9372756937
 30
0.0
 10
98.8159553883
 20
130.8951124097
 30
0.0
 10
98.8472814864
 20
130.8491050181
 30
0.0
 10
98.8670241099
 20
130.8132099623
 30
0.0
  0
SPLINE
  5
433
100
AcDbEntity
  8
0
100
AcDbSpline
 62
7
  6
BYLAYER
 70
0
 71
3
 72
13
 73
9
 74
0
 42
0.0000001
 43
0.0000001
 44
0.0000000001
 40
0.0
 40
0.0
 40
0.0
 40
0.0
 40
0.0938918563
 40
0.1929608371
 40
0.3011199251
 40
0.4204740294
 40
0.6925510408
 40
1.0
 40
1.0
 40
1.0
 40
1.0
 10
30.7874534321
 20
144.8681334352
 30
0.0
 10
30.9012260947
 20
144.9337865322
 30
0.0
 10
31.1154316305
 20
145.1056517566
 30
0.0
 10
31.358944974
 20
145.4551391069
 30
0.0
 10
31.5238395083
 20
145.885269311
 30
0.0
 10
31.6403595665
 20
146.5780915961
 30
0.0
 10
31.5584502924
 20
147.5664589156
 30
0.0
 10
31.3066544208
 20
148.3435784149
 30
0.0
 10
31.1355715189
 20
148.7382175385
 30
0.0
  0
SPLINE
  5
434
100
AcDbEntity
  8
0
100
AcDbSpline
 62
7
  6
BYLAYER
 70
0
 71
3
 72
9
 73
5
 74
0
 42
0.0000001
 43
0.0000001
 44
0.0000000001
 40
0.0
 40
0.0
 40
0.0
 40
0.0
 40
0.5124141585
 40
1.0
 40
1.0
 40
1.0
 40
1.0
 10
31.1355715189
 20
148.7382175385
 30
0.0
 10
30.9330783735
 20
149.2053110733
 30
0.0
 10
30.4334199965
 20
150.0740447976
 30
0.0
 10
29.7534621578
 20
150.8143698816
 30
0.0
 10
29.3781610706
 20
151.1206720669
 30
0.0
  0
SPLINE
  5
435
100
AcDbEntity
  8
0
100
AcDbSpline
 62
7
  6
BYLAYER
 70
0
 71
3
 72
9
 73
5
 74
0
 42
0.0000001
 43
0.0000001
 44
0.0000000001
 40
0.0
 40
0.0
 40
0.0
 40
0.0
 40
0.4782946753
 40
1.0
 40
1.0
 40
1.0
 40
1.0
 10
30.2266927408
 20
151.0973779492
 30
0.0
 10
30.2266927408
 20
151.0479239156
 30
0.0
 10
30.252084107
 20
150.9447572604
 30
0.0
 10
30.3062928241
 20
150.8548340022
 30
0.0
 10
30.3412445163
 20
150.8137465648
 30
0.0
  0
SPLINE
  5
436
100
AcDbEntity
  8
0
100
AcDbSpline
 62
7
  6
BYLAYER
 70
0
 71
3
 72
9
 73
5
 74
0
 42
0.0000001
 43
0.0000001
 44
0.0000000001
 40
0.0
 40
0.0
 40
0.0
 40
0.0
 40
0.4999988717
 40
1.0
 40
1.0
 40
1.0
 40
1.0
 10
30.0145598233
 20
152.0856737673
 30
0.0
 10
30.0775238299
 20
152.0493223036
 30
0.0
 10
30.1770064389
 20
151.9345136936
 30
0.0
 10
30.2266927408
 20
151.7909553051
 30
0.0
 10
30.2266927408
 20
151.7182508159
 30
0.0
  0
SPLINE
  5
437
100
AcDbEntity
  8
0
100
AcDbSpline
 62
7
  6
BYLAYER
 70
0
 71
3
 72
15
 73
11
 74
0
 42
0.0000001
 43
0.0000001
 44
0.0000000001
 40
0.0
 40
0.0
 40
0.0
 40
0.0
 40
0.0919294089
 40
0.1988144088
 40
0.3212891789
 40
0.4561432605
 40
0.5979015098
 40
0.7400399647
 40
0.8759476031
 40
1.0
 40
1.0
 40
1.0
 40
1.0
 10
66.7014552501
 20
121.0102959181
 30
0.0
 10
66.4334768283
 20
120.9700097644
 30
0.0
 10
65.8328782098
 20
121.0145589134
 30
0.0
 10
64.9484899497
 20
121.3805211911
 30
0.0
 10
64.069244808
 20
122.0097187779
 30
0.0
 10
63.2497879962
 20
122.861505809
 30
0.0
 10
62.5424368213
 20
123.8789945926
 30
0.0
 10
61.9949107686
 20
124.9943246826
 30
0.0
 10
61.6438946515
 20
126.1315411622
 30
0.0
 10
61.5516347234
 20
126.898728621
 30
0.0
 10
61.5516347234
 20
127.264410509
 30
0.0
  0
SPLINE
  5
438
100
AcDbEntity
  8
0
100
AcDbSpline
 62
7
  6
BYLAYER
 70
0
 71
3
 72
13
 73
9
 74
0
 42
0.0000001
 43
0.0000001
 44
0.0000000001
 40
0.0
 40
0.0
 40
0.0
 40
0.0
 40
0.0933453085
 40
0.1920656671
 40
0.3001583298
 40
0.4197035319
 40
0.6925020492
 40
1.0
 40
1.0
 40
1.0
 40
1.0
 10
123.2066768573
 20
91.5110971022
 30
0.0
 10
123.3230677773
 20
91.5783262734
 30
0.0
 10
123.5421664028
 20
91.755161089
 30
0.0
 10
123.7885322234
 20
92.1163692729
 30
0.0
 10
123.9523316147
 20
92.5610219665
 30
0.0
 10
124.0620843956
 20
93.2770374474
 30
0.0
 10
123.9614027074
 20
94.2943829255
 30
0.0
 10
123.6883584109
 20
95.090905246
 30
0.0
 10
123.5047373247
 20
95.4938164807
 30
0.0
  0
SPLINE
  5
439
100
AcDbEntity
  8
0
100
AcDbSpline
 62
7
  6
BYLAYER
 70
0
 71
3
 72
9
 73
5
 74
0
 42
0.0000001
 43
0.0000001
 44
0.0000000001
 40
0.0
 40
0.0
 40
0.0
 40
0.0
 40
0.5128983058
 40
1.0
 40
1.0
 40
1.0
 40
1.0
 10
123.5047373247
 20
95.4938164807
 30
0.0
 10
123.3021000019
 20
95.9384541613
 30
0.0
 10
122.8124024897
 20
96.7645632389
 30
0.0
 10
122.1569217257
 20
97.4701833527
 30
0.0
 10
121.7974021473
 20
97.7636054511
 30
0.0
  0
SPLINE
  5
43A
100
AcDbEntity
  8
0
100
AcDbSpline
 62
7
  6
BYLAYER
 70
0
 71
3
 72
17
 73
13
 74
0
 42
0.0000001
 43
0.0000001
 44
0.0000000001
 40
0.0
 40
0.0
 40
0.0
 40
0.0
 40
0.1286956828
 40
0.2702806656
 40
0.4174357004
 40
0.5617781071
 40
0.6954483925
 40
0.8127114384
 40
0.8646776047
 40
0.91251006
 40
0.957139838
 40
1.0
 40
1.0
 40
1.0
 40
1.0
 10
109.9886597279
 20
98.0751914618
 30
0.0
 10
109.9886597279
 20
97.6691623853
 30
0.0
 10
110.1022376083
 20
96.8154625105
 30
0.0
 10
110.5262267528
 20
95.562014463
 30
0.0
 10
111.1794641745
 20
94.3545402379
 30
0.0
 10
112.0095264509
 20
93.2920557607
 30
0.0
 10
112.9485761646
 20
92.4603648563
 30
0.0
 10
113.7985684781
 20
91.9957000286
 30
0.0
 10
114.4634341218
 20
91.8187129451
 30
0.0
 10
114.9210445926
 20
91.7851613416
 30
0.0
 10
115.3471667621
 20
91.8475129877
 30
0.0
 10
115.6052889058
 20
91.9548548063
 30
0.0
 10
115.7224063719
 20
92.0224451575
 30
0.0
  0
SPLINE
  5
43B
100
AcDbEntity
  8
0
100
AcDbSpline
 62
7
  6
BYLAYER
 70
0
 71
3
 72
11
 73
7
 74
0
 42
0.0000001
 43
0.0000001
 44
0.0000000001
 40
0.0
 40
0.0
 40
0.0
 40
0.0
 40
0.2292396433
 40
0.4677400291
 40
0.7232296309
 40
1.0
 40
1.0
 40
1.0
 40
1.0
 10
23.867674681
 20
149.9950503528
 30
0.0
 10
23.9637642276
 20
150.0505531256
 30
0.0
 10
24.1752699034
 20
150.1389335779
 30
0.0
 10
24.5243979991
 20
150.1918489236
 30
0.0
 10
24.8991180809
 20
150.1666144007
 30
0.0
 10
25.150048121
 20
150.1021909386
 30
0.0
 10
25.2769493941
 20
150.0592318279
 30
0.0
  0
SPLINE
  5
43C
100
AcDbEntity
  8
0
100
AcDbSpline
 62
7
  6
BYLAYER
 70
0
 71
3
 72
16
 73
12
 74
0
 42
0.0000001
 43
0.0000001
 44
0.0000000001
 40
0.0
 40
0.0
 40
0.0
 40
0.0
 40
0.148076695
 40
0.2978535187
 40
0.4438686962
 40
0.5811179816
 40
0.7056850214
 40
0.815591776
 40
0.911864658
 40
0.9565122352
 40
1.0
 40
1.0
 40
1.0
 40
1.0
 10
30.3412445163
 20
150.8137465648
 30
0.0
 10
30.5761752545
 20
150.5375738997
 30
0.0
 10
31.0087661652
 20
149.9469628111
 30
0.0
 10
31.5295745853
 20
148.9895385714
 30
0.0
 10
31.9067446451
 20
147.9947535933
 30
0.0
 10
32.1203734422
 20
147.0150237561
 30
0.0
 10
32.1584529386
 20
146.0999843003
 30
0.0
 10
32.0173748526
 20
145.2947458039
 30
0.0
 10
31.7386975912
 20
144.7333379377
 30
0.0
 10
31.4309227622
 20
144.3994186394
 30
0.0
 10
31.2546552067
 20
144.271879651
 30
0.0
 10
31.1624472259
 20
144.2186210057
 30
0.0
  0
SPLINE
  5
43D
100
AcDbEntity
  8
0
100
AcDbSpline
 62
7
  6
BYLAYER
 70
0
 71
3
 72
11
 73
7
 74
0
 42
0.0000001
 43
0.0000001
 44
0.0000000001
 40
0.0
 40
0.0
 40
0.0
 40
0.0
 40
0.2177794746
 40
0.4509225183
 40
0.7102595756
 40
1.0
 40
1.0
 40
1.0
 40
1.0
 10
86.2236150927
 20
116.6609832909
 30
0.0
 10
86.0669154027
 20
116.5705494091
 30
0.0
 10
85.7737759268
 20
116.3240481908
 30
0.0
 10
85.4616836959
 20
115.8138020675
 30
0.0
 10
85.2762583232
 20
115.1849374421
 30
0.0
 10
85.2398193478
 20
114.7272294146
 30
0.0
 10
85.2398193478
 20
114.4865241545
 30
0.0
  0
SPLINE
  5
43E
100
AcDbEntity
  8
0
100
AcDbSpline
 62
7
  6
BYLAYER
 70
0
 71
3
 72
17
 73
13
 74
0
 42
0.0000001
 43
0.0000001
 44
0.0000000001
 40
0.0
 40
0.0
 40
0.0
 40
0.0
 40
0.0428579803
 40
0.0874855365
 40
0.1353182087
 40
0.1872817653
 40
0.3045429422
 40
0.4382107634
 40
0.5825533132
 40
0.729712045
 40
0.871310822
 40
1.0
 40
1.0
 40
1.0
 40
1.0
 10
116.7369122737
 20
95.8585618173
 30
0.0
 10
116.6617041906
 20
95.8151809425
 30
0.0
 10
116.5191865001
 20
95.706055706
 30
0.0
 10
116.347640113
 20
95.4891841103
 30
0.0
 10
116.2194789155
 20
95.2239001119
 30
0.0
 10
116.1043279359
 20
94.7974085488
 30
0.0
 10
116.0898894628
 20
94.1755523703
 30
0.0
 10
116.2508525859
 20
93.3863620296
 30
0.0
 10
116.5751724891
 20
92.5836526368
 30
0.0
 10
117.0368922277
 20
91.832685925
 30
0.0
 10
117.597834137
 20
91.1944979657
 30
0.0
 10
118.0361031859
 20
90.8572436672
 30
0.0
 10
118.2618782509
 20
90.7268953215
 30
0.0
  0
SPLINE
  5
43F
100
AcDbEntity
  8
0
100
AcDbSpline
 62
7
  6
BYLAYER
 70
0
 71
3
 72
17
 73
13
 74
0
 42
0.0000001
 43
0.0000001
 44
0.0000000001
 40
0.0
 40
0.0
 40
0.0
 40
0.0
 40
0.1286956828
 40
0.2702806656
 40
0.4174357004
 40
0.5617781071
 40
0.6954483925
 40
0.8127114384
 40
0.8646776047
 40
0.91251006
 40
0.957139838
 40
1.0
 40
1.0
 40
1.0
 40
1.0
 10
85.2398193478
 20
112.36361787
 30
0.0
 10
85.2398193478
 20
111.9575887935
 30
0.0
 10
85.3533972282
 20
111.1038889187
 30
0.0
 10
85.7773863727
 20
109.8504408712
 30
0.0
 10
86.4306237944
 20
108.6429666461
 30
0.0
 10
87.2606860708
 20
107.5804821689
 30
0.0
 10
88.1997357844
 20
106.7487912645
 30
0.0
 10
89.0497280979
 20
106.2841264368
 30
0.0
 10
89.7145937417
 20
106.1071393533
 30
0.0
 10
90.1722042124
 20
106.0735877498
 30
0.0
 10
90.5983263819
 20
106.1359393959
 30
0.0
 10
90.8564485257
 20
106.2432812145
 30
0.0
 10
90.9735659917
 20
106.3108715657
 30
0.0
  0
SPLINE
  5
440
100
AcDbEntity
  8
0
100
AcDbSpline
 62
7
  6
BYLAYER
 70
0
 71
3
 72
9
 73
5
 74
0
 42
0.0000001
 43
0.0000001
 44
0.0000000001
 40
0.0
 40
0.0
 40
0.0
 40
0.0
 40
0.2776627533
 40
1.0
 40
1.0
 40
1.0
 40
1.0
 10
25.8426371742
 20
144.0839619373
 30
0.0
 10
25.928640584
 20
144.0343089688
 30
0.0
 10
26.2462627461
 20
143.8719805182
 30
0.0
 10
26.6091813625
 20
143.7795308324
 30
0.0
 10
26.8672558423
 20
143.7914139961
 30
0.0
  0
SPLINE
  5
441
100
AcDbEntity
  8
0
100
AcDbSpline
 62
7
  6
BYLAYER
 70
0
 71
3
 72
9
 73
5
 74
0
 42
0.0000001
 43
0.0000001
 44
0.0000000001
 40
0.0
 40
0.0
 40
0.0
 40
0.0
 40
0.5097742731
 40
1.0
 40
1.0
 40
1.0
 40
1.0
 10
26.8672558423
 20
143.7914139961
 30
0.0
 10
26.9561620986
 20
143.7955077274
 30
0.0
 10
27.1304737581
 20
143.8220381553
 30
0.0
 10
27.2934648945
 20
143.8901963991
 30
0.0
 10
27.3676031514
 20
143.932960186
 30
0.0
  0
SPLINE
  5
442
100
AcDbEntity
  8
0
100
AcDbSpline
 62
7
  6
BYLAYER
 70
0
 71
3
 72
9
 73
5
 74
0
 42
0.0000001
 43
0.0000001
 44
0.0000000001
 40
0.0
 40
0.0
 40
0.0
 40
0.0
 40
0.2605170042
 40
1.0
 40
1.0
 40
1.0
 40
1.0
 10
25.2769493941
 20
144.4977467679
 30
0.0
 10
25.3224296588
 20
144.4572147825
 30
0.0
 10
25.5004809308
 20
144.3056381821
 30
0.0
 10
25.692879868
 20
144.1704224024
 30
0.0
 10
25.8426371742
 20
144.0839619373
 30
0.0
  0
SPLINE
  5
443
100
AcDbEntity
  8
0
100
AcDbSpline
 62
7
  6
BYLAYER
 70
0
 71
3
 72
13
 73
9
 74
0
 42
0.0000001
 43
0.0000001
 44
0.0000000001
 40
0.0
 40
0.0
 40
0.0
 40
0.0
 40
0.0887167078
 40
0.1852011459
 40
0.2943451297
 40
0.4175321637
 40
0.6982358058
 40
1.0
 40
1.0
 40
1.0
 40
1.0
 10
123.6861672053
 20
116.7526456898
 30
0.0
 10
123.6861683785
 20
116.8170093274
 30
0.0
 10
123.6589624995
 20
116.952438364
 30
0.0
 10
123.5443536956
 20
117.1366682776
 30
0.0
 10
123.3660313593
 20
117.2986564834
 30
0.0
 10
123.0417841068
 20
117.4857103381
 30
0.0
 10
122.5397300531
 20
117.6211935522
 30
0.0
 10
122.1125446249
 20
117.627035496
 30
0.0
 10
121.8950314243
 20
117.6021794834
 30
0.0
  0
SPLINE
  5
444
100
AcDbEntity
  8
0
100
AcDbSpline
 62
7
  6
BYLAYER
 70
0
 71
3
 72
9
 73
5
 74
0
 42
0.0000001
 43
0.0000001
 44
0.0000000001
 40
0.0
 40
0.0
 40
0.0
 40
0.0
 40
0.2441358572
 40
1.0
 40
1.0
 40
1.0
 40
1.0
 10
46.4983059333
 20
159.3676899268
 30
0.0
 10
46.5026733691
 20
159.3764453633
 30
0.0
 10
46.5214090608
 20
159.411883012
 30
0.0
 10
46.5434246468
 20
159.4455608295
 30
0.0
 10
46.5615066865
 20
159.4698651649
 30
0.0
  0
SPLINE
  5
445
100
AcDbEntity
  8
0
100
AcDbSpline
 62
7
  6
BYLAYER
 70
0
 71
3
 72
9
 73
5
 74
0
 42
0.0000001
 43
0.0000001
 44
0.0000000001
 40
0.0
 40
0.0
 40
0.0
 40
0.0
 40
0.2309314399
 40
1.0
 40
1.0
 40
1.0
 40
1.0
 10
46.5615066865
 20
159.4698651649
 30
0.0
 10
46.5807512631
 20
159.4957320831
 30
0.0
 10
46.6713937444
 20
159.6023128663
 30
0.0
 10
46.7860576395
 20
159.6866997384
 30
0.0
 10
46.8790431594
 20
159.7403846328
 30
0.0
  0
SPLINE
  5
446
100
AcDbEntity
  8
0
100
AcDbSpline
 62
7
  6
BYLAYER
 70
0
 71
3
 72
17
 73
13
 74
0
 42
0.0000001
 43
0.0000001
 44
0.0000000001
 40
0.0
 40
0.0
 40
0.0
 40
0.0
 40
0.1286921972
 40
0.2702783352
 40
0.4174363104
 40
0.5617776607
 40
0.6954471983
 40
0.8127108538
 40
0.8646737188
 40
0.9125097962
 40
0.957137988
 40
1.0
 40
1.0
 40
1.0
 40
1.0
 10
25.8426371742
 20
149.7994788572
 30
0.0
 10
26.1350414159
 20
149.6306630087
 30
0.0
 10
26.7026268903
 20
149.1939172539
 30
0.0
 10
27.4290426443
 20
148.3674043011
 30
0.0
 10
28.027017647
 20
147.3948936504
 30
0.0
 10
28.4470378895
 20
146.3553172551
 30
0.0
 10
28.6555209749
 20
145.3332497898
 30
0.0
 10
28.6368524237
 20
144.5278836862
 30
0.0
 10
28.4877425577
 20
143.9755248937
 30
0.0
 10
28.321778109
 20
143.6319374098
 30
0.0
 10
28.0995592256
 20
143.3510881428
 30
0.0
 10
27.9150142452
 20
143.209717533
 30
0.0
 10
27.81761929
 20
143.1535046119
 30
0.0
  0
SPLINE
  5
447
100
AcDbEntity
  8
0
100
AcDbSpline
 62
7
  6
BYLAYER
 70
0
 71
3
 72
17
 73
13
 74
0
 42
0.0000001
 43
0.0000001
 44
0.0000000001
 40
0.0
 40
0.0
 40
0.0
 40
0.0
 40
0.1286956828
 40
0.2702806656
 40
0.4174357004
 40
0.5617781071
 40
0.6954483925
 40
0.8127114384
 40
0.8646776047
 40
0.91251006
 40
0.957139838
 40
1.0
 40
1.0
 40
1.0
 40
1.0
 10
60.4909789676
 20
126.6520442782
 30
0.0
 10
60.4909789676
 20
126.2460152017
 30
0.0
 10
60.604556848
 20
125.3923153269
 30
0.0
 10
61.0285459925
 20
124.1388672794
 30
0.0
 10
61.6817834142
 20
122.9313930543
 30
0.0
 10
62.5118456906
 20
121.8689085771
 30
0.0
 10
63.4508954043
 20
121.0372176727
 30
0.0
 10
64.3008877178
 20
120.572552845
 30
0.0
 10
64.9657533615
 20
120.3955657615
 30
0.0
 10
65.4233638323
 20
120.362014158
 30
0.0
 10
65.8494860018
 20
120.4243658042
 30
0.0
 10
66.1076081455
 20
120.5317076227
 30
0.0
 10
66.2247256116
 20
120.5992979739
 30
0.0
  0
SPLINE
  5
448
100
AcDbEntity
  8
0
100
AcDbSpline
 62
7
  6
BYLAYER
 70
0
 71
3
 72
9
 73
5
 74
0
 42
0.0000001
 43
0.0000001
 44
0.0000000001
 40
0.0
 40
0.0
 40
0.0
 40
0.0
 40
0.2397328584
 40
1.0
 40
1.0
 40
1.0
 40
1.0
 10
25.2769493941
 20
150.0592318279
 30
0.0
 10
25.324109345
 20
150.0432670585
 30
0.0
 10
25.5189562204
 20
149.9711778979
 30
0.0
 10
25.7058944272
 20
149.878425533
 30
0.0
 10
25.8426371742
 20
149.7994788572
 30
0.0
  0
SPLINE
  5
449
100
AcDbEntity
  8
0
100
AcDbSpline
 62
7
  6
BYLAYER
 70
0
 71
3
 72
15
 73
11
 74
0
 42
0.0000001
 43
0.0000001
 44
0.0000000001
 40
0.0
 40
0.0
 40
0.0
 40
0.0
 40
0.0868371553
 40
0.1839034737
 40
0.2965173522
 40
0.4247760624
 40
0.5652075165
 40
0.7122470735
 40
0.8593609317
 40
1.0
 40
1.0
 40
1.0
 40
1.0
 10
24.3176473496
 20
149.2156699183
 30
0.0
 10
24.18295212
 20
149.1378772482
 30
0.0
 10
23.9354785597
 20
148.9017127664
 30
0.0
 10
23.7255883356
 20
148.4024988564
 30
0.0
 10
23.6621092503
 20
147.7941395829
 30
0.0
 10
23.7419825372
 20
147.1114639341
 30
0.0
 10
23.9581201742
 20
146.3953980769
 30
0.0
 10
24.2966377364
 20
145.6910959319
 30
0.0
 10
24.735341972
 20
145.0443429509
 30
0.0
 10
25.0888796532
 20
144.6653544114
 30
0.0
 10
25.2769493941
 20
144.4977467679
 30
0.0
  0
SPLINE
  5
44A
100
AcDbEntity
  8
0
100
AcDbSpline
 62
7
  6
BYLAYER
 70
0
 71
3
 72
11
 73
7
 74
0
 42
0.0000001
 43
0.0000001
 44
0.0000000001
 40
0.0
 40
0.0
 40
0.0
 40
0.0
 40
0.2177701422
 40
0.4509477659
 40
0.7101977596
 40
1.0
 40
1.0
 40
1.0
 40
1.0
 10
126.2479616741
 20
131.5515199362
 30
0.0
 10
126.2479616496
 20
131.1877889531
 30
0.0
 10
126.3822146308
 20
130.4295028057
 30
0.0
 10
126.957194856
 20
129.3734175612
 30
0.0
 10
127.8655161544
 20
128.418216522
 30
0.0
 10
128.6259080544
 20
127.8948055248
 30
0.0
 10
129.0451037247
 20
127.6527882669
 30
0.0
  0
SPLINE
  5
44B
100
AcDbEntity
  8
0
100
AcDbSpline
 62
7
  6
BYLAYER
 70
0
 71
3
 72
15
 73
11
 74
0
 42
0.0000001
 43
0.0000001
 44
0.0000000001
 40
0.0
 40
0.0
 40
0.0
 40
0.0
 40
0.1141545727
 40
0.2373261359
 40
0.366975604
 40
0.4999994966
 40
0.6330234588
 40
0.7626731321
 40
0.8858450149
 40
1.0
 40
1.0
 40
1.0
 40
1.0
 10
150.329050222
 20
124.7951772651
 30
0.0
 10
149.866763478
 20
124.5282774822
 30
0.0
 10
148.855889983
 20
124.0575521191
 30
0.0
 10
147.2097407186
 20
123.5572213035
 30
0.0
 10
145.4275263353
 20
123.2492484513
 30
0.0
 10
143.5761916102
 20
123.1453393839
 30
0.0
 10
141.7248554383
 20
123.2492397101
 30
0.0
 10
139.9426368028
 20
123.5572041404
 30
0.0
 10
138.2964806067
 20
124.057527107
 30
0.0
 10
137.2856010403
 20
124.5282473878
 30
0.0
 10
136.8233107015
 20
124.7951448013
 30
0.0
  0
SPLINE
  5
44C
100
AcDbEntity
  8
0
100
AcDbSpline
 62
7
  6
BYLAYER
 70
0
 71
3
 72
11
 73
7
 74
0
 42
0.0000001
 43
0.0000001
 44
0.0000000001
 40
0.0
 40
0.0
 40
0.0
 40
0.0
 40
0.2898022491
 40
0.549052252
 40
0.7822298681
 40
1.0
 40
1.0
 40
1.0
 40
1.0
 10
129.0451037247
 20
129.2857931012
 30
0.0
 10
128.6259080422
 20
129.5278103661
 30
0.0
 10
127.865516126
 20
130.0512213922
 30
0.0
 10
126.9571948183
 20
131.0064224425
 30
0.0
 10
126.3822146143
 20
132.0625076914
 30
0.0
 10
126.2479616827
 20
132.8207938049
 30
0.0
 10
126.2479616741
 20
133.1845247705
 30
0.0
  0
SPLINE
  5
44D
100
AcDbEntity
  8
0
100
AcDbSpline
 62
7
  6
BYLAYER
 70
0
 71
3
 72
15
 73
11
 74
0
 42
0.0000001
 43
0.0000001
 44
0.0000000001
 40
0.0
 40
0.0
 40
0.0
 40
0.0
 40
0.0869258731
 40
0.1863900355
 40
0.3037775758
 40
0.4375856292
 40
0.582082136
 40
0.7293904368
 40
0.8711742898
 40
1.0
 40
1.0
 40
1.0
 40
1.0
 10
49.4396460648
 20
159.6179249145
 30
0.0
 10
49.4396476417
 20
159.7044339853
 30
0.0
 10
49.3874499773
 20
159.8916362952
 30
0.0
 10
49.1833952744
 20
160.1236749865
 30
0.0
 10
48.8822169587
 20
160.3072080104
 30
0.0
 10
48.5062021532
 20
160.4328586173
 30
0.0
 10
48.0846895007
 20
160.4920522443
 30
0.0
 10
47.6512651646
 20
160.4801248082
 30
0.0
 10
47.2415182323
 20
160.3981068646
 30
0.0
 10
46.9900747116
 20
160.294389797
 30
0.0
 10
46.8790431594
 20
160.2302860831
 30
0.0
  0
SPLINE
  5
44E
100
AcDbEntity
  8
0
100
AcDbSpline
 62
7
  6
BYLAYER
 70
0
 71
3
 72
9
 73
5
 74
0
 42
0.0000001
 43
0.0000001
 44
0.0000000001
 40
0.0
 40
0.0
 40
0.0
 40
0.0
 40
0.2550015643
 40
1.0
 40
1.0
 40
1.0
 40
1.0
 10
72.1307309808
 20
116.6245527792
 30
0.0
 10
72.0715387207
 20
116.7150126041
 30
0.0
 10
71.8309725056
 20
117.064112386
 30
0.0
 10
71.556889163
 20
117.3904847926
 30
0.0
 10
71.3346435
 20
117.6148902739
 30
0.0
  0
SPLINE
  5
44F
100
AcDbEntity
  8
0
100
AcDbSpline
 62
7
  6
BYLAYER
 70
0
 71
3
 72
11
 73
7
 74
0
 42
0.0000001
 43
0.0000001
 44
0.0000000001
 40
0.0
 40
0.0
 40
0.0
 40
0.0
 40
0.2200081802
 40
0.4540950905
 40
0.7126501708
 40
1.0
 40
1.0
 40
1.0
 40
1.0
 10
98.4730343866
 20
101.4866049175
 30
0.0
 10
98.3166464566
 20
101.3962687089
 30
0.0
 10
98.0231963719
 20
101.1543746967
 30
0.0
 10
97.7020030441
 20
100.6565363083
 30
0.0
 10
97.5000431557
 20
100.0431727139
 30
0.0
 10
97.4486312887
 20
99.5951007032
 30
0.0
 10
97.4402916777
 20
99.3593635928
 30
0.0
  0
SPLINE
  5
450
100
AcDbEntity
  8
0
100
AcDbSpline
 62
7
  6
BYLAYER
 70
0
 71
3
 72
17
 73
13
 74
0
 42
0.0000001
 43
0.0000001
 44
0.0000000001
 40
0.0
 40
0.0
 40
0.0
 40
0.0
 40
0.1286956828
 40
0.2702806656
 40
0.4174357004
 40
0.5617781071
 40
0.6954483925
 40
0.8127114384
 40
0.8646776047
 40
0.91251006
 40
0.957139838
 40
1.0
 40
1.0
 40
1.0
 40
1.0
 10
35.7421385875
 20
140.9404706864
 30
0.0
 10
35.7421385875
 20
140.5344416099
 30
0.0
 10
35.8557164679
 20
139.6807417351
 30
0.0
 10
36.2797056124
 20
138.4272936876
 30
0.0
 10
36.9329430341
 20
137.2198194625
 30
0.0
 10
37.7630053105
 20
136.1573349853
 30
0.0
 10
38.7020550241
 20
135.3256440809
 30
0.0
 10
39.5520473376
 20
134.8609792532
 30
0.0
 10
40.2169129814
 20
134.6839921697
 30
0.0
 10
40.6745234521
 20
134.6504405663
 30
0.0
 10
41.1006456217
 20
134.7127922124
 30
0.0
 10
41.3587677654
 20
134.8201340309
 30
0.0
 10
41.4758852315
 20
134.8877243821
 30
0.0
  0
SPLINE
  5
451
100
AcDbEntity
  8
0
100
AcDbSpline
 62
7
  6
BYLAYER
 70
0
 71
3
 72
11
 73
7
 74
0
 42
0.0000001
 43
0.0000001
 44
0.0000000001
 40
0.0
 40
0.0
 40
0.0
 40
0.0
 40
0.2177701422
 40
0.4509477659
 40
0.7101977596
 40
1.0
 40
1.0
 40
1.0
 40
1.0
 10
76.7502809138
 20
160.1283727527
 30
0.0
 10
76.7502808893
 20
159.7646417696
 30
0.0
 10
76.8845338705
 20
159.0063556221
 30
0.0
 10
77.4595140957
 20
157.9502703776
 30
0.0
 10
78.3678353941
 20
156.9950693384
 30
0.0
 10
79.1282272941
 20
156.4716583412
 30
0.0
 10
79.5474229644
 20
156.2296410833
 30
0.0
  0
SPLINE
  5
452
100
AcDbEntity
  8
0
100
AcDbSpline
 62
7
  6
BYLAYER
 70
0
 71
3
 72
11
 73
7
 74
0
 42
0.0000001
 43
0.0000001
 44
0.0000000001
 40
0.0
 40
0.0
 40
0.0
 40
0.0
 40
0.2797735657
 40
0.5476397352
 40
0.790369272
 40
1.0
 40
1.0
 40
1.0
 40
1.0
 10
122.0891741265
 20
117.1269149298
 30
0.0
 10
122.2332015047
 20
117.1322837446
 30
0.0
 10
122.5165490977
 20
117.1195954241
 30
0.0
 10
122.9165385702
 20
117.0325284302
 30
0.0
 10
123.2595162444
 20
116.8847233496
 30
0.0
 10
123.4475775463
 20
116.7400832977
 30
0.0
 10
123.5195038757
 20
116.6595286567
 30
0.0
  0
SPLINE
  5
453
100
AcDbEntity
  8
0
100
AcDbSpline
 62
7
  6
BYLAYER
 70
0
 71
3
 72
9
 73
5
 74
0
 42
0.0000001
 43
0.0000001
 44
0.0000000001
 40
0.0
 40
0.0
 40
0.0
 40
0.0
 40
0.2589748789
 40
1.0
 40
1.0
 40
1.0
 40
1.0
 10
123.5195038757
 20
116.6595286567
 30
0.0
 10
123.5290393657
 20
116.6488492855
 30
0.0
 10
123.5647957684
 20
116.6066860015
 30
0.0
 10
123.5961218665
 20
116.5606786099
 30
0.0
 10
123.61586449
 20
116.5247835541
 30
0.0
  0
SPLINE
  5
454
100
AcDbEntity
  8
0
100
AcDbSpline
 62
7
  6
BYLAYER
 70
0
 71
3
 72
9
 73
5
 74
0
 42
0.0000001
 43
0.0000001
 44
0.0000000001
 40
0.0
 40
0.0
 40
0.0
 40
0.0
 40
0.4752094038
 40
1.0
 40
1.0
 40
1.0
 40
1.0
 10
100.9022968158
 20
105.1173817207
 30
0.0
 10
100.9726675459
 20
105.1580100382
 30
0.0
 10
101.1382521278
 20
105.2130454681
 30
0.0
 10
101.3108375912
 20
105.2226082318
 30
0.0
 10
101.4003433101
 20
105.2161977833
 30
0.0
  0
SPLINE
  5
455
100
AcDbEntity
  8
0
100
AcDbSpline
 62
7
  6
BYLAYER
 70
0
 71
3
 72
9
 73
5
 74
0
 42
0.0000001
 43
0.0000001
 44
0.0000000001
 40
0.0
 40
0.0
 40
0.0
 40
0.0
 40
0.2441358572
 40
1.0
 40
1.0
 40
1.0
 40
1.0
 10
71.2471463134
 20
145.0792635186
 30
0.0
 10
71.2515137492
 20
145.0880189551
 30
0.0
 10
71.270249441
 20
145.1234566038
 30
0.0
 10
71.2922650269
 20
145.1571344213
 30
0.0
 10
71.3103470667
 20
145.1814387567
 30
0.0
  0
SPLINE
  5
456
100
AcDbEntity
  8
0
100
AcDbSpline
 62
7
  6
BYLAYER
 70
0
 71
3
 72
9
 73
5
 74
0
 42
0.0000001
 43
0.0000001
 44
0.0000000001
 40
0.0
 40
0.0
 40
0.0
 40
0.0
 40
0.2309314399
 40
1.0
 40
1.0
 40
1.0
 40
1.0
 10
71.3103470667
 20
145.1814387567
 30
0.0
 10
71.3295916432
 20
145.2073056749
 30
0.0
 10
71.4202341245
 20
145.3138864581
 30
0.0
 10
71.5348980197
 20
145.3982733302
 30
0.0
 10
71.6278835395
 20
145.4519582246
 30
0.0
  0
SPLINE
  5
457
100
AcDbEntity
  8
0
100
AcDbSpline
 62
7
  6
BYLAYER
 70
0
 71
3
 72
15
 73
11
 74
0
 42
0.0000001
 43
0.0000001
 44
0.0000000001
 40
0.0
 40
0.0
 40
0.0
 40
0.0
 40
0.0869258731
 40
0.1863900355
 40
0.3037775758
 40
0.4375856292
 40
0.582082136
 40
0.7293904368
 40
0.8711742898
 40
1.0
 40
1.0
 40
1.0
 40
1.0
 10
74.188486445
 20
145.3294985063
 30
0.0
 10
74.1884880219
 20
145.4160075771
 30
0.0
 10
74.1362903574
 20
145.603209887
 30
0.0
 10
73.9322356546
 20
145.8352485783
 30
0.0
 10
73.6310573388
 20
146.0187816022
 30
0.0
 10
73.2550425333
 20
146.1444322091
 30
0.0
 10
72.8335298809
 20
146.2036258361
 30
0.0
 10
72.4001055448
 20
146.1916984
 30
0.0
 10
71.9903586124
 20
146.1096804564
 30
0.0
 10
71.7389150918
 20
146.0059633888
 30
0.0
 10
71.6278835395
 20
145.9418596749
 30
0.0
  0
SPLINE
  5
458
100
AcDbEntity
  8
0
100
AcDbSpline
 62
7
  6
BYLAYER
 70
0
 71
3
 72
11
 73
7
 74
0
 42
0.0000001
 43
0.0000001
 44
0.0000000001
 40
0.0
 40
0.0
 40
0.0
 40
0.0
 40
0.2200081802
 40
0.4540950905
 40
0.7126501708
 40
1.0
 40
1.0
 40
1.0
 40
1.0
 10
48.9753536263
 20
130.0634577339
 30
0.0
 10
48.8189656963
 20
129.9731215253
 30
0.0
 10
48.5255156116
 20
129.7312275131
 30
0.0
 10
48.2043222838
 20
129.2333891247
 30
0.0
 10
48.0023623954
 20
128.6200255303
 30
0.0
 10
47.9509505284
 20
128.1719535196
 30
0.0
 10
47.9426109174
 20
127.9362164092
 30
0.0
  0
SPLINE
  5
459
100
AcDbEntity
  8
0
100
AcDbSpline
 62
7
  6
BYLAYER
 70
0
 71
3
 72
11
 73
7
 74
0
 42
0.0000001
 43
0.0000001
 44
0.0000000001
 40
0.0
 40
0.0
 40
0.0
 40
0.0
 40
0.2177701422
 40
0.4509477659
 40
0.7101977596
 40
1.0
 40
1.0
 40
1.0
 40
1.0
 10
52.0014405337
 20
174.4167991609
 30
0.0
 10
52.0014405092
 20
174.0530681778
 30
0.0
 10
52.1356934903
 20
173.2947820303
 30
0.0
 10
52.7106737155
 20
172.2386967859
 30
0.0
 10
53.618995014
 20
171.2834957466
 30
0.0
 10
54.379386914
 20
170.7600847494
 30
0.0
 10
54.7985825842
 20
170.5180674915
 30
0.0
  0
SPLINE
  5
45A
100
AcDbEntity
  8
0
100
AcDbSpline
 62
7
  6
BYLAYER
 70
0
 71
3
 72
16
 73
12
 74
0
 42
0.0000001
 43
0.0000001
 44
0.0000000001
 40
0.0
 40
0.0
 40
0.0
 40
0.0
 40
0.138045405
 40
0.2840186467
 40
0.4311419982
 40
0.572428044
 40
0.7018082064
 40
0.8153262152
 40
0.9127544553
 40
0.9571214479
 40
1.0
 40
1.0
 40
1.0
 40
1.0
 10
118.827566031
 20
96.0489800048
 30
0.0
 10
119.0835793599
 20
95.840034588
 30
0.0
 10
119.5679686319
 20
95.3568861066
 30
0.0
 10
120.1736150845
 20
94.5164951615
 30
0.0
 10
120.6484422205
 20
93.5867082525
 30
0.0
 10
120.959620655
 20
92.631482565
 30
0.0
 10
121.0855000792
 20
91.7143932869
 30
0.0
 10
121.0170976772
 20
90.8946084455
 30
0.0
 10
120.782126023
 20
90.314425786
 30
0.0
 10
120.4948537996
 20
89.9741003127
 30
0.0
 10
120.3257224359
 20
89.8478110575
 30
0.0
 10
120.2368407442
 20
89.7964716505
 30
0.0
  0
SPLINE
  5
45B
100
AcDbEntity
  8
0
100
AcDbSpline
 62
7
  6
BYLAYER
 70
0
 71
3
 72
9
 73
5
 74
0
 42
0.0000001
 43
0.0000001
 44
0.0000000001
 40
0.0
 40
0.0
 40
0.0
 40
0.0
 40
0.2414835553
 40
1.0
 40
1.0
 40
1.0
 40
1.0
 10
118.2618782509
 20
96.4424122414
 30
0.0
 10
118.3099421715
 20
96.4146631517
 30
0.0
 10
118.5063984861
 20
96.2953061183
 30
0.0
 10
118.6925103708
 20
96.159205755
 30
0.0
 10
118.827566031
 20
96.0489800048
 30
0.0
  0
SPLINE
  5
45C
100
AcDbEntity
  8
0
100
AcDbSpline
 62
7
  6
BYLAYER
 70
0
 71
3
 72
11
 73
7
 74
0
 42
0.0000001
 43
0.0000001
 44
0.0000000001
 40
0.0
 40
0.0
 40
0.0
 40
0.0
 40
0.2372436391
 40
0.5000005261
 40
0.7627571268
 40
1.0
 40
1.0
 40
1.0
 40
1.0
 10
52.2531441929
 20
151.9022404787
 30
0.0
 10
52.1929097562
 20
151.9370160602
 30
0.0
 10
52.0528353067
 20
151.9877554013
 30
0.0
 10
51.8288794572
 20
152.0120666797
 30
0.0
 10
51.6049239456
 20
151.9877543792
 30
0.0
 10
51.464850047
 20
151.9370143427
 30
0.0
 10
51.4046160555
 20
151.9022384391
 30
0.0
  0
SPLINE
  5
45D
100
AcDbEntity
  8
0
100
AcDbSpline
 62
7
  6
BYLAYER
 70
0
 71
3
 72
9
 73
5
 74
0
 42
0.0000001
 43
0.0000001
 44
0.0000000001
 40
0.0
 40
0.0
 40
0.0
 40
0.0
 40
0.2640209776
 40
1.0
 40
1.0
 40
1.0
 40
1.0
 10
118.2618782509
 20
90.7268953215
 30
0.0
 10
118.308769383
 20
90.6998233262
 30
0.0
 10
118.4891610726
 20
90.6023547555
 30
0.0
 10
118.6816138235
 20
90.5259497025
 30
0.0
 10
118.827566031
 20
90.4874949448
 30
0.0
  0
SPLINE
  5
45E
100
AcDbEntity
  8
0
100
AcDbSpline
 62
7
  6
BYLAYER
 70
0
 71
3
 72
9
 73
5
 74
0
 42
0.0000001
 43
0.0000001
 44
0.0000000001
 40
0.0
 40
0.0
 40
0.0
 40
0.0
 40
0.5234171162
 40
1.0
 40
1.0
 40
1.0
 40
1.0
 10
124.3929807512
 20
91.9226795101
 30
0.0
 10
124.3176352394
 20
91.6979617046
 30
0.0
 10
124.114428459
 20
91.2830489901
 30
0.0
 10
123.7685920385
 20
90.9694382735
 30
0.0
 10
123.5817019609
 20
90.8615306815
 30
0.0
  0
SPLINE
  5
45F
100
AcDbEntity
  8
0
100
AcDbSpline
 62
7
  6
BYLAYER
 70
0
 71
3
 72
9
 73
5
 74
0
 42
0.0000001
 43
0.0000001
 44
0.0000000001
 40
0.0
 40
0.0
 40
0.0
 40
0.0
 40
0.4999988717
 40
1.0
 40
1.0
 40
1.0
 40
1.0
 10
122.4338009
 20
98.7286071515
 30
0.0
 10
122.4967649066
 20
98.6922556878
 30
0.0
 10
122.5962475156
 20
98.5774470778
 30
0.0
 10
122.6459338175
 20
98.4338886893
 30
0.0
 10
122.6459338175
 20
98.3611842
 30
0.0
  0
SPLINE
  5
460
100
AcDbEntity
  8
0
100
AcDbSpline
 62
7
  6
BYLAYER
 70
0
 71
3
 72
9
 73
5
 74
0
 42
0.0000001
 43
0.0000001
 44
0.0000000001
 40
0.0
 40
0.0
 40
0.0
 40
0.0
 40
0.4782946753
 40
1.0
 40
1.0
 40
1.0
 40
1.0
 10
122.6459338175
 20
97.7403113334
 30
0.0
 10
122.6459338175
 20
97.6908572998
 30
0.0
 10
122.6713251837
 20
97.5876906446
 30
0.0
 10
122.7255339008
 20
97.4977673864
 30
0.0
 10
122.760485593
 20
97.4566799491
 30
0.0
  0
SPLINE
  5
461
100
AcDbEntity
  8
0
100
AcDbSpline
 62
7
  6
BYLAYER
 70
0
 71
3
 72
9
 73
5
 74
0
 42
0.0000001
 43
0.0000001
 44
0.0000000001
 40
0.0
 40
0.0
 40
0.0
 40
0.0
 40
0.5041300408
 40
1.0
 40
1.0
 40
1.0
 40
1.0
 10
122.760485593
 20
97.4566799491
 30
0.0
 10
123.1358317079
 20
97.015442086
 30
0.0
 10
123.7811094392
 20
96.0527872929
 30
0.0
 10
124.2134253597
 20
94.9764435144
 30
0.0
 10
124.3589038696
 20
94.4255306737
 30
0.0
  0
SPLINE
  5
462
100
AcDbEntity
  8
0
100
AcDbSpline
 62
7
  6
BYLAYER
 70
0
 71
3
 72
9
 73
5
 74
0
 42
0.0000001
 43
0.0000001
 44
0.0000000001
 40
0.0
 40
0.0
 40
0.0
 40
0.0
 40
0.2441358572
 40
1.0
 40
1.0
 40
1.0
 40
1.0
 10
95.9959866936
 20
130.7908371104
 30
0.0
 10
96.0003541294
 20
130.7995925468
 30
0.0
 10
96.0190898211
 20
130.8350301955
 30
0.0
 10
96.0411054071
 20
130.8687080131
 30
0.0
 10
96.0591874468
 20
130.8930123485
 30
0.0
  0
SPLINE
  5
463
100
AcDbEntity
  8
0
100
AcDbSpline
 62
7
  6
BYLAYER
 70
0
 71
3
 72
9
 73
5
 74
0
 42
0.0000001
 43
0.0000001
 44
0.0000000001
 40
0.0
 40
0.0
 40
0.0
 40
0.0
 40
0.2309314399
 40
1.0
 40
1.0
 40
1.0
 40
1.0
 10
96.0591874468
 20
130.8930123485
 30
0.0
 10
96.0784320234
 20
130.9188792667
 30
0.0
 10
96.1690745047
 20
131.0254600498
 30
0.0
 10
96.2837383998
 20
131.109846922
 30
0.0
 10
96.3767239197
 20
131.1635318164
 30
0.0
  0
SPLINE
  5
464
100
AcDbEntity
  8
0
100
AcDbSpline
 62
7
  6
BYLAYER
 70
0
 71
3
 72
15
 73
11
 74
0
 42
0.0000001
 43
0.0000001
 44
0.0000000001
 40
0.0
 40
0.0
 40
0.0
 40
0.0
 40
0.0869258731
 40
0.1863900355
 40
0.3037775758
 40
0.4375856292
 40
0.582082136
 40
0.7293904368
 40
0.8711742898
 40
1.0
 40
1.0
 40
1.0
 40
1.0
 10
98.9373268251
 20
131.0410720981
 30
0.0
 10
98.937328402
 20
131.1275811689
 30
0.0
 10
98.8851307376
 20
131.3147834788
 30
0.0
 10
98.6810760347
 20
131.5468221701
 30
0.0
 10
98.379897719
 20
131.730355194
 30
0.0
 10
98.0038829135
 20
131.8560058009
 30
0.0
 10
97.582370261
 20
131.9151994279
 30
0.0
 10
97.1489459249
 20
131.9032719918
 30
0.0
 10
96.7391989926
 20
131.8212540482
 30
0.0
 10
96.4877554719
 20
131.7175369806
 30
0.0
 10
96.3767239197
 20
131.6534332667
 30
0.0
  0
SPLINE
  5
465
100
AcDbEntity
  8
0
100
AcDbSpline
 62
7
  6
BYLAYER
 70
0
 71
3
 72
9
 73
5
 74
0
 42
0.0000001
 43
0.0000001
 44
0.0000000001
 40
0.0
 40
0.0
 40
0.0
 40
0.0
 40
0.2309735005
 40
1.0
 40
1.0
 40
1.0
 40
1.0
 10
76.6330897005
 20
129.885424024
 30
0.0
 10
76.6041434068
 20
129.8442430362
 30
0.0
 10
76.4924770298
 20
129.6562772815
 30
0.0
 10
76.4363423086
 20
129.4391849624
 30
0.0
 10
76.4159422277
 20
129.2728357919
 30
0.0
  0
SPLINE
  5
466
100
AcDbEntity
  8
0
100
AcDbSpline
 62
7
  6
BYLAYER
 70
0
 71
3
 72
15
 73
11
 74
0
 42
0.0000001
 43
0.0000001
 44
0.0000000001
 40
0.0
 40
0.0
 40
0.0
 40
0.0
 40
0.0919294089
 40
0.1988144088
 40
0.3212891789
 40
0.4561432605
 40
0.5979015098
 40
0.7400399647
 40
0.8759476031
 40
1.0
 40
1.0
 40
1.0
 40
1.0
 10
41.95261487
 20
135.2987223263
 30
0.0
 10
41.6846364481
 20
135.2584361726
 30
0.0
 10
41.0840378297
 20
135.3029853216
 30
0.0
 10
40.1996495696
 20
135.6689475993
 30
0.0
 10
39.3204044279
 20
136.2981451862
 30
0.0
 10
38.5009476161
 20
137.1499322172
 30
0.0
 10
37.7935964412
 20
138.1674210008
 30
0.0
 10
37.2460703884
 20
139.2827510908
 30
0.0
 10
36.8950542714
 20
140.4199675704
 30
0.0
 10
36.8027943433
 20
141.1871550292
 30
0.0
 10
36.8027943433
 20
141.5528369172
 30
0.0
  0
SPLINE
  5
467
100
AcDbEntity
  8
0
100
AcDbSpline
 62
7
  6
BYLAYER
 70
0
 71
3
 72
9
 73
5
 74
0
 42
0.0000001
 43
0.0000001
 44
0.0000000001
 40
0.0
 40
0.0
 40
0.0
 40
0.0
 40
0.2747899423
 40
1.0
 40
1.0
 40
1.0
 40
1.0
 10
36.8027943433
 20
143.6757432018
 30
0.0
 10
36.8027943433
 20
143.8159139407
 30
0.0
 10
36.8265004457
 20
144.3245443393
 30
0.0
 10
36.9555047184
 20
144.8369462256
 30
0.0
 10
37.1327693511
 20
145.1616398604
 30
0.0
  0
SPLINE
  5
468
100
AcDbEntity
  8
0
100
AcDbSpline
 62
7
  6
BYLAYER
 70
0
 71
3
 72
9
 73
5
 74
0
 42
0.0000001
 43
0.0000001
 44
0.0000000001
 40
0.0
 40
0.0
 40
0.0
 40
0.0
 40
0.255005138
 40
1.0
 40
1.0
 40
1.0
 40
1.0
 10
37.1327693511
 20
145.1616398604
 30
0.0
 10
37.1460184676
 20
145.1859081181
 30
0.0
 10
37.1998137171
 20
145.280054748
 30
0.0
 10
37.2611644366
 20
145.3699276245
 30
0.0
 10
37.3110126628
 20
145.4334896582
 30
0.0
  0
SPLINE
  5
469
100
AcDbEntity
  8
0
100
AcDbSpline
 62
7
  6
BYLAYER
 70
0
 71
3
 72
9
 73
5
 74
0
 42
0.0000001
 43
0.0000001
 44
0.0000000001
 40
0.0
 40
0.0
 40
0.0
 40
0.0
 40
0.242036714
 40
1.0
 40
1.0
 40
1.0
 40
1.0
 10
78.752718407
 20
129.9615448677
 30
0.0
 10
78.8276790793
 20
129.8913556187
 30
0.0
 10
79.126271237
 20
129.58961257
 30
0.0
 10
79.3816768466
 20
129.2459588093
 30
0.0
 10
79.5488058879
 20
128.971207373
 30
0.0
  0
SPLINE
  5
46A
100
AcDbEntity
  8
0
100
AcDbSpline
 62
7
  6
BYLAYER
 70
0
 71
3
 72
9
 73
5
 74
0
 42
0.0000001
 43
0.0000001
 44
0.0000000001
 40
0.0
 40
0.0
 40
0.0
 40
0.0
 40
0.2747899423
 40
1.0
 40
1.0
 40
1.0
 40
1.0
 10
61.5516347234
 20
129.3873167936
 30
0.0
 10
61.5516347234
 20
129.5274875325
 30
0.0
 10
61.5753408259
 20
130.0361179311
 30
0.0
 10
61.7043450985
 20
130.5485198174
 30
0.0
 10
61.8816097313
 20
130.8732134522
 30
0.0
  0
SPLINE
  5
46B
100
AcDbEntity
  8
0
100
AcDbSpline
 62
7
  6
BYLAYER
 70
0
 71
3
 72
9
 73
5
 74
0
 42
0.0000001
 43
0.0000001
 44
0.0000000001
 40
0.0
 40
0.0
 40
0.0
 40
0.0
 40
0.255005138
 40
1.0
 40
1.0
 40
1.0
 40
1.0
 10
61.8816097313
 20
130.8732134522
 30
0.0
 10
61.8948588478
 20
130.8974817099
 30
0.0
 10
61.9486540973
 20
130.9916283398
 30
0.0
 10
62.0100048168
 20
131.0815012163
 30
0.0
 10
62.0598530429
 20
131.14506325
 30
0.0
  0
SPLINE
  5
46C
100
AcDbEntity
  8
0
100
AcDbSpline
 62
7
  6
BYLAYER
 70
0
 71
3
 72
9
 73
5
 74
0
 42
0.0000001
 43
0.0000001
 44
0.0000000001
 40
0.0
 40
0.0
 40
0.0
 40
0.0
 40
0.5245217056
 40
1.0
 40
1.0
 40
1.0
 40
1.0
 10
79.5488058879
 20
128.971207373
 30
0.0
 10
79.7522988344
 20
128.6366755711
 30
0.0
 10
80.0695599446
 20
127.9535211937
 30
0.0
 10
80.2141259593
 20
127.2086940449
 30
0.0
 10
80.2190997485
 20
126.8537782905
 30
0.0
  0
SPLINE
  5
46D
100
AcDbEntity
  8
0
100
AcDbSpline
 62
7
  6
BYLAYER
 70
0
 71
3
 72
9
 73
5
 74
0
 42
0.0000001
 43
0.0000001
 44
0.0000000001
 40
0.0
 40
0.0
 40
0.0
 40
0.0
 40
0.2682093359
 40
1.0
 40
1.0
 40
1.0
 40
1.0
 10
80.2190997485
 20
126.8537782905
 30
0.0
 10
80.2200441246
 20
126.7863902457
 30
0.0
 10
80.2146431065
 20
126.5353142306
 30
0.0
 10
80.1713647761
 20
126.2834046726
 30
0.0
 10
80.1105485208
 20
126.1098712272
 30
0.0
  0
SPLINE
  5
46E
100
AcDbEntity
  8
0
100
AcDbSpline
 62
7
  6
BYLAYER
 70
0
 71
3
 72
9
 73
5
 74
0
 42
0.0000001
 43
0.0000001
 44
0.0000000001
 40
0.0
 40
0.0
 40
0.0
 40
0.0
 40
0.2607092794
 40
1.0
 40
1.0
 40
1.0
 40
1.0
 10
80.1105485208
 20
126.1098712272
 30
0.0
 10
80.0996431362
 20
126.0787537413
 30
0.0
 10
80.0542232302
 20
125.960725137
 30
0.0
 10
79.9936832089
 20
125.8482093213
 30
0.0
 10
79.9399146208
 20
125.7717144307
 30
0.0
  0
SPLINE
  5
46F
100
AcDbEntity
  8
0
100
AcDbSpline
 62
7
  6
BYLAYER
 70
0
 71
3
 72
11
 73
7
 74
0
 42
0.0000001
 43
0.0000001
 44
0.0000000001
 40
0.0
 40
0.0
 40
0.0
 40
0.0
 40
0.2177794746
 40
0.4509225183
 40
0.7102595756
 40
1.0
 40
1.0
 40
1.0
 40
1.0
 10
61.4747747125
 20
130.9494096991
 30
0.0
 10
61.3180750225
 20
130.8589758173
 30
0.0
 10
61.0249355467
 20
130.612474599
 30
0.0
 10
60.7128433157
 20
130.1022284757
 30
0.0
 10
60.527417943
 20
129.4733638503
 30
0.0
 10
60.4909789676
 20
129.0156558228
 30
0.0
 10
60.4909789676
 20
128.7749505628
 30
0.0
  0
SPLINE
  5
470
100
AcDbEntity
  8
0
100
AcDbSpline
 62
7
  6
BYLAYER
 70
0
 71
3
 72
9
 73
5
 74
0
 42
0.0000001
 43
0.0000001
 44
0.0000000001
 40
0.0
 40
0.0
 40
0.0
 40
0.0
 40
0.2747899423
 40
1.0
 40
1.0
 40
1.0
 40
1.0
 10
86.3004751036
 20
115.0988903854
 30
0.0
 10
86.3004751036
 20
115.2390611243
 30
0.0
 10
86.324181206
 20
115.7476915228
 30
0.0
 10
86.4531854787
 20
116.2600934092
 30
0.0
 10
86.6304501114
 20
116.584787044
 30
0.0
  0
SPLINE
  5
471
100
AcDbEntity
  8
0
100
AcDbSpline
 62
7
  6
BYLAYER
 70
0
 71
3
 72
9
 73
5
 74
0
 42
0.0000001
 43
0.0000001
 44
0.0000000001
 40
0.0
 40
0.0
 40
0.0
 40
0.0
 40
0.255005138
 40
1.0
 40
1.0
 40
1.0
 40
1.0
 10
86.6304501114
 20
116.584787044
 30
0.0
 10
86.6436992279
 20
116.6090553017
 30
0.0
 10
86.6974944774
 20
116.7032019315
 30
0.0
 10
86.7588451969
 20
116.7930748081
 30
0.0
 10
86.8086934231
 20
116.8566368418
 30
0.0
  0
SPLINE
  5
472
100
AcDbEntity
  8
0
100
AcDbSpline
 62
7
  6
BYLAYER
 70
0
 71
3
 72
9
 73
5
 74
0
 42
0.0000001
 43
0.0000001
 44
0.0000000001
 40
0.0
 40
0.0
 40
0.0
 40
0.0
 40
0.2590965817
 40
1.0
 40
1.0
 40
1.0
 40
1.0
 10
119.9942864793
 20
118.8982631785
 30
0.0
 10
119.9570183345
 20
118.9295003685
 30
0.0
 10
119.810846557
 20
119.0472186673
 30
0.0
 10
119.6550907763
 20
119.1532907906
 30
0.0
 10
119.5346651579
 20
119.2228169809
 30
0.0
  0
SPLINE
  5
473
100
AcDbEntity
  8
0
100
AcDbSpline
 62
7
  6
BYLAYER
 70
0
 71
3
 72
9
 73
5
 74
0
 42
0.0000001
 43
0.0000001
 44
0.0000000001
 40
0.0
 40
0.0
 40
0.0
 40
0.0
 40
0.2615402614
 40
1.0
 40
1.0
 40
1.0
 40
1.0
 10
119.5346651579
 20
119.2228169809
 30
0.0
 10
119.4965920137
 20
119.2447980236
 30
0.0
 10
119.3490789803
 20
119.3253635773
 30
0.0
 10
119.1933870967
 20
119.3915204684
 30
0.0
 10
119.0750438366
 20
119.4289761593
 30
0.0
  0
SPLINE
  5
474
100
AcDbEntity
  8
0
100
AcDbSpline
 62
7
  6
BYLAYER
 70
0
 71
3
 72
9
 73
5
 74
0
 42
0.0000001
 43
0.0000001
 44
0.0000000001
 40
0.0
 40
0.0
 40
0.0
 40
0.0
 40
0.2565304475
 40
1.0
 40
1.0
 40
1.0
 40
1.0
 10
81.6701173995
 20
130.1959398346
 30
0.0
 10
81.6135568238
 20
130.2889224741
 30
0.0
 10
81.3815615905
 20
130.6441393583
 30
0.0
 10
81.104272986
 20
130.9706897754
 30
0.0
 10
80.8740299187
 20
131.1862773293
 30
0.0
  0
SPLINE
  5
475
100
AcDbEntity
  8
0
100
AcDbSpline
 62
7
  6
BYLAYER
 70
0
 71
3
 72
9
 73
5
 74
0
 42
0.0000001
 43
0.0000001
 44
0.0000000001
 40
0.0
 40
0.0
 40
0.0
 40
0.0
 40
0.2747899423
 40
1.0
 40
1.0
 40
1.0
 40
1.0
 10
111.0493154837
 20
100.8104639771
 30
0.0
 10
111.0493154837
 20
100.950634716
 30
0.0
 10
111.0730215861
 20
101.4592651146
 30
0.0
 10
111.2020258588
 20
101.971667001
 30
0.0
 10
111.3792904916
 20
102.2963606358
 30
0.0
  0
SPLINE
  5
476
100
AcDbEntity
  8
0
100
AcDbSpline
 62
7
  6
BYLAYER
 70
0
 71
3
 72
9
 73
5
 74
0
 42
0.0000001
 43
0.0000001
 44
0.0000000001
 40
0.0
 40
0.0
 40
0.0
 40
0.0
 40
0.255005138
 40
1.0
 40
1.0
 40
1.0
 40
1.0
 10
111.3792904916
 20
102.2963606358
 30
0.0
 10
111.3925396081
 20
102.3206288935
 30
0.0
 10
111.4463348576
 20
102.4147755233
 30
0.0
 10
111.5076855771
 20
102.5046483999
 30
0.0
 10
111.5575338032
 20
102.5682104336
 30
0.0
  0
SPLINE
  5
477
100
AcDbEntity
  8
0
100
AcDbSpline
 62
7
  6
BYLAYER
 70
0
 71
3
 72
9
 73
5
 74
0
 42
0.0000001
 43
0.0000001
 44
0.0000000001
 40
0.0
 40
0.0
 40
0.0
 40
0.0
 40
0.2570440044
 40
1.0
 40
1.0
 40
1.0
 40
1.0
 10
119.9942864793
 20
96.8679281631
 30
0.0
 10
119.9566600293
 20
96.8968996998
 30
0.0
 10
119.8085733289
 20
97.0073629161
 30
0.0
 10
119.6535349691
 20
97.1086237535
 30
0.0
 10
119.5346651579
 20
97.1772517184
 30
0.0
  0
SPLINE
  5
478
100
AcDbEntity
  8
0
100
AcDbSpline
 62
7
  6
BYLAYER
 70
0
 71
3
 72
9
 73
5
 74
0
 42
0.0000001
 43
0.0000001
 44
0.0000000001
 40
0.0
 40
0.0
 40
0.0
 40
0.0
 40
0.2583848994
 40
1.0
 40
1.0
 40
1.0
 40
1.0
 10
119.5346651579
 20
97.1772517184
 30
0.0
 10
119.4965910798
 20
97.1992333003
 30
0.0
 10
119.3477538826
 20
97.2816837671
 30
0.0
 10
119.1928148553
 20
97.3533350489
 30
0.0
 10
119.0750438366
 20
97.398641144
 30
0.0
  0
SPLINE
  5
479
100
AcDbEntity
  8
0
100
AcDbSpline
 62
7
  6
BYLAYER
 70
0
 71
3
 72
15
 73
11
 74
0
 42
0.0000001
 43
0.0000001
 44
0.0000000001
 40
0.0
 40
0.0
 40
0.0
 40
0.0
 40
0.0919294089
 40
0.1988144088
 40
0.3212891789
 40
0.4561432605
 40
0.5979015098
 40
0.7400399647
 40
0.8759476031
 40
1.0
 40
1.0
 40
1.0
 40
1.0
 10
91.4502956303
 20
106.7218695099
 30
0.0
 10
91.1823172084
 20
106.6815833562
 30
0.0
 10
90.58171859
 20
106.7261325052
 30
0.0
 10
89.6973303299
 20
107.0920947829
 30
0.0
 10
88.8180851881
 20
107.7212923697
 30
0.0
 10
87.9986283764
 20
108.5730794008
 30
0.0
 10
87.2912772015
 20
109.5905681844
 30
0.0
 10
86.7437511487
 20
110.7058982743
 30
0.0
 10
86.3927350317
 20
111.843114754
 30
0.0
 10
86.3004751036
 20
112.6103022128
 30
0.0
 10
86.3004751036
 20
112.9759841008
 30
0.0
  0
SPLINE
  5
47A
100
AcDbEntity
  8
0
100
AcDbSpline
 62
7
  6
BYLAYER
 70
0
 71
3
 72
9
 73
5
 74
0
 42
0.0000001
 43
0.0000001
 44
0.0000000001
 40
0.0
 40
0.0
 40
0.0
 40
0.0
 40
0.2387765066
 40
1.0
 40
1.0
 40
1.0
 40
1.0
 10
116.9537323249
 20
118.2042436977
 30
0.0
 10
116.9920004617
 20
118.1921318166
 30
0.0
 10
117.1506798248
 20
118.1364193873
 30
0.0
 10
117.3025328184
 20
118.0620655066
 30
0.0
 10
117.4133536463
 20
117.9980845193
 30
0.0
  0
SPLINE
  5
47B
100
AcDbEntity
  8
0
100
AcDbSpline
 62
7
  6
BYLAYER
 70
0
 71
3
 72
10
 73
6
 74
0
 42
0.0000001
 43
0.0000001
 44
0.0000000001
 40
0.0
 40
0.0
 40
0.0
 40
0.0
 40
0.2284013136
 40
0.47857688
 40
1.0
 40
1.0
 40
1.0
 40
1.0
 10
117.4133536463
 20
117.9980845193
 30
0.0
 10
117.6087054527
 20
117.8853006528
 30
0.0
 10
117.990385509
 20
117.5996059842
 30
0.0
 10
118.6648937394
 20
116.8746320207
 30
0.0
 10
119.0502480966
 20
116.1983785793
 30
0.0
 10
119.2328519571
 20
115.7168780845
 30
0.0
  0
SPLINE
  5
47C
100
AcDbEntity
  8
0
100
AcDbSpline
 62
7
  6
BYLAYER
 70
0
 71
3
 72
9
 73
5
 74
0
 42
0.0000001
 43
0.0000001
 44
0.0000000001
 40
0.0
 40
0.0
 40
0.0
 40
0.0
 40
0.5236595086
 40
1.0
 40
1.0
 40
1.0
 40
1.0
 10
119.2328519571
 20
115.7168780845
 30
0.0
 10
119.3203020428
 20
115.4862846054
 30
0.0
 10
119.4537123607
 20
115.0322280485
 30
0.0
 10
119.5029217562
 20
114.5598766393
 30
0.0
 10
119.4988639628
 20
114.3355794856
 30
0.0
  0
SPLINE
  5
47D
100
AcDbEntity
  8
0
100
AcDbSpline
 62
7
  6
BYLAYER
 70
0
 71
3
 72
11
 73
7
 74
0
 42
0.0000001
 43
0.0000001
 44
0.0000000001
 40
0.0
 40
0.0
 40
0.0
 40
0.0
 40
0.286306155
 40
0.5443185794
 40
0.7789295114
 40
1.0
 40
1.0
 40
1.0
 40
1.0
 10
119.4956836386
 20
114.2453715095
 30
0.0
 10
119.4885995893
 20
114.1111052351
 30
0.0
 10
119.4550733262
 20
113.8560492031
 30
0.0
 10
119.3342612527
 20
113.5075516656
 30
0.0
 10
119.147161102
 20
113.2245425229
 30
0.0
 10
118.978226763
 20
113.0865824142
 30
0.0
 10
118.8883364867
 20
113.0346419046
 30
0.0
  0
SPLINE
  5
47E
100
AcDbEntity
  8
0
100
AcDbSpline
 62
7
  6
BYLAYER
 70
0
 71
3
 72
9
 73
5
 74
0
 42
0.0000001
 43
0.0000001
 44
0.0000000001
 40
0.0
 40
0.0
 40
0.0
 40
0.0
 40
0.4517842473
 40
1.0
 40
1.0
 40
1.0
 40
1.0
 10
115.8124227497
 20
117.2781381006
 30
0.0
 10
115.7162748457
 20
117.0651754371
 30
0.0
 10
115.6385264539
 20
116.5353323893
 30
0.0
 10
115.7317556023
 20
116.0210384864
 30
0.0
 10
115.8124227638
 20
115.7492205774
 30
0.0
  0
SPLINE
  5
47F
100
AcDbEntity
  8
0
100
AcDbSpline
 62
7
  6
BYLAYER
 70
0
 71
3
 72
9
 73
5
 74
0
 42
0.0000001
 43
0.0000001
 44
0.0000000001
 40
0.0
 40
0.0
 40
0.0
 40
0.0
 40
0.4752094038
 40
1.0
 40
1.0
 40
1.0
 40
1.0
 10
76.1534564357
 20
119.4058081289
 30
0.0
 10
76.2238271658
 20
119.4464364464
 30
0.0
 10
76.3894117477
 20
119.5014718763
 30
0.0
 10
76.5619972111
 20
119.51103464
 30
0.0
 10
76.6515029299
 20
119.5046241916
 30
0.0
  0
SPLINE
  5
480
100
AcDbEntity
  8
0
100
AcDbSpline
 62
7
  6
BYLAYER
 70
0
 71
3
 72
11
 73
7
 74
0
 42
0.0000001
 43
0.0000001
 44
0.0000000001
 40
0.0
 40
0.0
 40
0.0
 40
0.0
 40
0.2177794746
 40
0.4509225183
 40
0.7102595756
 40
1.0
 40
1.0
 40
1.0
 40
1.0
 10
110.9724554728
 20
102.3725568827
 30
0.0
 10
110.8157557828
 20
102.2821230009
 30
0.0
 10
110.522616307
 20
102.0356217826
 30
0.0
 10
110.210524076
 20
101.5253756593
 30
0.0
 10
110.0250987033
 20
100.8965110339
 30
0.0
 10
109.9886597279
 20
100.4388030064
 30
0.0
 10
109.9886597279
 20
100.1980977463
 30
0.0
  0
SPLINE
  5
481
100
AcDbEntity
  8
0
100
AcDbSpline
 62
7
  6
BYLAYER
 70
0
 71
3
 72
11
 73
7
 74
0
 42
0.0000001
 43
0.0000001
 44
0.0000000001
 40
0.0
 40
0.0
 40
0.0
 40
0.0
 40
0.2372436391
 40
0.5000005261
 40
0.7627571268
 40
1.0
 40
1.0
 40
1.0
 40
1.0
 10
101.7508249532
 20
123.3253876623
 30
0.0
 10
101.6905905165
 20
123.3601632438
 30
0.0
 10
101.550516067
 20
123.4109025848
 30
0.0
 10
101.3265602175
 20
123.4352138633
 30
0.0
 10
101.1026047059
 20
123.4109015628
 30
0.0
 10
100.9625308072
 20
123.3601615263
 30
0.0
 10
100.9022968158
 20
123.3253856227
 30
0.0
  0
SPLINE
  5
482
100
AcDbEntity
  8
0
100
AcDbSpline
 62
7
  6
BYLAYER
 70
0
 71
3
 72
15
 73
11
 74
0
 42
0.0000001
 43
0.0000001
 44
0.0000000001
 40
0.0
 40
0.0
 40
0.0
 40
0.0
 40
0.1141545727
 40
0.2373261359
 40
0.366975604
 40
0.4999994966
 40
0.6330234588
 40
0.7626731321
 40
0.8858450149
 40
1.0
 40
1.0
 40
1.0
 40
1.0
 10
76.0825290816
 20
167.6604564898
 30
0.0
 10
75.6202423376
 20
167.3935567068
 30
0.0
 10
74.6093688426
 20
166.9228313437
 30
0.0
 10
72.9632195781
 20
166.4225005281
 30
0.0
 10
71.1810051949
 20
166.1145276759
 30
0.0
 10
69.3296704698
 20
166.0106186085
 30
0.0
 10
67.4783342978
 20
166.1145189347
 30
0.0
 10
65.6961156624
 20
166.422483365
 30
0.0
 10
64.0499594663
 20
166.9228063316
 30
0.0
 10
63.0390798999
 20
167.3935266124
 30
0.0
 10
62.576789561
 20
167.660424026
 30
0.0
  0
SPLINE
  5
483
100
AcDbEntity
  8
0
100
AcDbSpline
 62
7
  6
BYLAYER
 70
0
 71
3
 72
11
 73
7
 74
0
 42
0.0000001
 43
0.0000001
 44
0.0000000001
 40
0.0
 40
0.0
 40
0.0
 40
0.0
 40
0.2897023447
 40
0.5490884149
 40
0.7822164855
 40
1.0
 40
1.0
 40
1.0
 40
1.0
 10
69.082396867
 20
111.9348185277
 30
0.0
 10
69.2162274302
 20
111.8575531639
 30
0.0
 10
69.4824595723
 20
111.7309017482
 30
0.0
 10
69.8916625665
 20
111.6320800262
 30
0.0
 10
70.2756175877
 20
111.6418068899
 30
0.0
 10
70.5067733366
 20
111.7257020684
 30
0.0
 10
70.6073832784
 20
111.7837811899
 30
0.0
  0
SPLINE
  5
484
100
AcDbEntity
  8
0
100
AcDbSpline
 62
7
  6
BYLAYER
 70
0
 71
3
 72
11
 73
7
 74
0
 42
0.0000001
 43
0.0000001
 44
0.0000000001
 40
0.0
 40
0.0
 40
0.0
 40
0.0
 40
0.2898022491
 40
0.549052252
 40
0.7822298681
 40
1.0
 40
1.0
 40
1.0
 40
1.0
 10
54.7985825842
 20
172.1510723258
 30
0.0
 10
54.3793869017
 20
172.3930895908
 30
0.0
 10
53.6189949856
 20
172.9165006168
 30
0.0
 10
52.7106736779
 20
173.8717016671
 30
0.0
 10
52.1356934739
 20
174.927786916
 30
0.0
 10
52.0014405423
 20
175.6860730295
 30
0.0
 10
52.0014405336
 20
176.0498039952
 30
0.0
  0
SPLINE
  5
485
100
AcDbEntity
  8
0
100
AcDbSpline
 62
7
  6
BYLAYER
 70
0
 71
3
 72
9
 73
5
 74
0
 42
0.0000001
 43
0.0000001
 44
0.0000000001
 40
0.0
 40
0.0
 40
0.0
 40
0.0
 40
0.2602890942
 40
1.0
 40
1.0
 40
1.0
 40
1.0
 10
68.5317097534
 20
112.335301679
 30
0.0
 10
68.5760500318
 20
112.2961808013
 30
0.0
 10
68.7496836225
 20
112.149703592
 30
0.0
 10
68.9368656661
 20
112.0188391048
 30
0.0
 10
69.082396867
 20
111.9348185277
 30
0.0
  0
SPLINE
  5
486
100
AcDbEntity
  8
0
100
AcDbSpline
 62
7
  6
BYLAYER
 70
0
 71
3
 72
16
 73
12
 74
0
 42
0.0000001
 43
0.0000001
 44
0.0000000001
 40
0.0
 40
0.0
 40
0.0
 40
0.0
 40
0.0429402426
 40
0.0873012691
 40
0.1843586122
 40
0.2970189597
 40
0.4253423125
 40
0.5658107546
 40
0.7127842344
 40
0.8597312225
 40
1.0
 40
1.0
 40
1.0
 40
1.0
 10
67.5574387343
 20
117.0664711618
 30
0.0
 10
67.4905309242
 20
117.0278770826
 30
0.0
 10
67.3631531166
 20
116.9333169687
 30
0.0
 10
67.1455606957
 20
116.6799661462
 30
0.0
 10
66.9635916367
 20
116.2490383124
 30
0.0
 10
66.9020682644
 20
115.6381486081
 30
0.0
 10
66.9836630108
 20
114.9523876087
 30
0.0
 10
67.2026830085
 20
114.2338331486
 30
0.0
 10
67.5443918239
 20
113.5277819782
 30
0.0
 10
67.9865610725
 20
112.8806834237
 30
0.0
 10
68.3425079224
 20
112.5022321077
 30
0.0
 10
68.5317097534
 20
112.335301679
 30
0.0
  0
SPLINE
  5
487
100
AcDbEntity
  8
0
100
AcDbSpline
 62
7
  6
BYLAYER
 70
0
 71
3
 72
9
 73
5
 74
0
 42
0.0000001
 43
0.0000001
 44
0.0000000001
 40
0.0
 40
0.0
 40
0.0
 40
0.0
 40
0.4745923535
 40
1.0
 40
1.0
 40
1.0
 40
1.0
 10
69.082396867
 20
117.6503354476
 30
0.0
 10
69.4479459771
 20
117.4392903449
 30
0.0
 10
70.1454206353
 20
116.8675266899
 30
0.0
 10
70.6928541099
 20
116.1580042776
 30
0.0
 10
70.9398962386
 20
115.7613533619
 30
0.0
  0
SPLINE
  5
488
100
AcDbEntity
  8
0
100
AcDbSpline
 62
7
  6
BYLAYER
 70
0
 71
3
 72
11
 73
7
 74
0
 42
0.0000001
 43
0.0000001
 44
0.0000000001
 40
0.0
 40
0.0
 40
0.0
 40
0.0
 40
0.2485777825
 40
0.5227953902
 40
0.7840635103
 40
1.0
 40
1.0
 40
1.0
 40
1.0
 10
46.8790431594
 20
159.7403846328
 30
0.0
 10
47.0614404455
 20
159.8456911265
 30
0.0
 10
47.4920121223
 20
159.9856179129
 30
0.0
 10
48.1624969556
 20
160.0136944671
 30
0.0
 10
48.7907112202
 20
159.8775231892
 30
0.0
 10
49.151127589
 20
159.6612808203
 30
0.0
 10
49.2729827353
 20
159.5248078814
 30
0.0
  0
SPLINE
  5
489
100
AcDbEntity
  8
0
100
AcDbSpline
 62
7
  6
BYLAYER
 70
0
 71
3
 72
9
 73
5
 74
0
 42
0.0000001
 43
0.0000001
 44
0.0000000001
 40
0.0
 40
0.0
 40
0.0
 40
0.0
 40
0.2589748789
 40
1.0
 40
1.0
 40
1.0
 40
1.0
 10
49.2729827353
 20
159.5248078814
 30
0.0
 10
49.2825182253
 20
159.5141285102
 30
0.0
 10
49.318274628
 20
159.4719652262
 30
0.0
 10
49.3496007261
 20
159.4259578345
 30
0.0
 10
49.3693433496
 20
159.3900627787
 30
0.0
  0
SPLINE
  5
48A
100
AcDbEntity
  8
0
100
AcDbSpline
 62
7
  6
BYLAYER
 70
0
 71
3
 72
14
 73
10
 74
0
 42
0.0000001
 43
0.0000001
 44
0.0000000001
 40
0.0
 40
0.0
 40
0.0
 40
0.0
 40
0.3051025468
 40
0.4493763386
 40
0.5833673271
 40
0.7047849218
 40
0.8130513588
 40
0.9099285237
 40
1.0
 40
1.0
 40
1.0
 40
1.0
 10
70.9398962386
 20
115.7613533619
 30
0.0
 10
71.2194018598
 20
115.312579053
 30
0.0
 10
71.5583228003
 20
114.6004008214
 30
0.0
 10
71.8138270564
 20
113.6200401695
 30
0.0
 10
71.8924098196
 20
112.9290569678
 30
0.0
 10
71.8574246855
 20
112.2962380971
 30
0.0
 10
71.7079408077
 20
111.7449643945
 30
0.0
 10
71.4450240872
 20
111.297614865
 30
0.0
 10
71.1925636042
 20
111.0823759824
 30
0.0
 10
71.0573745495
 20
111.0043688565
 30
0.0
  0
SPLINE
  5
48B
100
AcDbEntity
  8
0
100
AcDbSpline
 62
7
  6
BYLAYER
 70
0
 71
3
 72
9
 73
5
 74
0
 42
0.0000001
 43
0.0000001
 44
0.0000000001
 40
0.0
 40
0.0
 40
0.0
 40
0.0
 40
0.476459222
 40
1.0
 40
1.0
 40
1.0
 40
1.0
 10
76.5777252147
 20
114.9150598615
 30
0.0
 10
76.5777252147
 20
115.3025210075
 30
0.0
 10
76.4732154747
 20
116.1164805794
 30
0.0
 10
76.2185288616
 20
116.8933168467
 30
0.0
 10
76.053727165
 20
117.2858751565
 30
0.0
  0
SPLINE
  5
48C
100
AcDbEntity
  8
0
100
AcDbSpline
 62
7
  6
BYLAYER
 70
0
 71
3
 72
9
 73
5
 74
0
 42
0.0000001
 43
0.0000001
 44
0.0000000001
 40
0.0
 40
0.0
 40
0.0
 40
0.0
 40
0.2546472994
 40
1.0
 40
1.0
 40
1.0
 40
1.0
 10
72.0522329833
 20
119.3649608938
 30
0.0
 10
72.0291924644
 20
119.3782630427
 30
0.0
 10
71.9381502314
 20
119.4295178671
 30
0.0
 10
71.8448469618
 20
119.4767801407
 30
0.0
 10
71.7741431271
 20
119.5094149793
 30
0.0
  0
SPLINE
  5
48D
100
AcDbEntity
  8
0
100
AcDbSpline
 62
7
  6
BYLAYER
 70
0
 71
3
 72
11
 73
7
 74
0
 42
0.0000001
 43
0.0000001
 44
0.0000000001
 40
0.0
 40
0.0
 40
0.0
 40
0.0
 40
0.2839407904
 40
0.5410981828
 40
0.7766608874
 40
1.0
 40
1.0
 40
1.0
 40
1.0
 10
71.7741431271
 20
119.5094149793
 30
0.0
 10
71.6228356849
 20
119.5792541042
 30
0.0
 10
71.3232912799
 20
119.6905017785
 30
0.0
 10
70.8694310857
 20
119.7620419129
 30
0.0
 10
70.4460563407
 20
119.7255258746
 30
0.0
 10
70.1907616773
 20
119.6261195479
 30
0.0
 10
70.0772491521
 20
119.5605691255
 30
0.0
  0
SPLINE
  5
48E
100
AcDbEntity
  8
0
100
AcDbSpline
 62
7
  6
BYLAYER
 70
0
 71
3
 72
9
 73
5
 74
0
 42
0.0000001
 43
0.0000001
 44
0.0000000001
 40
0.0
 40
0.0
 40
0.0
 40
0.0
 40
0.2555298667
 40
1.0
 40
1.0
 40
1.0
 40
1.0
 10
72.4031399444
 20
119.1368153507
 30
0.0
 10
72.3742497672
 20
119.1577189705
 30
0.0
 10
72.260209621
 20
119.2381550727
 30
0.0
 10
72.1422064767
 20
119.3130158483
 30
0.0
 10
72.0522329833
 20
119.3649608938
 30
0.0
  0
SPLINE
  5
48F
100
AcDbEntity
  8
0
100
AcDbSpline
 62
7
  6
BYLAYER
 70
0
 71
3
 72
15
 73
11
 74
0
 42
0.0000001
 43
0.0000001
 44
0.0000000001
 40
0.0
 40
0.0
 40
0.0
 40
0.0
 40
0.1141545727
 40
0.2373261359
 40
0.366975604
 40
0.4999994966
 40
0.6330234588
 40
0.7626731321
 40
0.8858450149
 40
1.0
 40
1.0
 40
1.0
 40
1.0
 10
125.5802098419
 20
139.0836036733
 30
0.0
 10
125.1179230979
 20
138.8167038904
 30
0.0
 10
124.1070496029
 20
138.3459785273
 30
0.0
 10
122.4609003384
 20
137.8456477117
 30
0.0
 10
120.6786859552
 20
137.5376748595
 30
0.0
 10
118.8273512301
 20
137.4337657921
 30
0.0
 10
116.9760150581
 20
137.5376661183
 30
0.0
 10
115.1937964227
 20
137.8456305486
 30
0.0
 10
113.5476402266
 20
138.3459535152
 30
0.0
 10
112.5367606602
 20
138.816673796
 30
0.0
 10
112.0744703213
 20
139.0835712095
 30
0.0
  0
SPLINE
  5
490
100
AcDbEntity
  8
0
100
AcDbSpline
 62
7
  6
BYLAYER
 70
0
 71
3
 72
11
 73
7
 74
0
 42
0.0000001
 43
0.0000001
 44
0.0000000001
 40
0.0
 40
0.0
 40
0.0
 40
0.0
 40
0.2898022491
 40
0.549052252
 40
0.7822298681
 40
1.0
 40
1.0
 40
1.0
 40
1.0
 10
104.2962633445
 20
143.5742195094
 30
0.0
 10
103.877067662
 20
143.8162367743
 30
0.0
 10
103.1166757459
 20
144.3396478004
 30
0.0
 10
102.2083544382
 20
145.2948488507
 30
0.0
 10
101.6333742342
 20
146.3509340996
 30
0.0
 10
101.4991213025
 20
147.1092202131
 30
0.0
 10
101.4991212939
 20
147.4729511787
 30
0.0
  0
SPLINE
  5
491
100
AcDbEntity
  8
0
100
AcDbSpline
 62
7
  6
BYLAYER
 70
0
 71
3
 72
11
 73
7
 74
0
 42
0.0000001
 43
0.0000001
 44
0.0000000001
 40
0.0
 40
0.0
 40
0.0
 40
0.0
 40
0.2372436391
 40
0.5000005261
 40
0.7627571268
 40
1.0
 40
1.0
 40
1.0
 40
1.0
 10
77.0019845731
 20
137.6138140705
 30
0.0
 10
76.9417501364
 20
137.648589652
 30
0.0
 10
76.8016756869
 20
137.6993289931
 30
0.0
 10
76.5777198373
 20
137.7236402715
 30
0.0
 10
76.3537643258
 20
137.699327971
 30
0.0
 10
76.2136904271
 20
137.6485879345
 30
0.0
 10
76.1534564357
 20
137.6138120309
 30
0.0
  0
SPLINE
  5
492
100
AcDbEntity
  8
0
100
AcDbSpline
 62
7
  6
BYLAYER
 70
0
 71
3
 72
11
 73
7
 74
0
 42
0.0000001
 43
0.0000001
 44
0.0000000001
 40
0.0
 40
0.0
 40
0.0
 40
0.0
 40
0.282519809
 40
0.5420969382
 40
0.7797729858
 40
1.0
 40
1.0
 40
1.0
 40
1.0
 10
75.3756486914
 20
114.2210447999
 30
0.0
 10
75.3756486914
 20
114.0329745822
 30
0.0
 10
75.3527275797
 20
113.6714324446
 30
0.0
 10
75.2400452007
 20
113.1622250172
 30
0.0
 10
75.0515654298
 20
112.7200258422
 30
0.0
 10
74.8712950588
 20
112.470009847
 30
0.0
 10
74.7709701286
 20
112.3631116017
 30
0.0
  0
SPLINE
  5
493
100
AcDbEntity
  8
0
100
AcDbSpline
 62
7
  6
BYLAYER
 70
0
 71
3
 72
9
 73
5
 74
0
 42
0.0000001
 43
0.0000001
 44
0.0000000001
 40
0.0
 40
0.0
 40
0.0
 40
0.0
 40
0.2535402936
 40
1.0
 40
1.0
 40
1.0
 40
1.0
 10
74.7709701286
 20
112.3631116017
 30
0.0
 10
74.7436518649
 20
112.3340034384
 30
0.0
 10
74.6319626116
 20
112.2229718426
 30
0.0
 10
74.5040028528
 20
112.1282203128
 30
0.0
 10
74.402219652
 20
112.0694558358
 30
0.0
  0
SPLINE
  5
494
100
AcDbEntity
  8
0
100
AcDbSpline
 62
7
  6
BYLAYER
 70
0
 71
3
 72
9
 73
5
 74
0
 42
0.0000001
 43
0.0000001
 44
0.0000000001
 40
0.0
 40
0.0
 40
0.0
 40
0.0
 40
0.523540785
 40
1.0
 40
1.0
 40
1.0
 40
1.0
 10
74.8516506946
 20
116.591859615
 30
0.0
 10
75.0164523617
 20
116.1993013755
 30
0.0
 10
75.2711390717
 20
115.4224653001
 30
0.0
 10
75.3756486914
 20
114.6085058656
 30
0.0
 10
75.3756486914
 20
114.2210447999
 30
0.0
  0
SPLINE
  5
495
100
AcDbEntity
  8
0
100
AcDbSpline
 62
7
  6
BYLAYER
 70
0
 71
3
 72
9
 73
5
 74
0
 42
0.0000001
 43
0.0000001
 44
0.0000000001
 40
0.0
 40
0.0
 40
0.0
 40
0.0
 40
0.2316470744
 40
1.0
 40
1.0
 40
1.0
 40
1.0
 10
74.818202782
 20
116.7431911547
 30
0.0
 10
74.818202782
 20
116.7311789351
 30
0.0
 10
74.8215112681
 20
116.679332476
 30
0.0
 10
74.8362276748
 20
116.6285969646
 30
0.0
 10
74.8516506946
 20
116.591859615
 30
0.0
  0
SPLINE
  5
496
100
AcDbEntity
  8
0
100
AcDbSpline
 62
7
  6
BYLAYER
 70
0
 71
3
 72
9
 73
5
 74
0
 42
0.0000001
 43
0.0000001
 44
0.0000000001
 40
0.0
 40
0.0
 40
0.0
 40
0.0
 40
0.2245242948
 40
1.0
 40
1.0
 40
1.0
 40
1.0
 10
74.846623204
 20
116.8492583503
 30
0.0
 10
74.8418531412
 20
116.8424721309
 30
0.0
 10
74.8237378247
 20
116.8100149819
 30
0.0
 10
74.818202782
 20
116.7718407752
 30
0.0
 10
74.818202782
 20
116.7431911547
 30
0.0
  0
SPLINE
  5
497
100
AcDbEntity
  8
0
100
AcDbSpline
 62
7
  6
BYLAYER
 70
0
 71
3
 72
9
 73
5
 74
0
 42
0.0000001
 43
0.0000001
 44
0.0000000001
 40
0.0
 40
0.0
 40
0.0
 40
0.0
 40
0.2667980935
 40
1.0
 40
1.0
 40
1.0
 40
1.0
 10
76.053727165
 20
117.2858751565
 30
0.0
 10
76.0483736151
 20
117.2986272139
 30
0.0
 10
76.0303472176
 20
117.3471881031
 30
0.0
 10
76.0202793053
 20
117.3991986119
 30
0.0
 10
76.0202793053
 20
117.4372062163
 30
0.0
  0
SPLINE
  5
498
100
AcDbEntity
  8
0
100
AcDbSpline
 62
7
  6
BYLAYER
 70
0
 71
3
 72
9
 73
5
 74
0
 42
0.0000001
 43
0.0000001
 44
0.0000000001
 40
0.0
 40
0.0
 40
0.0
 40
0.0
 40
0.5545155086
 40
1.0
 40
1.0
 40
1.0
 40
1.0
 10
72.2037401004
 20
119.8858772404
 30
0.0
 10
72.2298671877
 20
119.8694163295
 30
0.0
 10
72.2820251444
 20
119.8451828739
 30
0.0
 10
72.3419245642
 20
119.8527790076
 30
0.0
 10
72.36339446
 20
119.8652088371
 30
0.0
  0
SPLINE
  5
499
100
AcDbEntity
  8
0
100
AcDbSpline
 62
7
  6
BYLAYER
 70
0
 71
3
 72
11
 73
7
 74
0
 42
0.0000001
 43
0.0000001
 44
0.0000000001
 40
0.0
 40
0.0
 40
0.0
 40
0.0
 40
0.2895468475
 40
0.5491384346
 40
0.782278826
 40
1.0
 40
1.0
 40
1.0
 40
1.0
 10
46.8790431594
 20
160.2302860831
 30
0.0
 10
46.8132620273
 20
160.1923075555
 30
0.0
 10
46.6938895673
 20
160.1099960434
 30
0.0
 10
46.551094078
 20
159.9600861613
 30
0.0
 10
46.4607714652
 20
159.7941219815
 30
0.0
 10
46.4397704704
 20
159.6750402129
 30
0.0
 10
46.4397694293
 20
159.6179249882
 30
0.0
  0
SPLINE
  5
49A
100
AcDbEntity
  8
0
100
AcDbSpline
 62
7
  6
BYLAYER
 70
0
 71
3
 72
9
 73
5
 74
0
 42
0.0000001
 43
0.0000001
 44
0.0000000001
 40
0.0
 40
0.0
 40
0.0
 40
0.0
 40
0.5227767983
 40
1.0
 40
1.0
 40
1.0
 40
1.0
 10
75.0378222023
 20
117.6111726426
 30
0.0
 10
75.0702538788
 20
117.5708274469
 30
0.0
 10
75.1205465942
 20
117.4839065363
 30
0.0
 10
75.1438886611
 20
117.3850567041
 30
0.0
 10
75.1438886611
 20
117.3378029787
 30
0.0
  0
SPLINE
  5
49B
100
AcDbEntity
  8
0
100
AcDbSpline
 62
7
  6
BYLAYER
 70
0
 71
3
 72
9
 73
5
 74
0
 42
0.0000001
 43
0.0000001
 44
0.0000000001
 40
0.0
 40
0.0
 40
0.0
 40
0.0
 40
0.2798196104
 40
1.0
 40
1.0
 40
1.0
 40
1.0
 10
75.1438886611
 20
117.3378029787
 30
0.0
 10
75.1438886611
 20
117.3274784667
 30
0.0
 10
75.141937226
 20
117.2907541994
 30
0.0
 10
75.130748922
 20
117.2534751335
 30
0.0
 10
75.1154682391
 20
117.2317357833
 30
0.0
  0
ENDSEC
  0
SECTION
  2
OBJECTS
  0
DICTIONARY
  5
C
100
AcDbDictionary
280
0
281
1
  3
ACAD_GROUP
350
D
  3
ACAD_MLINESTYLE
350
17
  3
ACAD_LAYOUT
350
1A
  3
ACAD_PLOTSETTINGS
350
19
  3
ACAD_PLOTSTYLENAME
350
E
  0
DICTIONARY
  5
D
102
{ACAD_REACTORS
330
C
102
}
100
AcDbDictionary
280
0
281
1
  0
ACDBDICTIONARYWDFLT
  5
E
102
{ACAD_REACTORS
330
C
102
}
100
AcDbDictionary
281
1
  3
Normal
350
F
100
AcDbDictionaryWithDefault
340
F
  0
DICTIONARY
  5
17
102
{ACAD_REACTORS
330
C
102
}
100
AcDbDictionary
280
0
281
1
  3
Standard
350
18
  0
DICTIONARY
  5
19
102
{ACAD_REACTORS
330
C
102
}
100
AcDbDictionary
281
1
  0
DICTIONARY
  5
1A
102
{ACAD_REACTORS
330
C
102
}
100
AcDbDictionary
281
1
  3
Model
350
49C
  3
Layout1
350
49D
  0
ACDBPLACEHOLDER
  5
F
102
{ACAD_REACTORS
330
E
102
}
  0
MLINESTYLE
  5
18
102
{ACAD_REACTORS
330
17
102
}
100
AcDbMlineStyle
  2
STANDARD
 70
0
  3

 62
256
 51
90.0
 52
90.0
 71
2
 49
0.5
 62
256
  6
BYLAYER
 49
-0.5
 62
256
  6
BYLAYER
  0
LAYOUT
  5
49C
102
{ACAD_REACTORS
330
1A
102
}
100
AcDbPlotSettings
  1

  2
none_device
  4

  6

 40
0.0
 41
0.0
 42
0.0
 43
0.0
 44
210.0
 45
297.0
 46
0.0
 47
0.0
 48
0.0
 49
0.0
140
0.0
141
0.0
142
1.0
143
1.0
 70
1024
 72
1
 73
0
 74
0
  7

 75
0
147
1.0
148
0.0
149
0.0
100
AcDbLayout
  1
Model
 70
0
 71
0
 10
0.0
 20
0.0
 11
210.0
 21
297.0
 12
0.0
 22
0.0
 32
0.0
 14
0.0
 24
0.0
 34
0.0
 15
0.0
 25
0.0
 35
0.0
146
0.0
 13
0.0
 23
0.0
 33
0.0
 16
1.0
 26
0.0
 36
0.0
 17
0.0
 27
1.0
 37
0.0
 76
0
330
210
345
0
346
0
  0
LAYOUT
  5
49D
102
{ACAD_REACTORS
330
1A
102
}
100
AcDbPlotSettings
  1

  2
none_device
  4

  6

 40
0.0
 41
0.0
 42
0.0
 43
0.0
 44
210.0
 45
297.0
 46
0.0
 47
0.0
 48
0.0
 49
0.0
140
0.0
141
0.0
142
1.0
143
1.0
 70
0
 72
1
 73
0
 74
0
  7

 75
0
147
1.0
148
0.0
149
0.0
100
AcDbLayout
  1
Layout1
 70
0
 71
1
 10
0.0
 20
0.0
 11
210.0
 21
297.0
 12
0.0
 22
0.0
 32
0.0
 14
0.0
 24
0.0
 34
0.0
 15
0.0
 25
0.0
 35
0.0
146
0.0
 13
0.0
 23
0.0
 33
0.0
 16
1.0
 26
0.0
 36
0.0
 17
0.0
 27
1.0
 37
0.0
 76
0
330
211
345
0
346
0
  0
ENDSEC
  0
EOF
