999
DXF file: C:\Users\sesa63760\Dev\_Creo\CAD\MCADID0004250_3D-CAD\drw0001_6.dxf
999
Pro/ENGINEER 2019471 by Parametric Technology Corporation
  0
SECTION
  2
HEADER
  9
$ACADVER
  1
AC1024
  9
$DWGCODEPAGE
  3
ANSI_1252
  9
$EXTMAX
 10
1477.3109256922
 20
2089.3397377647
 30
0.0
  9
$EXTMIN
 10
0.0
 20
0.0
 30
0.0
  9
$LIMMIN
 10
0.0
 20
0.0
  9
$LIMMAX
 10
1477.3109256922
 20
2089.3397377647
  9
$VIEWCTR
 10
738.6554628461
 20
1044.6698688824
  9
$VIEWSIZE
 40
2089.3397377647
  9
$CLAYER
  8
0
  9
$LTSCALE
 40
136.193997721
  9
$CELTYPE
  6
BYLAYER
  9
$DIMSCALE
 40
1.0
  9
$DIMASZ
 40
17.5870348297
  9
$DIMEXO
 40
1.0
  9
$DIMDLI
 40
94.0976711527
  9
$DIMEXE
 40
1.0
  9
$DIMCEN
 40
22.2862905362
  9
$DIMLFAC
 40
1.0
  9
$DIMBLK
  1
_FILLED
  9
$DIMALT
 70
0
  9
$DIMALTF
 40
0.0393700787
  9
$DIMTXT
 40
24.6218487615
  9
$DIMTOL
 70
1
  9
$DIMLIM
 70
0
  9
$DIMTFAC
 40
1.0
  9
$DIMTP
 40
0.01
  9
$DIMTM
 40
0.01
  9
$DIMGAP
 40
0.625
  9
$DIMDSEP
 70
46
  9
$AUNITS
 70
0
  9
$PDMODE
 70
3
  9
$PDSIZE
 40
0.3125
  9
$HANDSEED
  5
333
  9
$TILEMODE
 70
1
  9
$MEASUREMENT
 70
1
  9
$INSUNITS
 70
4
  0
ENDSEC
  0
SECTION
  2
CLASSES
  0
CLASS
  1
ACDBDICTIONARYWDFLT
  2
AcDbDictionaryWithDefault
  3
AutoCAD 2000
 90
0
 91
1
280
0
281
0
  0
CLASS
  1
ACDBPLACEHOLDER
  2
AcDbPlaceHolder
  3
AutoCAD 2000
 90
0
 91
1
280
0
281
0
  0
CLASS
  1
LAYOUT
  2
AcDbLayout
  3
AutoCAD 2000
 90
0
 91
0
280
0
281
0
  0
ENDSEC
  0
SECTION
  2
TABLES
  0
TABLE
  2
VPORT
  5
8
100
AcDbSymbolTable
 70
2
  0
VPORT
  5
1F4
100
AcDbSymbolTableRecord
100
AcDbViewportTableRecord
  2
*ACTIVE
 70
0
 10
0.0
 20
0.0
 11
1.0
 21
1.0
 12
738.6554628461
 22
1044.6698688824
 13
0.0
 23
0.0
 14
1.0
 24
1.0
 15
0.0
 25
0.0
 16
0.0
 26
0.0
 36
1.0
 17
0.0
 27
0.0
 37
0.0
 40
2089.3397377647
 41
0.7070707071
 42
50.0
 43
0.0
 44
0.0
 50
0.0
 51
0.0
 71
0
 72
100
 73
1
 74
1
 75
0
 76
0
 77
0
 78
0
  0
ENDTAB
  0
TABLE
  2
LTYPE
  5
5
100
AcDbSymbolTable
 70
6
  0
LTYPE
  5
14
100
AcDbSymbolTableRecord
100
AcDbLinetypeTableRecord
  2
BYBLOCK
 70
0
  3

 72
65
 73
0
 40
0.0
  0
LTYPE
  5
15
100
AcDbSymbolTableRecord
100
AcDbLinetypeTableRecord
  2
BYLAYER
 70
0
  3

 72
65
 73
0
 40
0.0
  0
LTYPE
  5
16
100
AcDbSymbolTableRecord
100
AcDbLinetypeTableRecord
  2
CONTINUOUS
 70
64
  3
Solid line
 72
65
 73
0
 40
0.0
  0
LTYPE
  5
1F5
100
AcDbSymbolTableRecord
100
AcDbLinetypeTableRecord
  2
CENTER
 70
64
  3
____ _ ____ _ ____ _ ____ _ ____ _ ____ _ ____
 72
65
 73
4
 40
0.6
 49
0.375
 74
0
 49
-0.075
 74
0
 49
0.075
 74
0
 49
-0.075
 74
0
  0
LTYPE
  5
1F6
100
AcDbSymbolTableRecord
100
AcDbLinetypeTableRecord
  2
HIDDEN
 70
64
  3
- - - - - - - - - - - - - - - - - - - -
 72
65
 73
2
 40
0.2
 49
0.1
 74
0
 49
-0.1
 74
0
  0
LTYPE
  5
1F7
100
AcDbSymbolTableRecord
100
AcDbLinetypeTableRecord
  2
PHANTOM
 70
64
  3
_____ _ _ _____ _ _ _____ _ _ _____
 72
65
 73
6
 40
0.8
 49
0.45
 74
0
 49
-0.05
 74
0
 49
0.1
 74
0
 49
-0.05
 74
0
 49
0.1
 74
0
 49
-0.05
 74
0
  0
LTYPE
  5
1F8
100
AcDbSymbolTableRecord
100
AcDbLinetypeTableRecord
  2
DOT
 70
64
  3
. . . . . . . . . . . . . . . . . . . .
 72
65
 73
2
 40
0.2
 49
0.1
 74
0
 49
-0.1
 74
0
  0
LTYPE
  5
1F9
100
AcDbSymbolTableRecord
100
AcDbLinetypeTableRecord
  2
DASHED
 70
64
  3
- - - - - - - - - - - - - - - - - - - -
 72
65
 73
2
 40
0.2
 49
0.1
 74
0
 49
-0.1
 74
0
  0
ENDTAB
  0
TABLE
  2
LAYER
  5
2
100
AcDbSymbolTable
 70
36
  0
LAYER
  5
10
100
AcDbSymbolTableRecord
100
AcDbLayerTableRecord
  2
0
 70
0
 62
7
  6
CONTINUOUS
370
-3
390
F
  0
LAYER
  5
1FA
100
AcDbSymbolTableRecord
100
AcDbLayerTableRecord
  2
DEFAULT_1
 70
0
 62
7
  6
CENTER
370
-3
390
F
  0
LAYER
  5
1FB
100
AcDbSymbolTableRecord
100
AcDbLayerTableRecord
  2
DEFAULT_2
 70
0
 62
7
  6
HIDDEN
370
-3
390
F
  0
LAYER
  5
1FC
100
AcDbSymbolTableRecord
100
AcDbLayerTableRecord
  2
DEFAULT_3
 70
0
 62
7
  6
PHANTOM
370
-3
390
F
  0
LAYER
  5
1FD
100
AcDbSymbolTableRecord
100
AcDbLayerTableRecord
  2
00_COMPONENTS
 70
0
 62
7
  6
CONTINUOUS
370
-3
390
F
  0
LAYER
  5
1FE
100
AcDbSymbolTableRecord
100
AcDbLayerTableRecord
  2
01_1_DEFAULT_DATUMS
 70
0
 62
7
  6
CONTINUOUS
370
-3
390
F
  0
LAYER
  5
1FF
100
AcDbSymbolTableRecord
100
AcDbLayerTableRecord
  2
01_PLANES
 70
0
 62
7
  6
CONTINUOUS
370
-3
390
F
  0
LAYER
  5
200
100
AcDbSymbolTableRecord
100
AcDbLayerTableRecord
  2
02_COORD_SYS
 70
0
 62
7
  6
CONTINUOUS
370
-3
390
F
  0
LAYER
  5
201
100
AcDbSymbolTableRecord
100
AcDbLayerTableRecord
  2
03_AXES
 70
0
 62
7
  6
CONTINUOUS
370
-3
390
F
  0
LAYER
  5
202
100
AcDbSymbolTableRecord
100
AcDbLayerTableRecord
  2
04_POINTS
 70
0
 62
7
  6
CONTINUOUS
370
-3
390
F
  0
LAYER
  5
203
100
AcDbSymbolTableRecord
100
AcDbLayerTableRecord
  2
05_CURVES
 70
0
 62
7
  6
CONTINUOUS
370
-3
390
F
  0
LAYER
  5
204
100
AcDbSymbolTableRecord
100
AcDbLayerTableRecord
  2
06_SURFS
 70
0
 62
7
  6
CONTINUOUS
370
-3
390
F
  0
LAYER
  5
205
100
AcDbSymbolTableRecord
100
AcDbLayerTableRecord
  2
07_COSMETICS
 70
0
 62
7
  6
CONTINUOUS
370
-3
390
F
  0
LAYER
  5
206
100
AcDbSymbolTableRecord
100
AcDbLayerTableRecord
  2
10_NOTES
 70
0
 62
7
  6
CONTINUOUS
370
-3
390
F
  0
LAYER
  5
207
100
AcDbSymbolTableRecord
100
AcDbLayerTableRecord
  2
11_NOTES_PUB
 70
0
 62
7
  6
CONTINUOUS
370
-3
390
F
  0
LAYER
  5
208
100
AcDbSymbolTableRecord
100
AcDbLayerTableRecord
  2
13_REF_GTOL
 70
0
 62
7
  6
CONTINUOUS
370
-3
390
F
  0
LAYER
  5
209
100
AcDbSymbolTableRecord
100
AcDbLayerTableRecord
  2
16_MISC
 70
0
 62
7
  6
CONTINUOUS
370
-3
390
F
  0
LAYER
  5
20A
100
AcDbSymbolTableRecord
100
AcDbLayerTableRecord
  2
17_NO_PRINT
 70
0
 62
7
  6
CONTINUOUS
370
-3
390
F
  0
LAYER
  5
20B
100
AcDbSymbolTableRecord
100
AcDbLayerTableRecord
  2
18_DATUM_CAMS_JOINTS
 70
0
 62
7
  6
CONTINUOUS
370
-3
390
F
  0
LAYER
  5
20C
100
AcDbSymbolTableRecord
100
AcDbLayerTableRecord
  2
19_DATUM_FUNCTIONAL
 70
0
 62
7
  6
CONTINUOUS
370
-3
390
F
  0
LAYER
  5
20D
100
AcDbSymbolTableRecord
100
AcDbLayerTableRecord
  2
20_DATUM_KINEMATIC_SCHEME
 70
0
 62
7
  6
CONTINUOUS
370
-3
390
F
  0
LAYER
  5
20E
100
AcDbSymbolTableRecord
100
AcDbLayerTableRecord
  2
3
 70
0
 62
7
  6
CONTINUOUS
370
-3
390
F
  0
LAYER
  5
20F
100
AcDbSymbolTableRecord
100
AcDbLayerTableRecord
  2
4
 70
0
 62
7
  6
CONTINUOUS
370
-3
390
F
  0
ENDTAB
  0
TABLE
  2
STYLE
  5
3
100
AcDbSymbolTable
 70
1
  0
STYLE
  5
11
100
AcDbSymbolTableRecord
100
AcDbTextStyleTableRecord
  2
STANDARD
 70
0
 40
0.0
 41
1.0
 50
0.0
 71
0
 42
0.2
  3
ARIAL.TTF
  4

  0
STYLE
  5
210
100
AcDbSymbolTableRecord
100
AcDbTextStyleTableRecord
  2
TEXTSTYLE_1
 70
0
 40
0.0
 41
0.8
 50
0.0
 71
0
 42
0.2
  3
gdt
  4

  0
ENDTAB
  0
TABLE
  2
VIEW
  5
6
100
AcDbSymbolTable
 70
0
  0
ENDTAB
  0
TABLE
  2
UCS
  5
7
100
AcDbSymbolTable
 70
0
  0
ENDTAB
  0
TABLE
  2
APPID
  5
9
100
AcDbSymbolTable
 70
1
  0
APPID
  5
211
100
AcDbSymbolTableRecord
100
AcDbRegAppTableRecord
  2
ACAD
 70
0
  0
ENDTAB
  0
TABLE
  2
BLOCK_RECORD
  5
1
100
AcDbSymbolTable
 70
0
  0
BLOCK_RECORD
  5
212
100
AcDbSymbolTableRecord
100
AcDbBlockTableRecord
  2
*Model_Space
  0
BLOCK_RECORD
  5
213
100
AcDbSymbolTableRecord
100
AcDbBlockTableRecord
  2
*Paper_Space
  0
BLOCK_RECORD
  5
214
100
AcDbSymbolTableRecord
100
AcDbBlockTableRecord
  2
_FILLED
  0
ENDTAB
  0
TABLE
  2
DIMSTYLE
  5
A
100
AcDbSymbolTable
 70
1
100
AcDbDimStyleTable
 71
0
  0
DIMSTYLE
105
215
100
AcDbSymbolTableRecord
100
AcDbDimStyleTableRecord
  2
STANDARD
 70
0
  3

  4

 40
1.0
 41
17.5870348297
 42
1.0
 43
0.38
 44
1.0
 45
0.0
 46
0.0
 47
0.01
 48
0.01
140
24.6218487615
141
0.09
142
0.0
143
25.4
144
1.0
145
0.0
146
1.0
147
0.625
 71
1
 72
0
 73
0
 74
0
 75
0
 76
0
 77
1
 78
8
 79
2
170
0
171
1
172
0
173
0
174
0
175
0
176
0
177
0
178
0
270
2
179
2
271
2
272
2
273
2
274
2
275
0
280
0
281
0
282
0
283
1
284
8
285
0
286
0
287
3
288
0
340
11
278
46
341
214
342
214
343
214
344
214
  0
ENDTAB
  0
ENDSEC
  0
SECTION
  2
BLOCKS
  0
BLOCK
  5
20
100
AcDbEntity
  8
0
100
AcDbBlockBegin
  2
*Model_Space
 70
0
 10
0.0
 20
0.0
 30
0.0
  3
*Model_Space
  1

  0
ENDBLK
  5
21
100
AcDbEntity
  8
0
100
AcDbBlockEnd
  0
BLOCK
  5
1C
100
AcDbEntity
  8
0
100
AcDbBlockBegin
  2
*Paper_Space
 70
0
 10
0.0
 20
0.0
 30
0.0
  3
*Paper_Space
  1

  0
ENDBLK
  5
1D
100
AcDbEntity
  8
0
100
AcDbBlockEnd
  0
BLOCK
  5
216
100
AcDbEntity
  8
0
100
AcDbBlockBegin
  2
_FILLED
 70
64
 10
0.0
 20
0.0
  3
_FILLED
  1

  0
SOLID
  5
217
100
AcDbEntity
  8
0
  6
BYBLOCK
 62
0
100
AcDbTrace
 10
0.0
 20
0.0
 11
-1.0
 21
0.25
 12
-1.0
 22
-0.25
 13
-1.0
 23
-0.25
  0
ENDBLK
  5
218
100
AcDbEntity
  8
0
  6
BYBLOCK
 62
0
100
AcDbBlockEnd
  0
ENDSEC
  0
SECTION
  2
ENTITIES
  0
LINE
  5
219
100
AcDbEntity
  8
0
100
AcDbLine
 62
7
  6
BYLAYER
 10
751.6260730696
 20
172.6198681752
 11
747.0262497673
 21
172.6198681752
  0
LINE
  5
21A
100
AcDbEntity
  8
0
100
AcDbLine
 62
7
  6
BYLAYER
 10
711.6260849484
 20
172.6198681752
 11
707.0262616461
 21
172.6198681752
  0
LINE
  5
21B
100
AcDbEntity
  8
0
100
AcDbLine
 62
7
  6
BYLAYER
 10
706.6533833866
 20
172.7197580367
 11
699.8261656687
 21
172.7197580367
  0
LINE
  5
21C
100
AcDbEntity
  8
0
100
AcDbLine
 62
7
  6
BYLAYER
 10
711.9989717085
 20
172.7197580367
 11
746.6533715077
 21
172.7197580367
  0
LINE
  5
21D
100
AcDbEntity
  8
0
100
AcDbLine
 62
7
  6
BYLAYER
 10
751.9989598296
 20
172.7197580367
 11
752.8261656687
 21
172.7197580367
  0
LINE
  5
21E
100
AcDbEntity
  8
0
100
AcDbLine
 62
7
  6
BYLAYER
 10
730.4676138488
 20
173.2197580367
 11
722.1856820145
 21
173.2197580367
  0
LINE
  5
21F
100
AcDbEntity
  8
0
100
AcDbLine
 62
7
  6
BYLAYER
 10
752.6261656687
 20
173.6198681752
 11
746.0261656687
 21
173.6198681752
  0
LINE
  5
220
100
AcDbEntity
  8
0
100
AcDbLine
 62
7
  6
BYLAYER
 10
712.6261775475
 20
173.6198681752
 11
706.0261775475
 21
173.6198681752
  0
LINE
  5
221
100
AcDbEntity
  8
0
100
AcDbLine
 62
7
  6
BYLAYER
 10
753.8261656687
 20
173.7197580367
 11
752.6261656687
 21
173.7197580367
  0
LINE
  5
222
100
AcDbEntity
  8
0
100
AcDbLine
 62
7
  6
BYLAYER
 10
746.0261656687
 20
173.7197580367
 11
730.3261656687
 21
173.7197580433
  0
LINE
  5
223
100
AcDbEntity
  8
0
100
AcDbLine
 62
7
  6
BYLAYER
 10
722.3261656687
 20
173.7197580368
 11
712.6261775475
 21
173.7197580367
  0
LINE
  5
224
100
AcDbEntity
  8
0
100
AcDbLine
 62
7
  6
BYLAYER
 10
706.0261775475
 20
173.7197580367
 11
698.8261656687
 21
173.7197580367
  0
LINE
  5
225
100
AcDbEntity
  8
0
100
AcDbLine
 62
7
  6
BYLAYER
 10
705.4138504392
 20
174.7197580367
 11
706.0261775475
 21
174.7197580367
  0
LINE
  5
226
100
AcDbEntity
  8
0
100
AcDbLine
 62
7
  6
BYLAYER
 10
712.6261775475
 20
174.7197580367
 11
713.8261656687
 21
174.7197579796
  0
LINE
  5
227
100
AcDbEntity
  8
0
100
AcDbLine
 62
7
  6
BYLAYER
 10
744.8261656687
 20
174.7197579678
 11
746.0261656687
 21
174.7197580367
  0
LINE
  5
228
100
AcDbEntity
  8
0
100
AcDbLine
 62
7
  6
BYLAYER
 10
752.6261656687
 20
174.7197580367
 11
753.8261656687
 21
174.7197579677
  0
LINE
  5
229
100
AcDbEntity
  8
0
100
AcDbLine
 62
7
  6
BYLAYER
 10
746.3261656687
 20
175.2197580367
 11
753.3261656687
 21
175.2197580367
  0
LINE
  5
22A
100
AcDbEntity
  8
0
100
AcDbLine
 62
7
  6
BYLAYER
 10
705.7764121751
 20
175.2197580367
 11
712.3261656687
 21
175.2197580367
  0
LINE
  5
22B
100
AcDbEntity
  8
0
100
AcDbLine
 62
7
  6
BYLAYER
 10
753.8261656687
 20
175.7197580367
 11
746.3261656687
 21
175.7197580367
  0
LINE
  5
22C
100
AcDbEntity
  8
0
100
AcDbLine
 62
7
  6
BYLAYER
 10
712.3261656687
 20
175.7197580367
 11
703.9140839768
 21
175.7197580367
  0
LINE
  5
22D
100
AcDbEntity
  8
0
100
AcDbLine
 62
7
  6
BYLAYER
 10
698.8261656687
 20
190.2197580367
 11
730.3256668795
 21
190.2197580367
  0
LINE
  5
22E
100
AcDbEntity
  8
0
100
AcDbLine
 62
7
  6
BYLAYER
 10
730.3261656687
 20
190.2197580367
 11
753.8261656687
 21
190.2197580367
  0
LINE
  5
22F
100
AcDbEntity
  8
3
100
AcDbLine
 62
7
  6
BYLAYER
 10
698.8192994242
 20
190.2198809837
 11
753.8256841944
 21
190.2198809837
  0
LINE
  5
230
100
AcDbEntity
  8
4
100
AcDbLine
 62
7
  6
BYLAYER
 10
799.0675857465
 20
217.5680432984
 11
754.0675857465
 21
217.5680432984
  0
LINE
  5
231
100
AcDbEntity
  8
4
100
AcDbLine
 62
7
  6
BYLAYER
 10
782.3675857465
 20
224.3180432984
 11
795.8675857465
 21
224.3180432984
  0
LINE
  5
232
100
AcDbEntity
  8
4
100
AcDbLine
 62
7
  6
BYLAYER
 10
754.0675857465
 20
224.5680432984
 11
753.8256841944
 21
224.5680432984
  0
LINE
  5
233
100
AcDbEntity
  8
4
100
AcDbLine
 62
7
  6
BYLAYER
 10
754.0675857465
 20
230.5680432984
 11
753.8256841944
 21
230.5680432984
  0
LINE
  5
234
100
AcDbEntity
  8
4
100
AcDbLine
 62
7
  6
BYLAYER
 10
795.8675857465
 20
230.8180432984
 11
782.3675857465
 21
230.8180432984
  0
LINE
  5
235
100
AcDbEntity
  8
4
100
AcDbLine
 62
7
  6
BYLAYER
 10
782.3675857465
 20
254.3180432984
 11
795.8675857465
 21
254.3180432984
  0
LINE
  5
236
100
AcDbEntity
  8
4
100
AcDbLine
 62
7
  6
BYLAYER
 10
754.0675857465
 20
254.5680432984
 11
753.8256841944
 21
254.5680432984
  0
LINE
  5
237
100
AcDbEntity
  8
4
100
AcDbLine
 62
7
  6
BYLAYER
 10
754.0675857465
 20
260.5680432984
 11
753.8256841944
 21
260.5680432984
  0
LINE
  5
238
100
AcDbEntity
  8
4
100
AcDbLine
 62
7
  6
BYLAYER
 10
795.8675857465
 20
260.8180432984
 11
782.3675857465
 21
260.8180432984
  0
LINE
  5
239
100
AcDbEntity
  8
4
100
AcDbLine
 62
7
  6
BYLAYER
 10
754.0675857465
 20
267.5680432984
 11
799.0675857465
 21
267.5680432984
  0
LINE
  5
23A
100
AcDbEntity
  8
0
100
AcDbLine
 62
7
  6
BYLAYER
 10
710.3259243672
 20
1916.7198695895
 11
709.8259233835
 21
1916.2198687857
  0
LINE
  5
23B
100
AcDbEntity
  8
0
100
AcDbLine
 62
7
  6
BYLAYER
 10
708.5759249315
 20
1912.7198681752
 11
708.0759249315
 21
1912.2198681752
  0
LINE
  5
23C
100
AcDbEntity
  8
0
100
AcDbLine
 62
7
  6
BYLAYER
 10
708.5759249315
 20
1907.7198681752
 11
708.0759249315
 21
1907.2198681752
  0
LINE
  5
23D
100
AcDbEntity
  8
0
100
AcDbLine
 62
7
  6
BYLAYER
 10
723.5759249315
 20
1906.4198681752
 11
723.3759249315
 21
1906.2198681752
  0
LINE
  5
23E
100
AcDbEntity
  8
0
100
AcDbLine
 62
7
  6
BYLAYER
 10
731.0759249315
 20
1912.7198681752
 11
730.5759249315
 21
1912.2198681752
  0
LINE
  5
23F
100
AcDbEntity
  8
3
100
AcDbLine
 62
7
  6
BYLAYER
 10
698.8256668795
 20
1888.7198809837
 11
698.8256668795
 21
190.2198809837
  0
LINE
  5
240
100
AcDbEntity
  8
0
100
AcDbLine
 62
7
  6
BYLAYER
 10
698.8259249315
 20
1905.2198681752
 11
698.8259249315
 21
1888.7198681752
  0
LINE
  5
241
100
AcDbEntity
  8
0
100
AcDbLine
 62
7
  6
BYLAYER
 10
698.8261656687
 20
190.2197580367
 11
698.8261656687
 21
173.7197580367
  0
LINE
  5
242
100
AcDbEntity
  8
3
100
AcDbLine
 62
7
  6
BYLAYER
 10
700.2762246237
 20
190.2198809837
 11
700.2762246237
 21
1888.7198809837
  0
LINE
  5
243
100
AcDbEntity
  8
0
100
AcDbLine
 62
7
  6
BYLAYER
 10
700.2764826757
 20
1888.7198681752
 11
700.2764826757
 21
1905.2198681752
  0
LINE
  5
244
100
AcDbEntity
  8
0
100
AcDbLine
 62
7
  6
BYLAYER
 10
700.2767234129
 20
173.7197580367
 11
700.2767234129
 21
190.2197580367
  0
LINE
  5
245
100
AcDbEntity
  8
0
100
AcDbLine
 62
7
  6
BYLAYER
 10
703.9138432397
 20
1905.2198681752
 11
703.9138432397
 21
1903.2198681752
  0
LINE
  5
246
100
AcDbEntity
  8
0
100
AcDbLine
 62
7
  6
BYLAYER
 10
703.9140839768
 20
175.7197580367
 11
703.9140839768
 21
173.7197580367
  0
LINE
  5
247
100
AcDbEntity
  8
3
100
AcDbLine
 62
7
  6
BYLAYER
 10
704.479005047
 20
1888.7198809837
 11
704.479005047
 21
190.2198809837
  0
LINE
  5
248
100
AcDbEntity
  8
0
100
AcDbLine
 62
7
  6
BYLAYER
 10
704.4792630989
 20
1903.2198681752
 11
704.4792630989
 21
1888.7198681752
  0
LINE
  5
249
100
AcDbEntity
  8
0
100
AcDbLine
 62
7
  6
BYLAYER
 10
704.4795038361
 20
190.2197580367
 11
704.4795038361
 21
175.7197580367
  0
LINE
  5
24A
100
AcDbEntity
  8
0
100
AcDbLine
 62
7
  6
BYLAYER
 10
705.8259249315
 20
1904.2198681752
 11
705.8259249315
 21
1905.2198681752
  0
LINE
  5
24B
100
AcDbEntity
  8
0
100
AcDbLine
 62
7
  6
BYLAYER
 10
705.8261656687
 20
173.7197580367
 11
705.8261656687
 21
174.7197580367
  0
LINE
  5
24C
100
AcDbEntity
  8
0
100
AcDbLine
 62
7
  6
BYLAYER
 10
706.0259249315
 20
1903.8214670518
 11
706.0259249315
 21
1905.3198681752
  0
LINE
  5
24D
100
AcDbEntity
  8
0
100
AcDbLine
 62
7
  6
BYLAYER
 10
706.0261775475
 20
175.1181710388
 11
706.0261775475
 21
173.6198681752
  0
LINE
  5
24E
100
AcDbEntity
  8
3
100
AcDbLine
 62
7
  6
BYLAYER
 10
707.2262163259
 20
190.2198809837
 11
707.2262163259
 21
1888.7198809837
  0
LINE
  5
24F
100
AcDbEntity
  8
0
100
AcDbLine
 62
7
  6
BYLAYER
 10
707.2264743779
 20
1888.7198681752
 11
707.2264743779
 21
1903.7198681752
  0
LINE
  5
250
100
AcDbEntity
  8
0
100
AcDbLine
 62
7
  6
BYLAYER
 10
707.2267151151
 20
175.2197580367
 11
707.2267151151
 21
190.2197580367
  0
LINE
  5
251
100
AcDbEntity
  8
0
100
AcDbLine
 62
7
  6
BYLAYER
 10
708.0759249315
 20
1906.3198681752
 11
708.0759249315
 21
1912.2198681752
  0
LINE
  5
252
100
AcDbEntity
  8
0
100
AcDbLine
 62
7
  6
BYLAYER
 10
709.8259249315
 20
1908.7198681752
 11
709.8259249315
 21
1916.2198672378
  0
LINE
  5
253
100
AcDbEntity
  8
0
100
AcDbLine
 62
7
  6
BYLAYER
 10
710.3259249315
 20
1907.7198681752
 11
710.3259249315
 21
1908.7198681752
  0
LINE
  5
254
100
AcDbEntity
  8
0
100
AcDbLine
 62
7
  6
BYLAYER
 10
712.3259248587
 20
1903.7198681752
 11
712.3259248587
 21
1903.2198681752
  0
LINE
  5
255
100
AcDbEntity
  8
0
100
AcDbLine
 62
7
  6
BYLAYER
 10
712.3261656012
 20
175.7197580367
 11
712.3261656012
 21
175.2197580367
  0
LINE
  5
256
100
AcDbEntity
  8
0
100
AcDbLine
 62
7
  6
BYLAYER
 10
712.6259249315
 20
1903.8240506105
 11
712.6259249315
 21
1905.3198681752
  0
LINE
  5
257
100
AcDbEntity
  8
0
100
AcDbLine
 62
7
  6
BYLAYER
 10
712.6261775475
 20
175.1156952918
 11
712.6261775475
 21
173.6198681752
  0
LINE
  5
258
100
AcDbEntity
  8
0
100
AcDbLine
 62
7
  6
BYLAYER
 10
712.8259249315
 20
1905.2198681752
 11
712.8259249315
 21
1904.2198681752
  0
LINE
  5
259
100
AcDbEntity
  8
0
100
AcDbLine
 62
7
  6
BYLAYER
 10
712.8261656687
 20
174.7197580367
 11
712.8261656687
 21
173.7197580367
  0
LINE
  5
25A
100
AcDbEntity
  8
0
100
AcDbLine
 62
7
  6
BYLAYER
 10
713.8259249315
 20
1904.2198681752
 11
713.8259249315
 21
1906.2198681752
  0
LINE
  5
25B
100
AcDbEntity
  8
0
100
AcDbLine
 62
7
  6
BYLAYER
 10
713.8261656687
 20
172.7197580367
 11
713.8261656687
 21
174.7197580367
  0
LINE
  5
25C
100
AcDbEntity
  8
0
100
AcDbLine
 62
7
  6
BYLAYER
 10
721.3259249315
 20
1908.7198681752
 11
721.3259249315
 21
1907.7198681752
  0
LINE
  5
25D
100
AcDbEntity
  8
3
100
AcDbLine
 62
7
  6
BYLAYER
 10
721.8256668795
 20
1888.7198809837
 11
721.8256668795
 21
190.2198809837
  0
LINE
  5
25E
100
AcDbEntity
  8
0
100
AcDbLine
 62
7
  6
BYLAYER
 10
721.8259249315
 20
1905.2198681752
 11
721.8259249315
 21
1888.7198681752
  0
LINE
  5
25F
100
AcDbEntity
  8
0
100
AcDbLine
 62
7
  6
BYLAYER
 10
721.8259249315
 20
1908.7198681752
 11
721.8259249315
 21
1916.2198672378
  0
LINE
  5
260
100
AcDbEntity
  8
0
100
AcDbLine
 62
7
  6
BYLAYER
 10
721.8261656687
 20
190.2197580367
 11
721.8261656687
 21
173.7197580367
  0
LINE
  5
261
100
AcDbEntity
  8
3
100
AcDbLine
 62
7
  6
BYLAYER
 10
722.3256668795
 20
190.2198809837
 11
722.3256668795
 21
1888.7198809837
  0
LINE
  5
262
100
AcDbEntity
  8
0
100
AcDbLine
 62
7
  6
BYLAYER
 10
722.3259249315
 20
1888.7198681752
 11
722.3259249315
 21
1905.2198681751
  0
LINE
  5
263
100
AcDbEntity
  8
0
100
AcDbLine
 62
7
  6
BYLAYER
 10
722.3261656687
 20
173.7197580367
 11
722.3261656687
 21
190.2197580367
  0
LINE
  5
264
100
AcDbEntity
  8
0
100
AcDbLine
 62
7
  6
BYLAYER
 10
723.5759249315
 20
1906.2198681752
 11
723.5759249315
 21
1912.2198681752
  0
LINE
  5
265
100
AcDbEntity
  8
3
100
AcDbLine
 62
7
  6
BYLAYER
 10
730.3256668795
 20
1888.7198809837
 11
730.3256668795
 21
190.2198809837
  0
LINE
  5
266
100
AcDbEntity
  8
0
100
AcDbLine
 62
7
  6
BYLAYER
 10
730.3259249315
 20
1905.2198681751
 11
730.3259249315
 21
1888.7198681752
  0
LINE
  5
267
100
AcDbEntity
  8
0
100
AcDbLine
 62
7
  6
BYLAYER
 10
730.3261656687
 20
190.2197580367
 11
730.3261656687
 21
173.7197580368
  0
LINE
  5
268
100
AcDbEntity
  8
0
100
AcDbLine
 62
7
  6
BYLAYER
 10
730.5759249315
 20
1906.2198681752
 11
730.5759249315
 21
1912.2198681752
  0
LINE
  5
269
100
AcDbEntity
  8
3
100
AcDbLine
 62
7
  6
BYLAYER
 10
730.8256668795
 20
190.2198809837
 11
730.8256668795
 21
1888.7198809837
  0
LINE
  5
26A
100
AcDbEntity
  8
0
100
AcDbLine
 62
7
  6
BYLAYER
 10
730.8259249315
 20
1888.7198681752
 11
730.8259249315
 21
1905.2198681752
  0
LINE
  5
26B
100
AcDbEntity
  8
0
100
AcDbLine
 62
7
  6
BYLAYER
 10
730.8261656687
 20
173.7197580367
 11
730.8261656687
 21
190.2197580367
  0
LINE
  5
26C
100
AcDbEntity
  8
0
100
AcDbLine
 62
7
  6
BYLAYER
 10
734.1996649315
 20
1913.9198681752
 11
734.1996649315
 21
1912.7198681752
  0
LINE
  5
26D
100
AcDbEntity
  8
0
100
AcDbLine
 62
7
  6
BYLAYER
 10
742.4496649315
 20
1913.9198681752
 11
742.4496649315
 21
1912.7198681752
  0
LINE
  5
26E
100
AcDbEntity
  8
0
100
AcDbLine
 62
7
  6
BYLAYER
 10
744.8259249315
 20
1906.2198681752
 11
744.8259249315
 21
1904.2198681752
  0
LINE
  5
26F
100
AcDbEntity
  8
0
100
AcDbLine
 62
7
  6
BYLAYER
 10
744.8261656687
 20
174.7197580367
 11
744.8261656687
 21
172.7197580367
  0
LINE
  5
270
100
AcDbEntity
  8
0
100
AcDbLine
 62
7
  6
BYLAYER
 10
745.8259249315
 20
1904.2198681752
 11
745.8259249315
 21
1905.2198681752
  0
LINE
  5
271
100
AcDbEntity
  8
0
100
AcDbLine
 62
7
  6
BYLAYER
 10
745.8261656687
 20
173.7197580367
 11
745.8261656687
 21
174.7197580367
  0
LINE
  5
272
100
AcDbEntity
  8
0
100
AcDbLine
 62
7
  6
BYLAYER
 10
746.0259249315
 20
1903.8239351697
 11
746.0259249315
 21
1905.3198681752
  0
LINE
  5
273
100
AcDbEntity
  8
0
100
AcDbLine
 62
7
  6
BYLAYER
 10
746.0261656687
 20
175.1155756018
 11
746.0261656687
 21
173.6198681752
  0
LINE
  5
274
100
AcDbEntity
  8
0
100
AcDbLine
 62
7
  6
BYLAYER
 10
746.0759249315
 20
1906.2198681752
 11
746.0759249315
 21
1912.2198681752
  0
LINE
  5
275
100
AcDbEntity
  8
0
100
AcDbLine
 62
7
  6
BYLAYER
 10
746.325925004
 20
1903.2198681752
 11
746.325925004
 21
1903.7198681752
  0
LINE
  5
276
100
AcDbEntity
  8
0
100
AcDbLine
 62
7
  6
BYLAYER
 10
746.3261657415
 20
175.2197580367
 11
746.3261657415
 21
175.7197580367
  0
LINE
  5
277
100
AcDbEntity
  8
3
100
AcDbLine
 62
7
  6
BYLAYER
 10
749.8256841944
 20
1888.7198809837
 11
749.8256841944
 21
190.2198809837
  0
LINE
  5
278
100
AcDbEntity
  8
0
100
AcDbLine
 62
7
  6
BYLAYER
 10
749.8259249315
 20
1903.7198681752
 11
749.8259249315
 21
1888.7198681752
  0
LINE
  5
279
100
AcDbEntity
  8
0
100
AcDbLine
 62
7
  6
BYLAYER
 10
749.8261656687
 20
190.2197580367
 11
749.8261656687
 21
175.2197580367
  0
LINE
  5
27A
100
AcDbEntity
  8
0
100
AcDbLine
 62
7
  6
BYLAYER
 10
752.6259249315
 20
1903.7198681752
 11
752.6259249315
 21
1905.3198681752
  0
LINE
  5
27B
100
AcDbEntity
  8
0
100
AcDbLine
 62
7
  6
BYLAYER
 10
752.6261656687
 20
175.2198681752
 11
752.6261656687
 21
173.6198681752
  0
LINE
  5
27C
100
AcDbEntity
  8
0
100
AcDbLine
 62
7
  6
BYLAYER
 10
752.8259249315
 20
1906.2198681752
 11
752.8259249332
 21
1904.2198681752
  0
LINE
  5
27D
100
AcDbEntity
  8
0
100
AcDbLine
 62
7
  6
BYLAYER
 10
752.8261656704
 20
174.7197580367
 11
752.8261656687
 21
172.7197580367
  0
LINE
  5
27E
100
AcDbEntity
  8
3
100
AcDbLine
 62
7
  6
BYLAYER
 10
753.8256841944
 20
190.2198809837
 11
753.8256841944
 21
1888.7198809837
  0
LINE
  5
27F
100
AcDbEntity
  8
0
100
AcDbLine
 62
7
  6
BYLAYER
 10
753.8259249315
 20
1888.7198681752
 11
753.8259249315
 21
1905.2198681752
  0
LINE
  5
280
100
AcDbEntity
  8
0
100
AcDbLine
 62
7
  6
BYLAYER
 10
753.8261656687
 20
173.7197580367
 11
753.8261656687
 21
190.2197580367
  0
LINE
  5
281
100
AcDbEntity
  8
4
100
AcDbLine
 62
7
  6
BYLAYER
 10
754.0675857465
 20
1863.9029457593
 11
754.0675857465
 21
1813.9029457593
  0
LINE
  5
282
100
AcDbEntity
  8
4
100
AcDbLine
 62
7
  6
BYLAYER
 10
754.0675857465
 20
1064.8521841382
 11
754.0675857465
 21
1014.8521841382
  0
LINE
  5
283
100
AcDbEntity
  8
4
100
AcDbLine
 62
7
  6
BYLAYER
 10
754.0675857465
 20
267.5680432984
 11
754.0675857465
 21
217.5680432984
  0
LINE
  5
284
100
AcDbEntity
  8
4
100
AcDbLine
 62
7
  6
BYLAYER
 10
799.0675857465
 20
1014.8521841382
 11
754.0675857465
 21
1014.8521841382
  0
LINE
  5
285
100
AcDbEntity
  8
4
100
AcDbLine
 62
7
  6
BYLAYER
 10
782.3675857465
 20
1021.6021841382
 11
795.8675857465
 21
1021.6021841382
  0
LINE
  5
286
100
AcDbEntity
  8
4
100
AcDbLine
 62
7
  6
BYLAYER
 10
754.0675857465
 20
1021.8521841382
 11
753.8256841944
 21
1021.8521841382
  0
LINE
  5
287
100
AcDbEntity
  8
4
100
AcDbLine
 62
7
  6
BYLAYER
 10
754.0675857465
 20
1027.8521841382
 11
753.8256841944
 21
1027.8521841382
  0
LINE
  5
288
100
AcDbEntity
  8
4
100
AcDbLine
 62
7
  6
BYLAYER
 10
795.8675857465
 20
1028.1021841382
 11
782.3675857465
 21
1028.1021841382
  0
LINE
  5
289
100
AcDbEntity
  8
4
100
AcDbLine
 62
7
  6
BYLAYER
 10
782.3675857465
 20
1051.6021841382
 11
795.8675857465
 21
1051.6021841382
  0
LINE
  5
28A
100
AcDbEntity
  8
4
100
AcDbLine
 62
7
  6
BYLAYER
 10
754.0675857465
 20
1051.8521841382
 11
753.8256841944
 21
1051.8521841382
  0
LINE
  5
28B
100
AcDbEntity
  8
4
100
AcDbLine
 62
7
  6
BYLAYER
 10
761.0675857465
 20
217.5680432984
 11
761.0675857465
 21
267.5680432984
  0
LINE
  5
28C
100
AcDbEntity
  8
4
100
AcDbLine
 62
7
  6
BYLAYER
 10
761.0675857465
 20
1014.8521841382
 11
761.0675857465
 21
1064.8521841382
  0
LINE
  5
28D
100
AcDbEntity
  8
4
100
AcDbLine
 62
7
  6
BYLAYER
 10
761.0675857465
 20
1813.9029457593
 11
761.0675857465
 21
1863.9029457593
  0
LINE
  5
28E
100
AcDbEntity
  8
4
100
AcDbLine
 62
7
  6
BYLAYER
 10
804.0675857465
 20
1858.9029457593
 11
804.0675857465
 21
1818.9029457593
  0
LINE
  5
28F
100
AcDbEntity
  8
4
100
AcDbLine
 62
7
  6
BYLAYER
 10
804.0675857465
 20
1059.8521841382
 11
804.0675857465
 21
1019.8521841382
  0
LINE
  5
290
100
AcDbEntity
  8
4
100
AcDbLine
 62
7
  6
BYLAYER
 10
804.0675857465
 20
262.5680432984
 11
804.0675857465
 21
222.5680432984
  0
LINE
  5
291
100
AcDbEntity
  8
4
100
AcDbLine
 62
7
  6
BYLAYER
 10
754.0675857465
 20
1057.8521841382
 11
753.8256841944
 21
1057.8521841382
  0
LINE
  5
292
100
AcDbEntity
  8
4
100
AcDbLine
 62
7
  6
BYLAYER
 10
795.8675857465
 20
1058.1021841382
 11
782.3675857465
 21
1058.1021841382
  0
LINE
  5
293
100
AcDbEntity
  8
4
100
AcDbLine
 62
7
  6
BYLAYER
 10
754.0675857465
 20
1064.8521841382
 11
799.0675857465
 21
1064.8521841382
  0
LINE
  5
294
100
AcDbEntity
  8
0
100
AcDbLine
 62
7
  6
BYLAYER
 10
708.1759249315
 20
1906.3198681752
 11
708.0759249315
 21
1906.4198681752
  0
LINE
  5
295
100
AcDbEntity
  8
0
100
AcDbLine
 62
7
  6
BYLAYER
 10
723.5759249315
 20
1907.2198681752
 11
723.0759249315
 21
1907.7198681752
  0
LINE
  5
296
100
AcDbEntity
  8
0
100
AcDbLine
 62
7
  6
BYLAYER
 10
723.5759249315
 20
1912.2198681752
 11
723.0759249315
 21
1912.7198681752
  0
LINE
  5
297
100
AcDbEntity
  8
0
100
AcDbLine
 62
7
  6
BYLAYER
 10
721.8259264795
 20
1916.2198687857
 11
721.3259254958
 21
1916.7198695895
  0
LINE
  5
298
100
AcDbEntity
  8
0
100
AcDbLine
 62
7
  6
BYLAYER
 10
746.0759249315
 20
1912.2198681752
 11
745.5759249315
 21
1912.7198681752
  0
LINE
  5
299
100
AcDbEntity
  8
4
100
AcDbLine
 62
7
  6
BYLAYER
 10
799.0675857465
 20
1813.9029457593
 11
754.0675857465
 21
1813.9029457593
  0
LINE
  5
29A
100
AcDbEntity
  8
4
100
AcDbLine
 62
7
  6
BYLAYER
 10
782.3675857465
 20
1820.6529457593
 11
795.8675857465
 21
1820.6529457593
  0
LINE
  5
29B
100
AcDbEntity
  8
4
100
AcDbLine
 62
7
  6
BYLAYER
 10
754.0675857465
 20
1820.9029457593
 11
753.8256841944
 21
1820.9029457593
  0
LINE
  5
29C
100
AcDbEntity
  8
4
100
AcDbLine
 62
7
  6
BYLAYER
 10
754.0675857465
 20
1826.9029457593
 11
753.8256841944
 21
1826.9029457593
  0
LINE
  5
29D
100
AcDbEntity
  8
4
100
AcDbLine
 62
7
  6
BYLAYER
 10
795.8675857465
 20
1827.1529457593
 11
782.3675857465
 21
1827.1529457593
  0
LINE
  5
29E
100
AcDbEntity
  8
4
100
AcDbLine
 62
7
  6
BYLAYER
 10
782.3675857465
 20
1850.6529457593
 11
795.8675857465
 21
1850.6529457593
  0
LINE
  5
29F
100
AcDbEntity
  8
4
100
AcDbLine
 62
7
  6
BYLAYER
 10
754.0675857465
 20
1850.9029457593
 11
753.8256841944
 21
1850.9029457593
  0
LINE
  5
2A0
100
AcDbEntity
  8
4
100
AcDbLine
 62
7
  6
BYLAYER
 10
754.0675857465
 20
1856.9029457593
 11
753.8256841944
 21
1856.9029457593
  0
LINE
  5
2A1
100
AcDbEntity
  8
4
100
AcDbLine
 62
7
  6
BYLAYER
 10
795.8675857465
 20
1857.1529457593
 11
782.3675857465
 21
1857.1529457593
  0
LINE
  5
2A2
100
AcDbEntity
  8
4
100
AcDbLine
 62
7
  6
BYLAYER
 10
754.0675857465
 20
1863.9029457593
 11
799.0675857465
 21
1863.9029457593
  0
LINE
  5
2A3
100
AcDbEntity
  8
0
100
AcDbLine
 62
7
  6
BYLAYER
 10
698.8259249315
 20
1888.7198681752
 11
753.8259249315
 21
1888.7198681752
  0
LINE
  5
2A4
100
AcDbEntity
  8
3
100
AcDbLine
 62
7
  6
BYLAYER
 10
698.8256668795
 20
1888.7198809837
 11
753.8256841944
 21
1888.7198809837
  0
LINE
  5
2A5
100
AcDbEntity
  8
0
100
AcDbLine
 62
7
  6
BYLAYER
 10
738.34232684
 20
1902.2198681752
 11
730.3259249315
 21
1902.2198681752
  0
LINE
  5
2A6
100
AcDbEntity
  8
0
100
AcDbLine
 62
7
  6
BYLAYER
 10
715.809523023
 20
1902.2198681752
 11
723.8259249315
 21
1902.2198681752
  0
LINE
  5
2A7
100
AcDbEntity
  8
0
100
AcDbLine
 62
7
  6
BYLAYER
 10
738.3421109571
 20
1902.2310812581
 11
730.4312214162
 21
1902.2310812581
  0
LINE
  5
2A8
100
AcDbEntity
  8
0
100
AcDbLine
 62
7
  6
BYLAYER
 10
715.8097387266
 20
1902.2310624262
 11
723.7207159026
 21
1902.2310624262
  0
LINE
  5
2A9
100
AcDbEntity
  8
0
100
AcDbLine
 62
7
  6
BYLAYER
 10
738.3425427229
 20
1903.2086550923
 11
730.2206284469
 21
1903.2086550923
  0
LINE
  5
2AA
100
AcDbEntity
  8
0
100
AcDbLine
 62
7
  6
BYLAYER
 10
715.8093073194
 20
1903.2086739242
 11
723.9311339604
 21
1903.2086739242
  0
LINE
  5
2AB
100
AcDbEntity
  8
0
100
AcDbLine
 62
7
  6
BYLAYER
 10
703.9138432397
 20
1903.2198681752
 11
712.3259249315
 21
1903.2198681752
  0
LINE
  5
2AC
100
AcDbEntity
  8
0
100
AcDbLine
 62
7
  6
BYLAYER
 10
746.3259249315
 20
1903.2198681752
 11
753.8259249315
 21
1903.2198681752
  0
LINE
  5
2AD
100
AcDbEntity
  8
0
100
AcDbLine
 62
7
  6
BYLAYER
 10
705.776171439
 20
1903.7198681752
 11
712.3259249315
 21
1903.7198681752
  0
LINE
  5
2AE
100
AcDbEntity
  8
0
100
AcDbLine
 62
7
  6
BYLAYER
 10
746.3259249315
 20
1903.7198681752
 11
753.3259249315
 21
1903.7198681752
  0
LINE
  5
2AF
100
AcDbEntity
  8
0
100
AcDbLine
 62
7
  6
BYLAYER
 10
753.8259249315
 20
1904.2198682441
 11
752.6259249315
 21
1904.2198681752
  0
LINE
  5
2B0
100
AcDbEntity
  8
0
100
AcDbLine
 62
7
  6
BYLAYER
 10
746.0259249315
 20
1904.2198681752
 11
744.8259249315
 21
1904.2198682442
  0
LINE
  5
2B1
100
AcDbEntity
  8
0
100
AcDbLine
 62
7
  6
BYLAYER
 10
713.8259249315
 20
1904.2198682441
 11
712.6259249315
 21
1904.2198681752
  0
LINE
  5
2B2
100
AcDbEntity
  8
0
100
AcDbLine
 62
7
  6
BYLAYER
 10
706.0259249315
 20
1904.2198681752
 11
705.4136097227
 21
1904.2198681752
  0
LINE
  5
2B3
100
AcDbEntity
  8
0
100
AcDbLine
 62
7
  6
BYLAYER
 10
698.8259249315
 20
1905.2198681752
 11
706.0259249315
 21
1905.2198681752
  0
LINE
  5
2B4
100
AcDbEntity
  8
0
100
AcDbLine
 62
7
  6
BYLAYER
 10
712.6259249315
 20
1905.2198681752
 11
722.3259249315
 21
1905.2198681685
  0
LINE
  5
2B5
100
AcDbEntity
  8
0
100
AcDbLine
 62
7
  6
BYLAYER
 10
730.3259249315
 20
1905.2198681751
 11
746.0259249315
 21
1905.2198681752
  0
LINE
  5
2B6
100
AcDbEntity
  8
0
100
AcDbLine
 62
7
  6
BYLAYER
 10
752.6259249315
 20
1905.2198681752
 11
753.8259249315
 21
1905.2198681752
  0
LINE
  5
2B7
100
AcDbEntity
  8
0
100
AcDbLine
 62
7
  6
BYLAYER
 10
706.0259249315
 20
1905.3198681752
 11
712.6259249315
 21
1905.3198681752
  0
LINE
  5
2B8
100
AcDbEntity
  8
0
100
AcDbLine
 62
7
  6
BYLAYER
 10
746.0259249315
 20
1905.3198681752
 11
752.6259249315
 21
1905.3198681752
  0
LINE
  5
2B9
100
AcDbEntity
  8
0
100
AcDbLine
 62
7
  6
BYLAYER
 10
722.1844767514
 20
1905.7198681752
 11
730.4664085856
 21
1905.7198681752
  0
LINE
  5
2BA
100
AcDbEntity
  8
0
100
AcDbLine
 62
7
  6
BYLAYER
 10
752.8259249315
 20
1906.2198681752
 11
751.999130135
 21
1906.2198681752
  0
LINE
  5
2BB
100
AcDbEntity
  8
0
100
AcDbLine
 62
7
  6
BYLAYER
 10
699.8259249315
 20
1906.2198681752
 11
706.652719728
 21
1906.2198681752
  0
LINE
  5
2BC
100
AcDbEntity
  8
0
100
AcDbLine
 62
7
  6
BYLAYER
 10
711.999130135
 20
1906.2198681752
 11
746.652719728
 21
1906.2198681752
  0
LINE
  5
2BD
100
AcDbEntity
  8
0
100
AcDbLine
 62
7
  6
BYLAYER
 10
707.0260090301
 20
1906.3198681752
 11
711.6258323324
 21
1906.3198681752
  0
LINE
  5
2BE
100
AcDbEntity
  8
0
100
AcDbLine
 62
7
  6
BYLAYER
 10
747.0260090301
 20
1906.3198681752
 11
751.6258323324
 21
1906.3198681752
  0
LINE
  5
2BF
100
AcDbEntity
  8
0
100
AcDbLine
 62
7
  6
BYLAYER
 10
723.5759249315
 20
1906.4198681752
 11
708.0759249315
 21
1906.4198681752
  0
LINE
  5
2C0
100
AcDbEntity
  8
0
100
AcDbLine
 62
7
  6
BYLAYER
 10
708.0759249315
 20
1907.2198681752
 11
723.5759249315
 21
1907.2198681752
  0
LINE
  5
2C1
100
AcDbEntity
  8
0
100
AcDbLine
 62
7
  6
BYLAYER
 10
746.0758606347
 20
1907.7198681752
 11
730.5759892283
 21
1907.7198681752
  0
LINE
  5
2C2
100
AcDbEntity
  8
0
100
AcDbLine
 62
7
  6
BYLAYER
 10
708.0759892283
 20
1907.7198681752
 11
723.5758606347
 21
1907.7198681752
  0
LINE
  5
2C3
100
AcDbEntity
  8
0
100
AcDbLine
 62
7
  6
BYLAYER
 10
721.8259183482
 20
1908.7198681752
 11
709.8259315149
 21
1908.7198681752
  0
LINE
  5
2C4
100
AcDbEntity
  8
0
100
AcDbLine
 62
7
  6
BYLAYER
 10
746.0759249315
 20
1910.7198681752
 11
730.5759249315
 21
1910.7198681752
  0
LINE
  5
2C5
100
AcDbEntity
  8
0
100
AcDbLine
 62
7
  6
BYLAYER
 10
723.5759249315
 20
1910.7198681752
 11
721.8259249315
 21
1910.7198681752
  0
LINE
  5
2C6
100
AcDbEntity
  8
0
100
AcDbLine
 62
7
  6
BYLAYER
 10
709.8259249315
 20
1910.7198681752
 11
708.0759249315
 21
1910.7198681752
  0
LINE
  5
2C7
100
AcDbEntity
  8
0
100
AcDbLine
 62
7
  6
BYLAYER
 10
708.0759249315
 20
1912.2198681752
 11
709.8259249315
 21
1912.2198681752
  0
LINE
  5
2C8
100
AcDbEntity
  8
0
100
AcDbLine
 62
7
  6
BYLAYER
 10
721.8259249315
 20
1912.2198681752
 11
723.5759249315
 21
1912.2198681752
  0
LINE
  5
2C9
100
AcDbEntity
  8
0
100
AcDbLine
 62
7
  6
BYLAYER
 10
730.5759249315
 20
1912.2198681752
 11
746.0759249315
 21
1912.2198681752
  0
LINE
  5
2CA
100
AcDbEntity
  8
0
100
AcDbLine
 62
7
  6
BYLAYER
 10
708.5759249315
 20
1912.7198681752
 11
709.8259249315
 21
1912.7198681752
  0
LINE
  5
2CB
100
AcDbEntity
  8
0
100
AcDbLine
 62
7
  6
BYLAYER
 10
721.8259249315
 20
1912.7198681752
 11
723.0759249315
 21
1912.7198681752
  0
LINE
  5
2CC
100
AcDbEntity
  8
0
100
AcDbLine
 62
7
  6
BYLAYER
 10
731.0759249315
 20
1912.7198681752
 11
745.5759249315
 21
1912.7198681752
  0
LINE
  5
2CD
100
AcDbEntity
  8
0
100
AcDbLine
 62
7
  6
BYLAYER
 10
734.1996649315
 20
1913.9198681752
 11
742.4496649315
 21
1913.9198681752
  0
LINE
  5
2CE
100
AcDbEntity
  8
0
100
AcDbLine
 62
7
  6
BYLAYER
 10
734.4996045636
 20
1914.2198681752
 11
742.1496868228
 21
1914.2198681752
  0
LINE
  5
2CF
100
AcDbEntity
  8
0
100
AcDbLine
 62
7
  6
BYLAYER
 10
709.8259249315
 20
1916.2198672378
 11
721.8259249315
 21
1916.2198672378
  0
LINE
  5
2D0
100
AcDbEntity
  8
0
100
AcDbLine
 62
7
  6
BYLAYER
 10
710.3259243672
 20
1916.7198681752
 11
721.3259254958
 21
1916.7198681752
  0
ARC
  5
2D1
100
AcDbEntity
  8
0
100
AcDbCircle
 62
7
  6
BYLAYER
 10
711.6261775475
 20
173.6198681752
 40
1.0
100
AcDbArc
 50
270.0
 51
360.0
  0
ARC
  5
2D2
100
AcDbEntity
  8
0
100
AcDbCircle
 62
7
  6
BYLAYER
 10
707.0261775475
 20
173.6198681752
 40
1.0
100
AcDbArc
 50
180.0
 51
270.0
  0
ARC
  5
2D3
100
AcDbEntity
  8
0
100
AcDbCircle
 62
7
  6
BYLAYER
 10
721.3261656687
 20
173.7197580367
 40
1.0
100
AcDbArc
 50
270.0
 51
360.0
  0
ARC
  5
2D4
100
AcDbEntity
  8
0
100
AcDbCircle
 62
7
  6
BYLAYER
 10
704.8261656687
 20
173.7197580367
 40
1.0
100
AcDbArc
 50
270.0000000004
 51
359.9999999998
  0
ARC
  5
2D5
100
AcDbEntity
  8
0
100
AcDbCircle
 62
7
  6
BYLAYER
 10
713.8261656687
 20
173.7197580367
 40
1.0
100
AcDbArc
 50
180.0
 51
270.0
  0
ARC
  5
2D6
100
AcDbEntity
  8
0
100
AcDbCircle
 62
7
  6
BYLAYER
 10
699.8261656687
 20
173.7197580367
 40
1.0
100
AcDbArc
 50
180.0000000001
 51
270.0000000009
  0
ARC
  5
2D7
100
AcDbEntity
  8
0
100
AcDbCircle
 62
7
  6
BYLAYER
 10
706.3261656687
 20
174.7197580367
 40
0.5
100
AcDbArc
 50
90.0
 51
180.0
  0
ARC
  5
2D8
100
AcDbEntity
  8
0
100
AcDbCircle
 62
7
  6
BYLAYER
 10
712.3261656687
 20
174.7197580367
 40
0.5
100
AcDbArc
 50
0.0
 51
90.0
  0
ARC
  5
2D9
100
AcDbEntity
  8
0
100
AcDbCircle
 62
7
  6
BYLAYER
 10
727.5531537777
 20
160.1883782446
 40
27.6896077947
100
AcDbArc
 50
146.3934359331
 51
146.902605215
  0
ARC
  5
2DA
100
AcDbEntity
  8
0
100
AcDbCircle
 62
7
  6
BYLAYER
 10
747.0261656687
 20
173.6198681752
 40
1.0
100
AcDbArc
 50
180.0
 51
270.0
  0
ARC
  5
2DB
100
AcDbEntity
  8
0
100
AcDbCircle
 62
7
  6
BYLAYER
 10
744.8261656687
 20
173.7197580367
 40
1.0
100
AcDbArc
 50
270.0
 51
360.0
  0
ARC
  5
2DC
100
AcDbEntity
  8
0
100
AcDbCircle
 62
7
  6
BYLAYER
 10
731.3261656687
 20
173.7197580367
 40
1.0
100
AcDbArc
 50
179.9999999984
 51
270.0
  0
ARC
  5
2DD
100
AcDbEntity
  8
0
100
AcDbCircle
 62
7
  6
BYLAYER
 10
746.3261656687
 20
174.7197580367
 40
0.5
100
AcDbArc
 50
90.0
 51
180.0
  0
ARC
  5
2DE
100
AcDbEntity
  8
0
100
AcDbCircle
 62
7
  6
BYLAYER
 10
711.6259249315
 20
1905.3198681752
 40
1.0
100
AcDbArc
 50
0.0
 51
90.0
  0
ARC
  5
2DF
100
AcDbEntity
  8
0
100
AcDbCircle
 62
7
  6
BYLAYER
 10
707.0259249315
 20
1905.3198681752
 40
1.0
100
AcDbArc
 50
90.0
 51
180.0
  0
ARC
  5
2E0
100
AcDbEntity
  8
0
100
AcDbCircle
 62
7
  6
BYLAYER
 10
713.8259249315
 20
1905.2198681752
 40
1.0
100
AcDbArc
 50
90.0
 51
180.0
  0
ARC
  5
2E1
100
AcDbEntity
  8
0
100
AcDbCircle
 62
7
  6
BYLAYER
 10
721.3259249315
 20
1905.2198681752
 40
1.0
100
AcDbArc
 50
0.0
 51
90.0
  0
ARC
  5
2E2
100
AcDbEntity
  8
0
100
AcDbCircle
 62
7
  6
BYLAYER
 10
699.8259249315
 20
1905.2198681752
 40
1.0
100
AcDbArc
 50
90.0000000017
 51
180.0000000003
  0
ARC
  5
2E3
100
AcDbEntity
  8
0
100
AcDbCircle
 62
7
  6
BYLAYER
 10
704.8259249315
 20
1905.2198681752
 40
1.0
100
AcDbArc
 50
0.0
 51
90.0
  0
ARC
  5
2E4
100
AcDbEntity
  8
0
100
AcDbCircle
 62
7
  6
BYLAYER
 10
706.3259249315
 20
1904.2198681752
 40
0.5
100
AcDbArc
 50
180.0
 51
270.0
  0
ARC
  5
2E5
100
AcDbEntity
  8
0
100
AcDbCircle
 62
7
  6
BYLAYER
 10
712.3259249315
 20
1904.2198681752
 40
0.5
100
AcDbArc
 50
270.0
 51
360.0
  0
ARC
  5
2E6
100
AcDbEntity
  8
0
100
AcDbCircle
 62
7
  6
BYLAYER
 10
747.0259249315
 20
1905.3198681752
 40
1.0
100
AcDbArc
 50
90.0
 51
180.0
  0
ARC
  5
2E7
100
AcDbEntity
  8
0
100
AcDbCircle
 62
7
  6
BYLAYER
 10
744.8259249315
 20
1905.2198681752
 40
1.0
100
AcDbArc
 50
0.0
 51
90.0
  0
ARC
  5
2E8
100
AcDbEntity
  8
0
100
AcDbCircle
 62
7
  6
BYLAYER
 10
731.3259249315
 20
1905.2198681752
 40
1.0
100
AcDbArc
 50
90.0
 51
180.0000000008
  0
ARC
  5
2E9
100
AcDbEntity
  8
0
100
AcDbCircle
 62
7
  6
BYLAYER
 10
746.3259249315
 20
1904.2198681752
 40
0.5
100
AcDbArc
 50
180.0
 51
270.0
  0
ARC
  5
2EA
100
AcDbEntity
  8
0
100
AcDbCircle
 62
7
  6
BYLAYER
 10
723.8259249315
 20
1902.7198681752
 40
0.5
100
AcDbArc
 50
257.8531473856
 51
77.8531473856
  0
ARC
  5
2EB
100
AcDbEntity
  8
0
100
AcDbCircle
 62
7
  6
BYLAYER
 10
730.3259249315
 20
1902.7198681752
 40
0.5
100
AcDbArc
 50
102.1803352402
 51
282.1803352402
  0
ARC
  5
2EC
100
AcDbEntity
  8
0
100
AcDbCircle
 62
7
  6
BYLAYER
 10
726.0991223453
 20
1917.7943968622
 40
25.9492033567
100
AcDbArc
 50
213.0803197526
 51
213.6236390967
  0
ARC
  5
2ED
100
AcDbEntity
  8
0
100
AcDbCircle
 62
7
  6
BYLAYER
 10
734.4996649315
 20
1913.9198681752
 40
0.3
100
AcDbArc
 50
90.0
 51
180.0
  0
ARC
  5
2EE
100
AcDbEntity
  8
0
100
AcDbCircle
 62
7
  6
BYLAYER
 10
742.1496649315
 20
1913.9198681752
 40
0.3
100
AcDbArc
 50
0.0
 51
90.0
  0
ARC
  5
2EF
100
AcDbEntity
  8
0
100
AcDbCircle
 62
7
  6
BYLAYER
 10
751.6261656687
 20
173.6198681752
 40
1.0
100
AcDbArc
 50
270.0
 51
360.0
  0
ARC
  5
2F0
100
AcDbEntity
  8
0
100
AcDbCircle
 62
7
  6
BYLAYER
 10
752.8261656687
 20
173.7197580367
 40
1.0
100
AcDbArc
 50
270.0
 51
360.0
  0
ARC
  5
2F1
100
AcDbEntity
  8
0
100
AcDbCircle
 62
7
  6
BYLAYER
 10
753.3261656687
 20
175.7197580367
 40
0.5
100
AcDbArc
 50
270.0
 51
360.0
  0
ARC
  5
2F2
100
AcDbEntity
  8
4
100
AcDbCircle
 62
7
  6
BYLAYER
 10
799.0675857465
 20
262.5680432984
 40
5.0
100
AcDbArc
 50
0.0
 51
90.0
  0
ARC
  5
2F3
100
AcDbEntity
  8
4
100
AcDbCircle
 62
7
  6
BYLAYER
 10
799.0675857465
 20
222.5680432984
 40
5.0
100
AcDbArc
 50
270.0
 51
360.0
  0
ARC
  5
2F4
100
AcDbEntity
  8
4
100
AcDbCircle
 62
7
  6
BYLAYER
 10
795.8675857465
 20
257.5680432984
 40
3.25
100
AcDbArc
 50
270.0
 51
90.0
  0
ARC
  5
2F5
100
AcDbEntity
  8
4
100
AcDbCircle
 62
7
  6
BYLAYER
 10
782.3675857465
 20
257.5680432984
 40
3.25
100
AcDbArc
 50
90.0
 51
270.0
  0
ARC
  5
2F6
100
AcDbEntity
  8
4
100
AcDbCircle
 62
7
  6
BYLAYER
 10
782.3675857465
 20
227.5680432984
 40
3.25
100
AcDbArc
 50
90.0
 51
270.0
  0
ARC
  5
2F7
100
AcDbEntity
  8
4
100
AcDbCircle
 62
7
  6
BYLAYER
 10
795.8675857465
 20
227.5680432984
 40
3.25
100
AcDbArc
 50
270.0
 51
90.0
  0
ARC
  5
2F8
100
AcDbEntity
  8
4
100
AcDbCircle
 62
7
  6
BYLAYER
 10
799.0675857465
 20
1019.8521841382
 40
5.0
100
AcDbArc
 50
270.0
 51
360.0
  0
ARC
  5
2F9
100
AcDbEntity
  8
4
100
AcDbCircle
 62
7
  6
BYLAYER
 10
782.3675857465
 20
1024.8521841382
 40
3.25
100
AcDbArc
 50
90.0
 51
270.0
  0
ARC
  5
2FA
100
AcDbEntity
  8
4
100
AcDbCircle
 62
7
  6
BYLAYER
 10
795.8675857465
 20
1024.8521841382
 40
3.25
100
AcDbArc
 50
270.0
 51
90.0
  0
ARC
  5
2FB
100
AcDbEntity
  8
0
100
AcDbCircle
 62
7
  6
BYLAYER
 10
751.6259249315
 20
1905.3198681752
 40
1.0
100
AcDbArc
 50
0.0
 51
90.0
  0
ARC
  5
2FC
100
AcDbEntity
  8
0
100
AcDbCircle
 62
7
  6
BYLAYER
 10
752.8259249315
 20
1905.2198681752
 40
1.0
100
AcDbArc
 50
0.0
 51
90.0
  0
ARC
  5
2FD
100
AcDbEntity
  8
0
100
AcDbCircle
 62
7
  6
BYLAYER
 10
753.3259249315
 20
1903.2198681752
 40
0.5
100
AcDbArc
 50
0.0
 51
90.0
  0
ARC
  5
2FE
100
AcDbEntity
  8
4
100
AcDbCircle
 62
7
  6
BYLAYER
 10
799.0675857465
 20
1059.8521841382
 40
5.0
100
AcDbArc
 50
0.0
 51
90.0
  0
ARC
  5
2FF
100
AcDbEntity
  8
4
100
AcDbCircle
 62
7
  6
BYLAYER
 10
795.8675857465
 20
1054.8521841382
 40
3.25
100
AcDbArc
 50
270.0
 51
90.0
  0
ARC
  5
300
100
AcDbEntity
  8
4
100
AcDbCircle
 62
7
  6
BYLAYER
 10
782.3675857465
 20
1054.8521841382
 40
3.25
100
AcDbArc
 50
90.0
 51
270.0
  0
ARC
  5
301
100
AcDbEntity
  8
4
100
AcDbCircle
 62
7
  6
BYLAYER
 10
799.0675857465
 20
1858.9029457593
 40
5.0
100
AcDbArc
 50
0.0
 51
90.0
  0
ARC
  5
302
100
AcDbEntity
  8
4
100
AcDbCircle
 62
7
  6
BYLAYER
 10
799.0675857465
 20
1818.9029457593
 40
5.0
100
AcDbArc
 50
270.0
 51
360.0
  0
ARC
  5
303
100
AcDbEntity
  8
4
100
AcDbCircle
 62
7
  6
BYLAYER
 10
795.8675857465
 20
1853.9029457593
 40
3.25
100
AcDbArc
 50
270.0
 51
90.0
  0
ARC
  5
304
100
AcDbEntity
  8
4
100
AcDbCircle
 62
7
  6
BYLAYER
 10
782.3675857465
 20
1853.9029457593
 40
3.25
100
AcDbArc
 50
90.0
 51
270.0
  0
ARC
  5
305
100
AcDbEntity
  8
4
100
AcDbCircle
 62
7
  6
BYLAYER
 10
782.3675857465
 20
1823.9029457593
 40
3.25
100
AcDbArc
 50
90.0
 51
270.0
  0
ARC
  5
306
100
AcDbEntity
  8
4
100
AcDbCircle
 62
7
  6
BYLAYER
 10
795.8675857465
 20
1823.9029457593
 40
3.25
100
AcDbArc
 50
270.0
 51
90.0
  0
SPLINE
  5
307
100
AcDbEntity
  8
0
100
AcDbSpline
 62
7
  6
BYLAYER
 70
0
 71
3
 72
11
 73
7
 74
0
 42
0.0000001
 43
0.0000001
 44
0.0000000001
 40
0.0
 40
0.0
 40
0.0
 40
0.0
 40
0.2478324097
 40
0.4979557222
 40
0.7486362922
 40
1.0
 40
1.0
 40
1.0
 40
1.0
 10
713.8261656687
 20
174.7197580367
 30
0.0
 10
713.8261654004
 20
174.8838794566
 30
0.0
 10
713.6940058522
 20
175.2139581145
 30
0.0
 10
713.3064888476
 20
175.540486519
 30
0.0
 10
712.827922602
 20
175.7132322479
 30
0.0
 10
712.4926256111
 20
175.7197580444
 30
0.0
 10
712.3261656687
 20
175.7197580367
 30
0.0
  0
SPLINE
  5
308
100
AcDbEntity
  8
0
100
AcDbSpline
 62
7
  6
BYLAYER
 70
0
 71
3
 72
11
 73
7
 74
0
 42
0.0000001
 43
0.0000001
 44
0.0000000001
 40
0.0
 40
0.0
 40
0.0
 40
0.0
 40
0.3404385698
 40
0.6266185405
 40
0.8401374976
 40
1.0
 40
1.0
 40
1.0
 40
1.0
 10
730.8261670919
 20
173.7197580367
 30
0.0
 10
730.8261670923
 20
173.5831570185
 30
0.0
 10
730.8510286062
 20
173.3305092285
 30
0.0
 10
730.9587781765
 20
173.0082459005
 30
0.0
 10
731.1132584414
 20
172.7853411913
 30
0.0
 10
731.2620237624
 20
172.71977253
 30
0.0
 10
731.3261686095
 20
172.7197580363
 30
0.0
  0
SPLINE
  5
309
100
AcDbEntity
  8
0
100
AcDbSpline
 62
7
  6
BYLAYER
 70
0
 71
3
 72
11
 73
7
 74
0
 42
0.0000001
 43
0.0000001
 44
0.0000000001
 40
0.0
 40
0.0
 40
0.0
 40
0.0
 40
0.1598605771
 40
0.3733762137
 40
0.6595504004
 40
1.0
 40
1.0
 40
1.0
 40
1.0
 10
721.3261636344
 20
172.7197580363
 30
0.0
 10
721.3903077156
 20
172.7197711667
 30
0.0
 10
721.5390711251
 20
172.7853402449
 30
0.0
 10
721.6935504394
 20
173.0082389163
 30
0.0
 10
721.8013030486
 20
173.3305026222
 30
0.0
 10
721.8261644829
 20
173.5831525796
 30
0.0
 10
721.8261651279
 20
173.7197580367
 30
0.0
  0
SPLINE
  5
30A
100
AcDbEntity
  8
0
100
AcDbSpline
 62
7
  6
BYLAYER
 70
0
 71
3
 72
11
 73
7
 74
0
 42
0.0000001
 43
0.0000001
 44
0.0000000001
 40
0.0
 40
0.0
 40
0.0
 40
0.0
 40
0.2478327053
 40
0.4979558062
 40
0.7486361583
 40
1.0
 40
1.0
 40
1.0
 40
1.0
 10
744.8261656687
 20
174.7197580367
 30
0.0
 10
744.8261661042
 20
174.8838796522
 30
0.0
 10
744.9583255824
 20
175.2139583661
 30
0.0
 10
745.3458426955
 20
175.5404865431
 30
0.0
 10
745.8244086858
 20
175.7132322632
 30
0.0
 10
746.1597056379
 20
175.719758078
 30
0.0
 10
746.3261656687
 20
175.7197580367
 30
0.0
  0
SPLINE
  5
30B
100
AcDbEntity
  8
0
100
AcDbSpline
 62
7
  6
BYLAYER
 70
0
 71
3
 72
15
 73
11
 74
0
 42
0.0000001
 43
0.0000001
 44
0.0000000001
 40
0.0
 40
0.0
 40
0.0
 40
0.0
 40
0.2636784782
 40
0.5741051372
 40
0.7239517191
 40
0.8562958621
 40
0.9120219732
 40
0.9572544159
 40
0.9883481867
 40
1.0
 40
1.0
 40
1.0
 40
1.0
 10
752.826165657
 20
174.7197580367
 30
0.0
 10
752.826165812
 20
174.7830520514
 30
0.0
 10
752.9204827374
 20
174.905346684
 30
0.0
 10
753.0474667361
 20
175.015548288
 30
0.0
 10
753.1588949564
 20
175.1052154446
 30
0.0
 10
753.2239147914
 20
175.1535893371
 30
0.0
 10
753.269657212
 20
175.1858541516
 30
0.0
 10
753.2969557611
 20
175.2022632459
 30
0.0
 10
753.3137087072
 20
175.2147347651
 30
0.0
 10
753.3244294592
 20
175.2175652232
 30
0.0
 10
753.3261656604
 20
175.2197580338
 30
0.0
  0
SPLINE
  5
30C
100
AcDbEntity
  8
0
100
AcDbSpline
 62
7
  6
BYLAYER
 70
0
 71
3
 72
12
 73
8
 74
0
 42
0.0000001
 43
0.0000001
 44
0.0000000001
 40
0.0
 40
0.0
 40
0.0
 40
0.0
 40
0.3555601317
 40
0.6614267398
 40
0.7831217149
 40
0.8795320322
 40
1.0
 40
1.0
 40
1.0
 40
1.0
 10
703.9140839768
 20
173.7197580367
 30
0.0
 10
703.9140839768
 20
173.5920007554
 30
0.0
 10
703.9266705066
 20
173.3539762569
 30
0.0
 10
703.9718034226
 20
173.0761066335
 30
0.0
 10
704.0310125405
 20
172.8950114587
 30
0.0
 10
704.0806090192
 20
172.7884361548
 30
0.0
 10
704.1455194304
 20
172.7197580367
 30
0.0
 10
704.1888051047
 20
172.7197580367
 30
0.0
  0
SPLINE
  5
30D
100
AcDbEntity
  8
0
100
AcDbSpline
 62
7
  6
BYLAYER
 70
0
 71
3
 72
10
 73
6
 74
0
 42
0.0000001
 43
0.0000001
 44
0.0000000001
 40
0.0
 40
0.0
 40
0.0
 40
0.0
 40
0.5192781373
 40
0.7706703291
 40
1.0
 40
1.0
 40
1.0
 40
1.0
 10
704.4916468855
 20
175.514215127
 30
0.0
 10
704.7073611653
 20
175.4377119387
 30
0.0
 10
705.0331648007
 20
175.338668951
 30
0.0
 10
705.4637566811
 20
175.2447730455
 30
0.0
 10
705.6753320719
 20
175.2197582742
 30
0.0
 10
705.7764120859
 20
175.2197580367
 30
0.0
  0
SPLINE
  5
30E
100
AcDbEntity
  8
0
100
AcDbSpline
 62
7
  6
BYLAYER
 70
0
 71
3
 72
8
 73
4
 74
0
 42
0.0000001
 43
0.0000001
 44
0.0000000001
 40
0.0
 40
0.0
 40
0.0
 40
0.0
 40
1.0
 40
1.0
 40
1.0
 40
1.0
 10
704.4795038361
 20
175.7197580367
 30
0.0
 10
704.4795038361
 20
175.6511243405
 30
0.0
 10
704.4832087158
 20
175.582328331
 30
0.0
 10
704.4916469449
 20
175.5142153327
 30
0.0
  0
SPLINE
  5
30F
100
AcDbEntity
  8
0
100
AcDbSpline
 62
7
  6
BYLAYER
 70
0
 71
3
 72
10
 73
6
 74
0
 42
0.0000001
 43
0.0000001
 44
0.0000000001
 40
0.0
 40
0.0
 40
0.0
 40
0.0
 40
0.5485257156
 40
0.7949517469
 40
1.0
 40
1.0
 40
1.0
 40
1.0
 10
705.4138504383
 20
174.7197580367
 30
0.0
 10
705.4138504515
 20
174.842810288
 30
0.0
 10
705.461786858
 20
175.0306712389
 30
0.0
 10
705.6278730699
 20
175.1910254558
 30
0.0
 10
705.7304130549
 20
175.2197580371
 30
0.0
 10
705.7764120819
 20
175.2197580367
 30
0.0
  0
SPLINE
  5
310
100
AcDbEntity
  8
0
100
AcDbSpline
 62
7
  6
BYLAYER
 70
0
 71
3
 72
10
 73
6
 74
0
 42
0.0000001
 43
0.0000001
 44
0.0000000001
 40
0.0
 40
0.0
 40
0.0
 40
0.0
 40
0.2114258548
 40
0.4596612947
 40
1.0
 40
1.0
 40
1.0
 40
1.0
 10
705.4138504392
 20
174.7197580367
 30
0.0
 10
705.3274494361
 20
174.7197586232
 30
0.0
 10
705.1421553286
 20
174.775512998
 30
0.0
 10
704.7832150729
 20
174.9688947024
 30
0.0
 10
704.5230092789
 20
175.1638000816
 30
0.0
 10
704.3563635344
 20
175.3086726287
 30
0.0
  0
SPLINE
  5
311
100
AcDbEntity
  8
0
100
AcDbSpline
 62
7
  6
BYLAYER
 70
0
 71
3
 72
8
 73
4
 74
0
 42
0.0000001
 43
0.0000001
 44
0.0000000001
 40
0.0
 40
0.0
 40
0.0
 40
0.0
 40
1.0
 40
1.0
 40
1.0
 40
1.0
 10
704.3563634406
 20
175.3086725207
 30
0.0
 10
704.2044774072
 20
175.440740735
 30
0.0
 10
704.0577977626
 20
175.5788405773
 30
0.0
 10
703.9140838825
 20
175.7197579326
 30
0.0
  0
SPLINE
  5
312
100
AcDbEntity
  8
0
100
AcDbSpline
 62
7
  6
BYLAYER
 70
0
 71
3
 72
8
 73
4
 74
0
 42
0.0000001
 43
0.0000001
 44
0.0000000001
 40
0.0
 40
0.0
 40
0.0
 40
0.0
 40
1.0
 40
1.0
 40
1.0
 40
1.0
 10
703.9140839768
 20
175.7197580367
 30
0.0
 10
704.1058852995
 20
175.6492542474
 30
0.0
 10
704.2981600713
 20
175.5799523955
 30
0.0
 10
704.4916469449
 20
175.5142153327
 30
0.0
  0
SPLINE
  5
313
100
AcDbEntity
  8
0
100
AcDbSpline
 62
7
  6
BYLAYER
 70
0
 71
3
 72
12
 73
8
 74
0
 42
0.0000001
 43
0.0000001
 44
0.0000000001
 40
0.0
 40
0.0
 40
0.0
 40
0.0
 40
0.1204115357
 40
0.2167519688
 40
0.3384069038
 40
0.6443218671
 40
1.0
 40
1.0
 40
1.0
 40
1.0
 10
700.5514445408
 20
172.7197580367
 30
0.0
 10
700.5081789874
 20
172.7197580367
 30
0.0
 10
700.4432925525
 20
172.7883739494
 30
0.0
 10
700.393700069
 20
172.8948925248
 30
0.0
 10
700.3344725721
 20
173.0759576878
 30
0.0
 10
700.2893180925
 20
173.3538731232
 30
0.0
 10
700.2767234129
 20
173.5919578957
 30
0.0
 10
700.2767234129
 20
173.7197580367
 30
0.0
  0
SPLINE
  5
314
100
AcDbEntity
  8
0
100
AcDbSpline
 62
7
  6
BYLAYER
 70
0
 71
3
 72
8
 73
4
 74
0
 42
0.0000001
 43
0.0000001
 44
0.0000000001
 40
0.0
 40
0.0
 40
0.0
 40
0.0
 40
1.0
 40
1.0
 40
1.0
 40
1.0
 10
703.9138431075
 20
1903.219868321
 30
0.0
 10
704.057557026
 20
1903.3607856378
 30
0.0
 10
704.2042366333
 20
1903.4988855185
 30
0.0
 10
704.3561226658
 20
1903.6309537345
 30
0.0
  0
SPLINE
  5
315
100
AcDbEntity
  8
0
100
AcDbSpline
 62
7
  6
BYLAYER
 70
0
 71
3
 72
8
 73
4
 74
0
 42
0.0000001
 43
0.0000001
 44
0.0000000001
 40
0.0
 40
0.0
 40
0.0
 40
0.0
 40
1.0
 40
1.0
 40
1.0
 40
1.0
 10
703.9138432397
 20
1903.2198681752
 30
0.0
 10
704.1056445794
 20
1903.290371918
 30
0.0
 10
704.2979193305
 20
1903.3596738269
 30
0.0
 10
704.4914062077
 20
1903.4254108792
 30
0.0
  0
SPLINE
  5
316
100
AcDbEntity
  8
0
100
AcDbSpline
 62
7
  6
BYLAYER
 70
0
 71
3
 72
10
 73
6
 74
0
 42
0.0000001
 43
0.0000001
 44
0.0000000001
 40
0.0
 40
0.0
 40
0.0
 40
0.0
 40
0.2114262679
 40
0.4596614222
 40
1.0
 40
1.0
 40
1.0
 40
1.0
 10
705.4136097227
 20
1904.2198681752
 30
0.0
 10
705.32720855
 20
1904.2198675928
 30
0.0
 10
705.1419144009
 20
1904.1641131011
 30
0.0
 10
704.7829741769
 20
1903.9707313701
 30
0.0
 10
704.5227684908
 20
1903.7758261126
 30
0.0
 10
704.3561227972
 20
1903.6309535832
 30
0.0
  0
SPLINE
  5
317
100
AcDbEntity
  8
0
100
AcDbSpline
 62
7
  6
BYLAYER
 70
0
 71
3
 72
10
 73
6
 74
0
 42
0.0000001
 43
0.0000001
 44
0.0000000001
 40
0.0
 40
0.0
 40
0.0
 40
0.0
 40
0.2050482569
 40
0.4514742889
 40
1.0
 40
1.0
 40
1.0
 40
1.0
 10
705.7761713627
 20
1903.7198681752
 30
0.0
 10
705.7301723349
 20
1903.7198681748
 30
0.0
 10
705.6276323486
 20
1903.7486007559
 30
0.0
 10
705.4615461363
 20
1903.9089549732
 30
0.0
 10
705.4136097325
 20
1904.0968159247
 30
0.0
 10
705.4136097215
 20
1904.2198681752
 30
0.0
  0
SPLINE
  5
318
100
AcDbEntity
  8
0
100
AcDbSpline
 62
7
  6
BYLAYER
 70
0
 71
3
 72
10
 73
6
 74
0
 42
0.0000001
 43
0.0000001
 44
0.0000000001
 40
0.0
 40
0.0
 40
0.0
 40
0.0
 40
0.2293296864
 40
0.4807218845
 40
1.0
 40
1.0
 40
1.0
 40
1.0
 10
705.7761713421
 20
1903.7198681752
 30
0.0
 10
705.6750913218
 20
1903.7198679387
 30
0.0
 10
705.463515922
 20
1903.6948531676
 30
0.0
 10
705.0329240436
 20
1903.6009572623
 30
0.0
 10
704.707120414
 20
1903.5019142831
 30
0.0
 10
704.4914061452
 20
1903.4254110956
 30
0.0
  0
SPLINE
  5
319
100
AcDbEntity
  8
0
100
AcDbSpline
 62
7
  6
BYLAYER
 70
0
 71
3
 72
8
 73
4
 74
0
 42
0.0000001
 43
0.0000001
 44
0.0000000001
 40
0.0
 40
0.0
 40
0.0
 40
0.0
 40
1.0
 40
1.0
 40
1.0
 40
1.0
 10
704.4914062077
 20
1903.4254108792
 30
0.0
 10
704.4829679786
 20
1903.3572978809
 30
0.0
 10
704.4792630989
 20
1903.2885018714
 30
0.0
 10
704.4792630989
 20
1903.2198681752
 30
0.0
  0
SPLINE
  5
31A
100
AcDbEntity
  8
0
100
AcDbSpline
 62
7
  6
BYLAYER
 70
0
 71
3
 72
11
 73
7
 74
0
 42
0.0000001
 43
0.0000001
 44
0.0000000001
 40
0.0
 40
0.0
 40
0.0
 40
0.0
 40
0.3404385908
 40
0.6266185619
 40
0.8401375074
 40
1.0
 40
1.0
 40
1.0
 40
1.0
 10
721.8259236238
 20
1905.2198681752
 30
0.0
 10
721.8259236234
 20
1905.356469204
 30
0.0
 10
721.8010621061
 20
1905.6091170071
 30
0.0
 10
721.6933125274
 20
1905.9313803418
 30
0.0
 10
721.5388322554
 20
1906.1542850442
 30
0.0
 10
721.3900669329
 20
1906.2198536876
 30
0.0
 10
721.3259220886
 20
1906.2198681756
 30
0.0
  0
SPLINE
  5
31B
100
AcDbEntity
  8
0
100
AcDbSpline
 62
7
  6
BYLAYER
 70
0
 71
3
 72
11
 73
7
 74
0
 42
0.0000001
 43
0.0000001
 44
0.0000000001
 40
0.0
 40
0.0
 40
0.0
 40
0.0
 40
0.1598605678
 40
0.3733761936
 40
0.6595503807
 40
1.0
 40
1.0
 40
1.0
 40
1.0
 10
731.3259268734
 20
1906.2198681755
 30
0.0
 10
731.261782795
 20
1906.2198550504
 30
0.0
 10
731.113019384
 20
1906.1542859893
 30
0.0
 10
730.9585400631
 20
1905.9313873243
 30
0.0
 10
730.8507874459
 20
1905.6091236121
 30
0.0
 10
730.8259260084
 20
1905.3564736423
 30
0.0
 10
730.8259253635
 20
1905.2198681752
 30
0.0
  0
SPLINE
  5
31C
100
AcDbEntity
  8
0
100
AcDbSpline
 62
7
  6
BYLAYER
 70
0
 71
3
 72
15
 73
11
 74
0
 42
0.0000001
 43
0.0000001
 44
0.0000000001
 40
0.0
 40
0.0
 40
0.0
 40
0.0
 40
0.0116518133
 40
0.0427455841
 40
0.0879780268
 40
0.143704138
 40
0.2760482811
 40
0.4258948631
 40
0.7363215223
 40
1.0
 40
1.0
 40
1.0
 40
1.0
 10
753.3259249241
 20
1903.719868178
 30
0.0
 10
753.3241888836
 20
1903.7220611159
 30
0.0
 10
753.3134677661
 20
1903.7248912846
 30
0.0
 10
753.2967151356
 20
1903.7373630537
 30
0.0
 10
753.2694164338
 20
1903.7537720271
 30
0.0
 10
753.2236740867
 20
1903.7860368998
 30
0.0
 10
753.1586542078
 20
1903.8344107576
 30
0.0
 10
753.0472260081
 20
1903.9240779304
 30
0.0
 10
752.9202419994
 20
1904.0342795263
 30
0.0
 10
752.8259250765
 20
1904.1565741606
 30
0.0
 10
752.8259249216
 20
1904.2198681752
 30
0.0
  0
SPLINE
  5
31D
100
AcDbEntity
  8
0
100
AcDbSpline
 62
7
  6
BYLAYER
 70
0
 71
3
 72
11
 73
7
 74
0
 42
0.0000001
 43
0.0000001
 44
0.0000000001
 40
0.0
 40
0.0
 40
0.0
 40
0.0
 40
0.2478325037
 40
0.497955658
 40
0.7486362695
 40
1.0
 40
1.0
 40
1.0
 40
1.0
 10
744.8259249315
 20
1904.2198681752
 30
0.0
 10
744.8259253672
 20
1904.055746693
 30
0.0
 10
744.9580846935
 20
1903.725668073
 30
0.0
 10
745.3456017841
 20
1903.3991397106
 30
0.0
 10
745.8241679322
 20
1903.2263939733
 30
0.0
 10
746.1594649741
 20
1903.2198681338
 30
0.0
 10
746.3259249315
 20
1903.2198681752
 30
0.0
  0
SPLINE
  5
31E
100
AcDbEntity
  8
0
100
AcDbSpline
 62
7
  6
BYLAYER
 70
0
 71
3
 72
11
 73
7
 74
0
 42
0.0000001
 43
0.0000001
 44
0.0000000001
 40
0.0
 40
0.0
 40
0.0
 40
0.0
 40
0.2478327053
 40
0.4979558062
 40
0.7486361583
 40
1.0
 40
1.0
 40
1.0
 40
1.0
 10
713.8259249315
 20
1904.2198681752
 30
0.0
 10
713.8259244959
 20
1904.0557465597
 30
0.0
 10
713.6937650178
 20
1903.7256678458
 30
0.0
 10
713.3062479046
 20
1903.3991396688
 30
0.0
 10
712.8276819144
 20
1903.2263939487
 30
0.0
 10
712.4923849623
 20
1903.2198681338
 30
0.0
 10
712.3259249315
 20
1903.2198681752
 30
0.0
  0
SPLINE
  5
31F
100
AcDbEntity
  8
0
100
AcDbSpline
 62
7
  6
BYLAYER
 70
0
 71
3
 72
12
 73
8
 74
0
 42
0.0000001
 43
0.0000001
 44
0.0000000001
 40
0.0
 40
0.0
 40
0.0
 40
0.0
 40
0.3555601317
 40
0.6614267398
 40
0.7831217149
 40
0.8795320322
 40
1.0
 40
1.0
 40
1.0
 40
1.0
 10
700.2764826757
 20
1905.2198681752
 30
0.0
 10
700.2764826757
 20
1905.3476254565
 30
0.0
 10
700.2890692054
 20
1905.585649955
 30
0.0
 10
700.3342021215
 20
1905.8635195784
 30
0.0
 10
700.3934112394
 20
1906.0446147532
 30
0.0
 10
700.4430077181
 20
1906.1511900571
 30
0.0
 10
700.5079181293
 20
1906.2198681752
 30
0.0
 10
700.5512038036
 20
1906.2198681752
 30
0.0
  0
SPLINE
  5
320
100
AcDbEntity
  8
0
100
AcDbSpline
 62
7
  6
BYLAYER
 70
0
 71
3
 72
12
 73
8
 74
0
 42
0.0000001
 43
0.0000001
 44
0.0000000001
 40
0.0
 40
0.0
 40
0.0
 40
0.0
 40
0.1204115357
 40
0.2167519688
 40
0.3384069038
 40
0.6443218671
 40
1.0
 40
1.0
 40
1.0
 40
1.0
 10
704.1885643676
 20
1906.2198681752
 30
0.0
 10
704.1452988142
 20
1906.2198681752
 30
0.0
 10
704.0804123793
 20
1906.1512522625
 30
0.0
 10
704.0308198958
 20
1906.0447336871
 30
0.0
 10
703.9715923989
 20
1905.863668524
 30
0.0
 10
703.9264379193
 20
1905.5857530887
 30
0.0
 10
703.9138432397
 20
1905.3476683162
 30
0.0
 10
703.9138432397
 20
1905.2198681752
 30
0.0
  0
SPLINE
  5
321
100
AcDbEntity
  8
0
100
AcDbSpline
 62
7
  6
BYLAYER
 70
0
 71
3
 72
16
 73
12
 74
0
 42
0.0000001
 43
0.0000001
 44
0.0000000001
 40
0.0
 40
0.0
 40
0.0
 40
0.0
 40
0.0660819509
 40
0.1837076052
 40
0.3386899351
 40
0.5123359223
 40
0.6837013925
 40
0.8321172397
 40
0.9396824817
 40
0.9934236715
 40
1.0
 40
1.0
 40
1.0
 40
1.0
 10
715.8425425436
 20
1903.2086739242
 30
0.0
 10
715.8427503902
 20
1903.1868539036
 30
0.0
 10
715.8429252421
 20
1903.1262006026
 30
0.0
 10
715.8431922339
 20
1903.0142831049
 30
0.0
 10
715.843310793
 20
1902.8673556938
 30
0.0
 10
715.8434214695
 20
1902.7003863975
 30
0.0
 10
715.8431313377
 20
1902.5441514945
 30
0.0
 10
715.8436175743
 20
1902.3832097176
 30
0.0
 10
715.8418925873
 20
1902.3260502355
 30
0.0
 10
715.843796553
 20
1902.2053718027
 30
0.0
 10
715.8421318208
 20
1902.2288909463
 30
0.0
 10
715.8421111364
 20
1902.2310624262
 30
0.0
  0
SPLINE
  5
322
100
AcDbEntity
  8
0
100
AcDbSpline
 62
7
  6
BYLAYER
 70
0
 71
3
 72
16
 73
12
 74
0
 42
0.0000001
 43
0.0000001
 44
0.0000000001
 40
0.0
 40
0.0
 40
0.0
 40
0.0
 40
0.0660819509
 40
0.1837076052
 40
0.3386899351
 40
0.5123359223
 40
0.6837013925
 40
0.8321172397
 40
0.9396824817
 40
0.9934236715
 40
1.0
 40
1.0
 40
1.0
 40
1.0
 10
715.8093073194
 20
1903.2086739242
 30
0.0
 10
715.8090994728
 20
1903.1868539036
 30
0.0
 10
715.808924621
 20
1903.1262006026
 30
0.0
 10
715.8086576291
 20
1903.0142831049
 30
0.0
 10
715.80853907
 20
1902.8673556938
 30
0.0
 10
715.8084283935
 20
1902.7003863976
 30
0.0
 10
715.8087185253
 20
1902.5441514945
 30
0.0
 10
715.8082322887
 20
1902.3832097176
 30
0.0
 10
715.8099572757
 20
1902.3260502355
 30
0.0
 10
715.80805331
 20
1902.2053718027
 30
0.0
 10
715.8097180422
 20
1902.2288909463
 30
0.0
 10
715.8097387266
 20
1902.2310624262
 30
0.0
  0
SPLINE
  5
323
100
AcDbEntity
  8
0
100
AcDbSpline
 62
7
  6
BYLAYER
 70
0
 71
3
 72
16
 73
12
 74
0
 42
0.0000001
 43
0.0000001
 44
0.0000000001
 40
0.0
 40
0.0
 40
0.0
 40
0.0
 40
0.0660819509
 40
0.1837076052
 40
0.3386899351
 40
0.5123359223
 40
0.6837013925
 40
0.8321172397
 40
0.9396824817
 40
0.9934236715
 40
1.0
 40
1.0
 40
1.0
 40
1.0
 10
715.8425425436
 20
1903.2086739242
 30
0.0
 10
715.8427503902
 20
1903.1868539036
 30
0.0
 10
715.8429252421
 20
1903.1262006026
 30
0.0
 10
715.8431922339
 20
1903.0142831049
 30
0.0
 10
715.843310793
 20
1902.8673556938
 30
0.0
 10
715.8434214695
 20
1902.7003863976
 30
0.0
 10
715.8431313377
 20
1902.5441514945
 30
0.0
 10
715.8436175743
 20
1902.3832097176
 30
0.0
 10
715.8418925873
 20
1902.3260502355
 30
0.0
 10
715.843796553
 20
1902.2053718027
 30
0.0
 10
715.8421318208
 20
1902.2288909463
 30
0.0
 10
715.8421111364
 20
1902.2310624262
 30
0.0
  0
SPLINE
  5
324
100
AcDbEntity
  8
0
100
AcDbSpline
 62
7
  6
BYLAYER
 70
0
 71
3
 72
16
 73
12
 74
0
 42
0.0000001
 43
0.0000001
 44
0.0000000001
 40
0.0
 40
0.0
 40
0.0
 40
0.0
 40
0.0660819509
 40
0.1837076052
 40
0.3386899351
 40
0.5123359223
 40
0.6837013925
 40
0.8321172397
 40
0.9396824817
 40
0.9934236715
 40
1.0
 40
1.0
 40
1.0
 40
1.0
 10
715.8093073194
 20
1903.2086739242
 30
0.0
 10
715.8090994728
 20
1903.1868539036
 30
0.0
 10
715.808924621
 20
1903.1262006026
 30
0.0
 10
715.8086576291
 20
1903.0142831049
 30
0.0
 10
715.80853907
 20
1902.8673556938
 30
0.0
 10
715.8084283935
 20
1902.7003863976
 30
0.0
 10
715.8087185253
 20
1902.5441514945
 30
0.0
 10
715.8082322887
 20
1902.3832097176
 30
0.0
 10
715.8099572757
 20
1902.3260502355
 30
0.0
 10
715.80805331
 20
1902.2053718027
 30
0.0
 10
715.8097180422
 20
1902.2288909463
 30
0.0
 10
715.8097387266
 20
1902.2310624262
 30
0.0
  0
SPLINE
  5
325
100
AcDbEntity
  8
0
100
AcDbSpline
 62
7
  6
BYLAYER
 70
0
 71
3
 72
16
 73
12
 74
0
 42
0.0000001
 43
0.0000001
 44
0.0000000001
 40
0.0
 40
0.0
 40
0.0
 40
0.0
 40
0.066109371
 40
0.1837553808
 40
0.338748546
 40
0.5123945412
 40
0.6837491914
 40
0.8321446955
 40
0.9396825251
 40
0.9933925399
 40
1.0
 40
1.0
 40
1.0
 40
1.0
 10
738.3093071401
 20
1903.2086550923
 30
0.0
 10
738.3090993829
 20
1903.1868254786
 30
0.0
 10
738.3089244396
 20
1903.1261549121
 30
0.0
 10
738.3086575688
 20
1903.0142153053
 30
0.0
 10
738.3085389367
 20
1902.8672739013
 30
0.0
 10
738.3084287139
 20
1902.7003010008
 30
0.0
 10
738.3087174945
 20
1902.5440700675
 30
0.0
 10
738.3082355299
 20
1902.3831531599
 30
0.0
 10
738.3099506674
 20
1902.3259889608
 30
0.0
 10
738.3080611219
 20
1902.205361749
 30
0.0
 10
738.3097181411
 20
1902.2288994448
 30
0.0
 10
738.3097389059
 20
1902.2310812581
 30
0.0
  0
SPLINE
  5
326
100
AcDbEntity
  8
0
100
AcDbSpline
 62
7
  6
BYLAYER
 70
0
 71
3
 72
16
 73
12
 74
0
 42
0.0000001
 43
0.0000001
 44
0.0000000001
 40
0.0
 40
0.0
 40
0.0
 40
0.0
 40
0.066109371
 40
0.1837553808
 40
0.338748546
 40
0.5123945412
 40
0.6837491914
 40
0.8321446955
 40
0.9396825251
 40
0.9933925399
 40
1.0
 40
1.0
 40
1.0
 40
1.0
 10
738.3425427229
 20
1903.2086550923
 30
0.0
 10
738.3427504802
 20
1903.1868254786
 30
0.0
 10
738.3429254234
 20
1903.1261549121
 30
0.0
 10
738.3431922942
 20
1903.0142153053
 30
0.0
 10
738.3433109263
 20
1902.8672739013
 30
0.0
 10
738.3434211491
 20
1902.7003010008
 30
0.0
 10
738.3431323686
 20
1902.5440700675
 30
0.0
 10
738.3436143331
 20
1902.3831531599
 30
0.0
 10
738.3418991956
 20
1902.3259889607
 30
0.0
 10
738.3437887411
 20
1902.205361749
 30
0.0
 10
738.3421317219
 20
1902.2288994448
 30
0.0
 10
738.3421109571
 20
1902.2310812581
 30
0.0
  0
SPLINE
  5
327
100
AcDbEntity
  8
0
100
AcDbSpline
 62
7
  6
BYLAYER
 70
0
 71
3
 72
16
 73
12
 74
0
 42
0.0000001
 43
0.0000001
 44
0.0000000001
 40
0.0
 40
0.0
 40
0.0
 40
0.0
 40
0.0661715043
 40
0.1838636386
 40
0.3388813558
 40
0.5125273691
 40
0.6838575011
 40
0.8322069082
 40
0.9396826219
 40
0.9933219952
 40
1.0
 40
1.0
 40
1.0
 40
1.0
 10
738.3093067338
 20
1903.2086123584
 30
0.0
 10
738.3090991785
 20
1903.186761008
 30
0.0
 10
738.3089240293
 20
1903.1260513223
 30
0.0
 10
738.3086574315
 20
1903.0140616264
 30
0.0
 10
738.3085386372
 20
1902.8670885289
 30
0.0
 10
738.3084294294
 20
1902.7001074827
 30
0.0
 10
738.308715196
 20
1902.5438855575
 30
0.0
 10
738.3082427668
 20
1902.3830250402
 30
0.0
 10
738.3099359273
 20
1902.3258501495
 30
0.0
 10
738.3080785597
 20
1902.2053390375
 30
0.0
 10
738.3097183658
 20
1902.2289187613
 30
0.0
 10
738.3097393122
 20
1902.2311239919
 30
0.0
  0
SPLINE
  5
328
100
AcDbEntity
  8
0
100
AcDbSpline
 62
7
  6
BYLAYER
 70
0
 71
3
 72
16
 73
12
 74
0
 42
0.0000001
 43
0.0000001
 44
0.0000000001
 40
0.0
 40
0.0
 40
0.0
 40
0.0
 40
0.0661715043
 40
0.1838636386
 40
0.3388813558
 40
0.5125273691
 40
0.6838575011
 40
0.8322069082
 40
0.9396826219
 40
0.9933219952
 40
1.0
 40
1.0
 40
1.0
 40
1.0
 10
738.3425431292
 20
1903.2086123584
 30
0.0
 10
738.3427506845
 20
1903.186761008
 30
0.0
 10
738.3429258337
 20
1903.1260513223
 30
0.0
 10
738.3431924316
 20
1903.0140616264
 30
0.0
 10
738.3433112258
 20
1902.8670885289
 30
0.0
 10
738.3434204336
 20
1902.7001074827
 30
0.0
 10
738.343134667
 20
1902.5438855575
 30
0.0
 10
738.3436070962
 20
1902.3830250402
 30
0.0
 10
738.3419139357
 20
1902.3258501495
 30
0.0
 10
738.3437713033
 20
1902.2053390375
 30
0.0
 10
738.3421314972
 20
1902.2289187613
 30
0.0
 10
738.3421105508
 20
1902.2311239919
 30
0.0
  0
SPLINE
  5
329
100
AcDbEntity
  8
0
100
AcDbSpline
 62
7
  6
BYLAYER
 70
0
 71
3
 72
16
 73
12
 74
0
 42
0.0000001
 43
0.0000001
 44
0.0000000001
 40
0.0
 40
0.0
 40
0.0
 40
0.0
 40
0.0660819509
 40
0.1837076052
 40
0.3386899351
 40
0.5123359223
 40
0.6837013925
 40
0.8321172397
 40
0.9396824817
 40
0.9934236715
 40
1.0
 40
1.0
 40
1.0
 40
1.0
 10
715.8425425436
 20
1903.2086739242
 30
0.0
 10
715.8427503902
 20
1903.1868539036
 30
0.0
 10
715.8429252421
 20
1903.1262006026
 30
0.0
 10
715.8431922339
 20
1903.0142831049
 30
0.0
 10
715.843310793
 20
1902.8673556938
 30
0.0
 10
715.8434214695
 20
1902.7003863975
 30
0.0
 10
715.8431313377
 20
1902.5441514945
 30
0.0
 10
715.8436175743
 20
1902.3832097176
 30
0.0
 10
715.8418925873
 20
1902.3260502355
 30
0.0
 10
715.843796553
 20
1902.2053718027
 30
0.0
 10
715.8421318208
 20
1902.2288909463
 30
0.0
 10
715.8421111364
 20
1902.2310624262
 30
0.0
  0
SPLINE
  5
32A
100
AcDbEntity
  8
0
100
AcDbSpline
 62
7
  6
BYLAYER
 70
0
 71
3
 72
16
 73
12
 74
0
 42
0.0000001
 43
0.0000001
 44
0.0000000001
 40
0.0
 40
0.0
 40
0.0
 40
0.0
 40
0.0660819509
 40
0.1837076052
 40
0.3386899351
 40
0.5123359223
 40
0.6837013925
 40
0.8321172397
 40
0.9396824817
 40
0.9934236715
 40
1.0
 40
1.0
 40
1.0
 40
1.0
 10
715.8093073194
 20
1903.2086739242
 30
0.0
 10
715.8090994728
 20
1903.1868539036
 30
0.0
 10
715.808924621
 20
1903.1262006026
 30
0.0
 10
715.8086576291
 20
1903.0142831049
 30
0.0
 10
715.80853907
 20
1902.8673556938
 30
0.0
 10
715.8084283935
 20
1902.7003863976
 30
0.0
 10
715.8087185253
 20
1902.5441514945
 30
0.0
 10
715.8082322887
 20
1902.3832097176
 30
0.0
 10
715.8099572757
 20
1902.3260502355
 30
0.0
 10
715.80805331
 20
1902.2053718027
 30
0.0
 10
715.8097180422
 20
1902.2288909463
 30
0.0
 10
715.8097387266
 20
1902.2310624262
 30
0.0
  0
SPLINE
  5
32B
100
AcDbEntity
  8
0
100
AcDbSpline
 62
7
  6
BYLAYER
 70
0
 71
3
 72
16
 73
12
 74
0
 42
0.0000001
 43
0.0000001
 44
0.0000000001
 40
0.0
 40
0.0
 40
0.0
 40
0.0
 40
0.0660819509
 40
0.1837076052
 40
0.3386899351
 40
0.5123359223
 40
0.6837013925
 40
0.8321172397
 40
0.9396824817
 40
0.9934236715
 40
1.0
 40
1.0
 40
1.0
 40
1.0
 10
715.8425425436
 20
1903.2086739242
 30
0.0
 10
715.8427503902
 20
1903.1868539036
 30
0.0
 10
715.8429252421
 20
1903.1262006026
 30
0.0
 10
715.8431922339
 20
1903.0142831049
 30
0.0
 10
715.843310793
 20
1902.8673556938
 30
0.0
 10
715.8434214695
 20
1902.7003863975
 30
0.0
 10
715.8431313377
 20
1902.5441514945
 30
0.0
 10
715.8436175743
 20
1902.3832097176
 30
0.0
 10
715.8418925873
 20
1902.3260502355
 30
0.0
 10
715.843796553
 20
1902.2053718027
 30
0.0
 10
715.8421318208
 20
1902.2288909463
 30
0.0
 10
715.8421111364
 20
1902.2310624262
 30
0.0
  0
SPLINE
  5
32C
100
AcDbEntity
  8
0
100
AcDbSpline
 62
7
  6
BYLAYER
 70
0
 71
3
 72
16
 73
12
 74
0
 42
0.0000001
 43
0.0000001
 44
0.0000000001
 40
0.0
 40
0.0
 40
0.0
 40
0.0
 40
0.0660819509
 40
0.1837076052
 40
0.3386899351
 40
0.5123359223
 40
0.6837013925
 40
0.8321172397
 40
0.9396824817
 40
0.9934236715
 40
1.0
 40
1.0
 40
1.0
 40
1.0
 10
715.8093073194
 20
1903.2086739242
 30
0.0
 10
715.8090994728
 20
1903.1868539036
 30
0.0
 10
715.808924621
 20
1903.1262006026
 30
0.0
 10
715.8086576291
 20
1903.0142831049
 30
0.0
 10
715.80853907
 20
1902.8673556938
 30
0.0
 10
715.8084283935
 20
1902.7003863976
 30
0.0
 10
715.8087185253
 20
1902.5441514945
 30
0.0
 10
715.8082322887
 20
1902.3832097176
 30
0.0
 10
715.8099572757
 20
1902.3260502355
 30
0.0
 10
715.80805331
 20
1902.2053718027
 30
0.0
 10
715.8097180422
 20
1902.2288909463
 30
0.0
 10
715.8097387266
 20
1902.2310624262
 30
0.0
  0
SPLINE
  5
32D
100
AcDbEntity
  8
0
100
AcDbSpline
 62
7
  6
BYLAYER
 70
0
 71
3
 72
16
 73
12
 74
0
 42
0.0000001
 43
0.0000001
 44
0.0000000001
 40
0.0
 40
0.0
 40
0.0
 40
0.0
 40
0.066109371
 40
0.1837553808
 40
0.338748546
 40
0.5123945412
 40
0.6837491914
 40
0.8321446955
 40
0.9396825251
 40
0.9933925399
 40
1.0
 40
1.0
 40
1.0
 40
1.0
 10
738.3093071401
 20
1903.2086550923
 30
0.0
 10
738.3090993829
 20
1903.1868254786
 30
0.0
 10
738.3089244396
 20
1903.1261549121
 30
0.0
 10
738.3086575688
 20
1903.0142153053
 30
0.0
 10
738.3085389367
 20
1902.8672739013
 30
0.0
 10
738.3084287139
 20
1902.7003010008
 30
0.0
 10
738.3087174945
 20
1902.5440700675
 30
0.0
 10
738.3082355299
 20
1902.3831531599
 30
0.0
 10
738.3099506674
 20
1902.3259889608
 30
0.0
 10
738.3080611219
 20
1902.205361749
 30
0.0
 10
738.3097181411
 20
1902.2288994448
 30
0.0
 10
738.3097389059
 20
1902.2310812581
 30
0.0
  0
SPLINE
  5
32E
100
AcDbEntity
  8
0
100
AcDbSpline
 62
7
  6
BYLAYER
 70
0
 71
3
 72
16
 73
12
 74
0
 42
0.0000001
 43
0.0000001
 44
0.0000000001
 40
0.0
 40
0.0
 40
0.0
 40
0.0
 40
0.066109371
 40
0.1837553808
 40
0.338748546
 40
0.5123945412
 40
0.6837491914
 40
0.8321446955
 40
0.9396825251
 40
0.9933925399
 40
1.0
 40
1.0
 40
1.0
 40
1.0
 10
738.3425427229
 20
1903.2086550923
 30
0.0
 10
738.3427504802
 20
1903.1868254786
 30
0.0
 10
738.3429254234
 20
1903.1261549121
 30
0.0
 10
738.3431922942
 20
1903.0142153053
 30
0.0
 10
738.3433109263
 20
1902.8672739013
 30
0.0
 10
738.3434211491
 20
1902.7003010008
 30
0.0
 10
738.3431323686
 20
1902.5440700675
 30
0.0
 10
738.3436143331
 20
1902.3831531599
 30
0.0
 10
738.3418991956
 20
1902.3259889607
 30
0.0
 10
738.3437887411
 20
1902.205361749
 30
0.0
 10
738.3421317219
 20
1902.2288994448
 30
0.0
 10
738.3421109571
 20
1902.2310812581
 30
0.0
  0
SPLINE
  5
32F
100
AcDbEntity
  8
0
100
AcDbSpline
 62
7
  6
BYLAYER
 70
0
 71
3
 72
16
 73
12
 74
0
 42
0.0000001
 43
0.0000001
 44
0.0000000001
 40
0.0
 40
0.0
 40
0.0
 40
0.0
 40
0.0661715043
 40
0.1838636386
 40
0.3388813558
 40
0.5125273691
 40
0.6838575011
 40
0.8322069082
 40
0.9396826219
 40
0.9933219952
 40
1.0
 40
1.0
 40
1.0
 40
1.0
 10
738.3093067338
 20
1903.2086123584
 30
0.0
 10
738.3090991785
 20
1903.186761008
 30
0.0
 10
738.3089240293
 20
1903.1260513223
 30
0.0
 10
738.3086574315
 20
1903.0140616264
 30
0.0
 10
738.3085386372
 20
1902.8670885289
 30
0.0
 10
738.3084294294
 20
1902.7001074827
 30
0.0
 10
738.308715196
 20
1902.5438855575
 30
0.0
 10
738.3082427668
 20
1902.3830250402
 30
0.0
 10
738.3099359273
 20
1902.3258501495
 30
0.0
 10
738.3080785597
 20
1902.2053390375
 30
0.0
 10
738.3097183658
 20
1902.2289187613
 30
0.0
 10
738.3097393122
 20
1902.2311239919
 30
0.0
  0
SPLINE
  5
330
100
AcDbEntity
  8
0
100
AcDbSpline
 62
7
  6
BYLAYER
 70
0
 71
3
 72
16
 73
12
 74
0
 42
0.0000001
 43
0.0000001
 44
0.0000000001
 40
0.0
 40
0.0
 40
0.0
 40
0.0
 40
0.0661715043
 40
0.1838636386
 40
0.3388813558
 40
0.5125273691
 40
0.6838575011
 40
0.8322069082
 40
0.9396826219
 40
0.9933219952
 40
1.0
 40
1.0
 40
1.0
 40
1.0
 10
738.3425431292
 20
1903.2086123584
 30
0.0
 10
738.3427506845
 20
1903.186761008
 30
0.0
 10
738.3429258337
 20
1903.1260513223
 30
0.0
 10
738.3431924316
 20
1903.0140616264
 30
0.0
 10
738.3433112258
 20
1902.8670885289
 30
0.0
 10
738.3434204336
 20
1902.7001074827
 30
0.0
 10
738.343134667
 20
1902.5438855575
 30
0.0
 10
738.3436070962
 20
1902.3830250402
 30
0.0
 10
738.3419139357
 20
1902.3258501495
 30
0.0
 10
738.3437713033
 20
1902.2053390375
 30
0.0
 10
738.3421314972
 20
1902.2289187613
 30
0.0
 10
738.3421105508
 20
1902.2311239919
 30
0.0
  0
ENDSEC
  0
SECTION
  2
OBJECTS
  0
DICTIONARY
  5
C
100
AcDbDictionary
280
0
281
1
  3
ACAD_GROUP
350
D
  3
ACAD_MLINESTYLE
350
17
  3
ACAD_LAYOUT
350
1A
  3
ACAD_PLOTSETTINGS
350
19
  3
ACAD_PLOTSTYLENAME
350
E
  0
DICTIONARY
  5
D
102
{ACAD_REACTORS
330
C
102
}
100
AcDbDictionary
280
0
281
1
  0
ACDBDICTIONARYWDFLT
  5
E
102
{ACAD_REACTORS
330
C
102
}
100
AcDbDictionary
281
1
  3
Normal
350
F
100
AcDbDictionaryWithDefault
340
F
  0
DICTIONARY
  5
17
102
{ACAD_REACTORS
330
C
102
}
100
AcDbDictionary
280
0
281
1
  3
Standard
350
18
  0
DICTIONARY
  5
19
102
{ACAD_REACTORS
330
C
102
}
100
AcDbDictionary
281
1
  0
DICTIONARY
  5
1A
102
{ACAD_REACTORS
330
C
102
}
100
AcDbDictionary
281
1
  3
Model
350
331
  3
Layout1
350
332
  0
ACDBPLACEHOLDER
  5
F
102
{ACAD_REACTORS
330
E
102
}
  0
MLINESTYLE
  5
18
102
{ACAD_REACTORS
330
17
102
}
100
AcDbMlineStyle
  2
STANDARD
 70
0
  3

 62
256
 51
90.0
 52
90.0
 71
2
 49
0.5
 62
256
  6
BYLAYER
 49
-0.5
 62
256
  6
BYLAYER
  0
LAYOUT
  5
331
102
{ACAD_REACTORS
330
1A
102
}
100
AcDbPlotSettings
  1

  2
none_device
  4

  6

 40
0.0
 41
0.0
 42
0.0
 43
0.0
 44
210.0
 45
297.0
 46
0.0
 47
0.0
 48
0.0
 49
0.0
140
0.0
141
0.0
142
1.0
143
1.0
 70
1024
 72
1
 73
0
 74
0
  7

 75
0
147
1.0
148
0.0
149
0.0
100
AcDbLayout
  1
Model
 70
0
 71
0
 10
0.0
 20
0.0
 11
210.0
 21
297.0
 12
0.0
 22
0.0
 32
0.0
 14
0.0
 24
0.0
 34
0.0
 15
0.0
 25
0.0
 35
0.0
146
0.0
 13
0.0
 23
0.0
 33
0.0
 16
1.0
 26
0.0
 36
0.0
 17
0.0
 27
1.0
 37
0.0
 76
0
330
212
345
0
346
0
  0
LAYOUT
  5
332
102
{ACAD_REACTORS
330
1A
102
}
100
AcDbPlotSettings
  1

  2
none_device
  4

  6

 40
0.0
 41
0.0
 42
0.0
 43
0.0
 44
210.0
 45
297.0
 46
0.0
 47
0.0
 48
0.0
 49
0.0
140
0.0
141
0.0
142
1.0
143
1.0
 70
0
 72
1
 73
0
 74
0
  7

 75
0
147
1.0
148
0.0
149
0.0
100
AcDbLayout
  1
Layout1
 70
0
 71
1
 10
0.0
 20
0.0
 11
210.0
 21
297.0
 12
0.0
 22
0.0
 32
0.0
 14
0.0
 24
0.0
 34
0.0
 15
0.0
 25
0.0
 35
0.0
146
0.0
 13
0.0
 23
0.0
 33
0.0
 16
1.0
 26
0.0
 36
0.0
 17
0.0
 27
1.0
 37
0.0
 76
0
330
213
345
0
346
0
  0
ENDSEC
  0
EOF
