999
DXF file: C:\Users\sesa63760\Dev\_Creo\CAD\MCADID0000921_3D-CAD\drw0001_3.dxf
999
Pro/ENGINEER 2019471 by Parametric Technology Corporation
  0
SECTION
  2
HEADER
  9
$ACADVER
  1
AC1024
  9
$DWGCODEPAGE
  3
ANSI_1252
  9
$EXTMAX
 10
193.9403235251
 20
274.2870289855
 30
0.0
  9
$EXTMIN
 10
0.0
 20
0.0
 30
0.0
  9
$LIMMIN
 10
0.0
 20
0.0
  9
$LIMMAX
 10
193.9403235251
 20
274.2870289855
  9
$VIEWCTR
 10
96.9701617626
 20
137.1435144928
  9
$VIEWSIZE
 40
274.2870289855
  9
$CLAYER
  8
0
  9
$LTSCALE
 40
17.8794507783
  9
$CELTYPE
  6
BYLAYER
  9
$DIMSCALE
 40
1.0
  9
$DIMASZ
 40
2.3088133753
  9
$DIMEXO
 40
1.0
  9
$DIMDLI
 40
12.3530750832
  9
$DIMEXE
 40
1.0
  9
$DIMCEN
 40
2.9257283092
  9
$DIMLFAC
 40
1.0
  9
$DIMBLK
  1
_FILLED
  9
$DIMALT
 70
0
  9
$DIMALTF
 40
0.0393700787
  9
$DIMTXT
 40
3.2323387254
  9
$DIMTOL
 70
1
  9
$DIMLIM
 70
0
  9
$DIMTFAC
 40
1.0
  9
$DIMTP
 40
0.01
  9
$DIMTM
 40
0.01
  9
$DIMGAP
 40
0.625
  9
$DIMDSEP
 70
46
  9
$AUNITS
 70
0
  9
$PDMODE
 70
3
  9
$PDSIZE
 40
0.3125
  9
$HANDSEED
  5
413
  9
$TILEMODE
 70
1
  9
$MEASUREMENT
 70
1
  9
$INSUNITS
 70
4
  0
ENDSEC
  0
SECTION
  2
CLASSES
  0
CLASS
  1
ACDBDICTIONARYWDFLT
  2
AcDbDictionaryWithDefault
  3
AutoCAD 2000
 90
0
 91
1
280
0
281
0
  0
CLASS
  1
ACDBPLACEHOLDER
  2
AcDbPlaceHolder
  3
AutoCAD 2000
 90
0
 91
1
280
0
281
0
  0
CLASS
  1
LAYOUT
  2
AcDbLayout
  3
AutoCAD 2000
 90
0
 91
0
280
0
281
0
  0
ENDSEC
  0
SECTION
  2
TABLES
  0
TABLE
  2
VPORT
  5
8
100
AcDbSymbolTable
 70
2
  0
VPORT
  5
1F4
100
AcDbSymbolTableRecord
100
AcDbViewportTableRecord
  2
*ACTIVE
 70
0
 10
0.0
 20
0.0
 11
1.0
 21
1.0
 12
96.9701617626
 22
137.1435144928
 13
0.0
 23
0.0
 14
1.0
 24
1.0
 15
0.0
 25
0.0
 16
0.0
 26
0.0
 36
1.0
 17
0.0
 27
0.0
 37
0.0
 40
274.2870289855
 41
0.7070707071
 42
50.0
 43
0.0
 44
0.0
 50
0.0
 51
0.0
 71
0
 72
100
 73
1
 74
1
 75
0
 76
0
 77
0
 78
0
  0
ENDTAB
  0
TABLE
  2
LTYPE
  5
5
100
AcDbSymbolTable
 70
6
  0
LTYPE
  5
14
100
AcDbSymbolTableRecord
100
AcDbLinetypeTableRecord
  2
BYBLOCK
 70
0
  3

 72
65
 73
0
 40
0.0
  0
LTYPE
  5
15
100
AcDbSymbolTableRecord
100
AcDbLinetypeTableRecord
  2
BYLAYER
 70
0
  3

 72
65
 73
0
 40
0.0
  0
LTYPE
  5
16
100
AcDbSymbolTableRecord
100
AcDbLinetypeTableRecord
  2
CONTINUOUS
 70
64
  3
Solid line
 72
65
 73
0
 40
0.0
  0
LTYPE
  5
1F5
100
AcDbSymbolTableRecord
100
AcDbLinetypeTableRecord
  2
CENTER
 70
64
  3
____ _ ____ _ ____ _ ____ _ ____ _ ____ _ ____
 72
65
 73
4
 40
0.6
 49
0.375
 74
0
 49
-0.075
 74
0
 49
0.075
 74
0
 49
-0.075
 74
0
  0
LTYPE
  5
1F6
100
AcDbSymbolTableRecord
100
AcDbLinetypeTableRecord
  2
HIDDEN
 70
64
  3
- - - - - - - - - - - - - - - - - - - -
 72
65
 73
2
 40
0.2
 49
0.1
 74
0
 49
-0.1
 74
0
  0
LTYPE
  5
1F7
100
AcDbSymbolTableRecord
100
AcDbLinetypeTableRecord
  2
PHANTOM
 70
64
  3
_____ _ _ _____ _ _ _____ _ _ _____
 72
65
 73
6
 40
0.8
 49
0.45
 74
0
 49
-0.05
 74
0
 49
0.1
 74
0
 49
-0.05
 74
0
 49
0.1
 74
0
 49
-0.05
 74
0
  0
LTYPE
  5
1F8
100
AcDbSymbolTableRecord
100
AcDbLinetypeTableRecord
  2
DOT
 70
64
  3
. . . . . . . . . . . . . . . . . . . .
 72
65
 73
2
 40
0.2
 49
0.1
 74
0
 49
-0.1
 74
0
  0
LTYPE
  5
1F9
100
AcDbSymbolTableRecord
100
AcDbLinetypeTableRecord
  2
DASHED
 70
64
  3
- - - - - - - - - - - - - - - - - - - -
 72
65
 73
2
 40
0.2
 49
0.1
 74
0
 49
-0.1
 74
0
  0
ENDTAB
  0
TABLE
  2
LAYER
  5
2
100
AcDbSymbolTable
 70
36
  0
LAYER
  5
10
100
AcDbSymbolTableRecord
100
AcDbLayerTableRecord
  2
0
 70
0
 62
7
  6
CONTINUOUS
370
-3
390
F
  0
LAYER
  5
1FA
100
AcDbSymbolTableRecord
100
AcDbLayerTableRecord
  2
DEFAULT_1
 70
0
 62
7
  6
CENTER
370
-3
390
F
  0
LAYER
  5
1FB
100
AcDbSymbolTableRecord
100
AcDbLayerTableRecord
  2
DEFAULT_2
 70
0
 62
8
  6
HIDDEN
370
-3
390
F
  0
LAYER
  5
1FC
100
AcDbSymbolTableRecord
100
AcDbLayerTableRecord
  2
DEFAULT_3
 70
0
 62
7
  6
PHANTOM
370
-3
390
F
  0
LAYER
  5
1FD
100
AcDbSymbolTableRecord
100
AcDbLayerTableRecord
  2
00_COMPONENTS
 70
0
 62
7
  6
CONTINUOUS
370
-3
390
F
  0
LAYER
  5
1FE
100
AcDbSymbolTableRecord
100
AcDbLayerTableRecord
  2
01_1_DEFAULT_DATUMS
 70
0
 62
7
  6
CONTINUOUS
370
-3
390
F
  0
LAYER
  5
1FF
100
AcDbSymbolTableRecord
100
AcDbLayerTableRecord
  2
01_PLANES
 70
0
 62
7
  6
CONTINUOUS
370
-3
390
F
  0
LAYER
  5
200
100
AcDbSymbolTableRecord
100
AcDbLayerTableRecord
  2
02_COORD_SYS
 70
0
 62
7
  6
CONTINUOUS
370
-3
390
F
  0
LAYER
  5
201
100
AcDbSymbolTableRecord
100
AcDbLayerTableRecord
  2
03_AXES
 70
0
 62
7
  6
CONTINUOUS
370
-3
390
F
  0
LAYER
  5
202
100
AcDbSymbolTableRecord
100
AcDbLayerTableRecord
  2
04_POINTS
 70
0
 62
7
  6
CONTINUOUS
370
-3
390
F
  0
LAYER
  5
203
100
AcDbSymbolTableRecord
100
AcDbLayerTableRecord
  2
05_CURVES
 70
0
 62
7
  6
CONTINUOUS
370
-3
390
F
  0
LAYER
  5
204
100
AcDbSymbolTableRecord
100
AcDbLayerTableRecord
  2
06_SURFS
 70
0
 62
7
  6
CONTINUOUS
370
-3
390
F
  0
LAYER
  5
205
100
AcDbSymbolTableRecord
100
AcDbLayerTableRecord
  2
07_COSMETICS
 70
0
 62
7
  6
CONTINUOUS
370
-3
390
F
  0
LAYER
  5
206
100
AcDbSymbolTableRecord
100
AcDbLayerTableRecord
  2
10_NOTES
 70
0
 62
7
  6
CONTINUOUS
370
-3
390
F
  0
LAYER
  5
207
100
AcDbSymbolTableRecord
100
AcDbLayerTableRecord
  2
11_NOTES_PUB
 70
0
 62
7
  6
CONTINUOUS
370
-3
390
F
  0
LAYER
  5
208
100
AcDbSymbolTableRecord
100
AcDbLayerTableRecord
  2
13_REF_GTOL
 70
0
 62
7
  6
CONTINUOUS
370
-3
390
F
  0
LAYER
  5
209
100
AcDbSymbolTableRecord
100
AcDbLayerTableRecord
  2
16_MISC
 70
0
 62
7
  6
CONTINUOUS
370
-3
390
F
  0
LAYER
  5
20A
100
AcDbSymbolTableRecord
100
AcDbLayerTableRecord
  2
17_NO_PRINT
 70
0
 62
7
  6
CONTINUOUS
370
-3
390
F
  0
LAYER
  5
20B
100
AcDbSymbolTableRecord
100
AcDbLayerTableRecord
  2
18_DATUM_CAMS_JOINTS
 70
0
 62
7
  6
CONTINUOUS
370
-3
390
F
  0
LAYER
  5
20C
100
AcDbSymbolTableRecord
100
AcDbLayerTableRecord
  2
19_DATUM_FUNCTIONAL
 70
0
 62
7
  6
CONTINUOUS
370
-3
390
F
  0
LAYER
  5
20D
100
AcDbSymbolTableRecord
100
AcDbLayerTableRecord
  2
20_DATUM_KINEMATIC_SCHEME
 70
0
 62
7
  6
CONTINUOUS
370
-3
390
F
  0
ENDTAB
  0
TABLE
  2
STYLE
  5
3
100
AcDbSymbolTable
 70
1
  0
STYLE
  5
11
100
AcDbSymbolTableRecord
100
AcDbTextStyleTableRecord
  2
STANDARD
 70
0
 40
0.0
 41
0.8
 50
0.0
 71
0
 42
0.2
  3
txt
  4

  0
STYLE
  5
20E
100
AcDbSymbolTableRecord
100
AcDbTextStyleTableRecord
  2
TEXTSTYLE_1
 70
0
 40
0.0
 41
0.8
 50
0.0
 71
0
 42
0.2
  3
gdt
  4

  0
ENDTAB
  0
TABLE
  2
VIEW
  5
6
100
AcDbSymbolTable
 70
0
  0
ENDTAB
  0
TABLE
  2
UCS
  5
7
100
AcDbSymbolTable
 70
0
  0
ENDTAB
  0
TABLE
  2
APPID
  5
9
100
AcDbSymbolTable
 70
1
  0
APPID
  5
20F
100
AcDbSymbolTableRecord
100
AcDbRegAppTableRecord
  2
ACAD
 70
0
  0
ENDTAB
  0
TABLE
  2
BLOCK_RECORD
  5
1
100
AcDbSymbolTable
 70
0
  0
BLOCK_RECORD
  5
210
100
AcDbSymbolTableRecord
100
AcDbBlockTableRecord
  2
*Model_Space
  0
BLOCK_RECORD
  5
211
100
AcDbSymbolTableRecord
100
AcDbBlockTableRecord
  2
*Paper_Space
  0
BLOCK_RECORD
  5
212
100
AcDbSymbolTableRecord
100
AcDbBlockTableRecord
  2
_FILLED
  0
ENDTAB
  0
TABLE
  2
DIMSTYLE
  5
A
100
AcDbSymbolTable
 70
1
100
AcDbDimStyleTable
 71
0
  0
DIMSTYLE
105
213
100
AcDbSymbolTableRecord
100
AcDbDimStyleTableRecord
  2
STANDARD
 70
0
  3

  4

 40
1.0
 41
2.3088133753
 42
1.0
 43
0.38
 44
1.0
 45
0.0
 46
0.0
 47
0.01
 48
0.01
140
3.2323387254
141
0.09
142
0.0
143
25.4
144
1.0
145
0.0
146
1.0
147
0.625
 71
1
 72
0
 73
0
 74
0
 75
0
 76
0
 77
1
 78
8
 79
2
170
0
171
1
172
0
173
0
174
0
175
0
176
0
177
0
178
0
270
2
179
2
271
2
272
2
273
2
274
2
275
0
280
0
281
0
282
0
283
1
284
8
285
0
286
0
287
3
288
0
340
11
278
46
341
212
342
212
343
212
344
212
  0
ENDTAB
  0
ENDSEC
  0
SECTION
  2
BLOCKS
  0
BLOCK
  5
20
100
AcDbEntity
  8
0
100
AcDbBlockBegin
  2
*Model_Space
 70
0
 10
0.0
 20
0.0
 30
0.0
  3
*Model_Space
  1

  0
ENDBLK
  5
21
100
AcDbEntity
  8
0
100
AcDbBlockEnd
  0
BLOCK
  5
1C
100
AcDbEntity
  8
0
100
AcDbBlockBegin
  2
*Paper_Space
 70
0
 10
0.0
 20
0.0
 30
0.0
  3
*Paper_Space
  1

  0
ENDBLK
  5
1D
100
AcDbEntity
  8
0
100
AcDbBlockEnd
  0
BLOCK
  5
214
100
AcDbEntity
  8
0
100
AcDbBlockBegin
  2
_FILLED
 70
64
 10
0.0
 20
0.0
  3
_FILLED
  1

  0
SOLID
  5
215
100
AcDbEntity
  8
0
  6
BYBLOCK
 62
0
100
AcDbTrace
 10
0.0
 20
0.0
 11
-1.0
 21
0.25
 12
-1.0
 22
-0.25
 13
-1.0
 23
-0.25
  0
ENDBLK
  5
216
100
AcDbEntity
  8
0
  6
BYBLOCK
 62
0
100
AcDbBlockEnd
  0
ENDSEC
  0
SECTION
  2
ENTITIES
  0
LINE
  5
217
100
AcDbEntity
  8
0
100
AcDbLine
 62
7
  6
CONTINUOUS
 10
120.9059586777
 20
21.9899637681
 11
81.1376613199
 21
21.9899637681
  0
LINE
  5
218
100
AcDbEntity
  8
0
100
AcDbLine
 62
7
  6
CONTINUOUS
 10
81.133089148
 20
21.9899637681
 11
75.9059586777
 21
21.9899637681
  0
LINE
  5
219
100
AcDbEntity
  8
0
100
AcDbLine
 62
7
  6
CONTINUOUS
 10
77.1379586777
 20
29.5535637681
 11
81.133089148
 21
29.5535637681
  0
LINE
  5
21A
100
AcDbEntity
  8
0
100
AcDbLine
 62
7
  6
CONTINUOUS
 10
81.1376613198
 20
29.5535637681
 11
119.6739586777
 21
29.5535637681
  0
LINE
  5
21B
100
AcDbEntity
  8
0
100
AcDbLine
 62
7
  6
CONTINUOUS
 10
119.6739586777
 20
33.2131439876
 11
120.9059586777
 21
33.2131439876
  0
LINE
  5
21C
100
AcDbEntity
  8
0
100
AcDbLine
 62
7
  6
CONTINUOUS
 10
114.9059586777
 20
33.4899637681
 11
117.9059586777
 21
33.4899637681
  0
LINE
  5
21D
100
AcDbEntity
  8
0
100
AcDbLine
 62
7
  6
CONTINUOUS
 10
93.3059586777
 20
36.4899637681
 11
113.3059586777
 21
36.4899637681
  0
LINE
  5
21E
100
AcDbEntity
  8
0
100
AcDbLine
 62
7
  6
CONTINUOUS
 10
120.9059586777
 20
38.7667844129
 11
119.6739586777
 21
38.7667844129
  0
LINE
  5
21F
100
AcDbEntity
  8
0
100
AcDbLine
 62
7
  6
CONTINUOUS
 10
120.9059586777
 20
39.9899629933
 11
119.6739586777
 21
39.9899629933
  0
LINE
  5
220
100
AcDbEntity
  8
0
100
AcDbLine
 62
7
  6
CONTINUOUS
 10
77.1379586777
 20
39.9899629933
 11
75.9059586777
 21
39.9899629933
  0
LINE
  5
221
100
AcDbEntity
  8
0
100
AcDbLine
 62
7
  6
CONTINUOUS
 10
119.6739586777
 20
41.4434637681
 11
117.9059586777
 21
41.4434637681
  0
LINE
  5
222
100
AcDbEntity
  8
0
100
AcDbLine
 62
7
  6
CONTINUOUS
 10
114.9059586777
 20
41.4434637681
 11
113.3059586777
 21
41.4434637681
  0
LINE
  5
223
100
AcDbEntity
  8
0
100
AcDbLine
 62
7
  6
CONTINUOUS
 10
93.3059586777
 20
41.4434637681
 11
77.1379586777
 21
41.4434637681
  0
LINE
  5
224
100
AcDbEntity
  8
0
100
AcDbLine
 62
7
  6
CONTINUOUS
 10
79.5624269837
 20
247.446034685
 11
82.9289757549
 21
250.8125834563
  0
LINE
  5
225
100
AcDbEntity
  8
0
100
AcDbLine
 62
7
  6
CONTINUOUS
 10
93.3059586777
 20
48.4899637681
 11
113.3059586777
 21
48.4899637681
  0
LINE
  5
226
100
AcDbEntity
  8
0
100
AcDbLine
 62
7
  6
CONTINUOUS
 10
91.3059586777
 20
54.7399637681
 11
113.3059586777
 21
54.7399637681
  0
LINE
  5
227
100
AcDbEntity
  8
0
100
AcDbLine
 62
7
  6
CONTINUOUS
 10
114.9059586777
 20
62.7570575075
 11
113.8715086094
 21
62.7570575075
  0
LINE
  5
228
100
AcDbEntity
  8
0
100
AcDbLine
 62
7
  6
CONTINUOUS
 10
88.4499923348
 20
62.7570575075
 11
84.4080386425
 21
62.7570575075
  0
LINE
  5
229
100
AcDbEntity
  8
0
100
AcDbLine
 62
7
  6
CONTINUOUS
 10
82.9404087461
 20
62.7570575075
 11
81.0294255721
 21
62.7570575075
  0
LINE
  5
22A
100
AcDbEntity
  8
0
100
AcDbLine
 62
7
  6
CONTINUOUS
 10
81.0294087461
 20
64.2228700287
 11
82.9404087461
 21
64.2228700287
  0
LINE
  5
22B
100
AcDbEntity
  8
0
100
AcDbLine
 62
7
  6
CONTINUOUS
 10
84.4080386425
 20
64.2228700287
 11
88.4499923348
 21
64.2228700287
  0
LINE
  5
22C
100
AcDbEntity
  8
0
100
AcDbLine
 62
7
  6
CONTINUOUS
 10
113.8715086094
 20
64.2228700287
 11
114.9059586777
 21
64.2228700287
  0
LINE
  5
22D
100
AcDbEntity
  8
0
100
AcDbLine
 62
7
  6
CONTINUOUS
 10
91.3059586777
 20
67.4899637681
 11
113.3059586777
 21
67.4899637681
  0
LINE
  5
22E
100
AcDbEntity
  8
0
100
AcDbLine
 62
7
  6
CONTINUOUS
 10
114.9059586777
 20
67.4899637681
 11
117.9059586777
 21
67.4899637681
  0
LINE
  5
22F
100
AcDbEntity
  8
0
100
AcDbLine
 62
7
  6
CONTINUOUS
 10
92.7001873118
 20
200.410085773
 11
95.4059586517
 21
201.5147172399
  0
LINE
  5
230
100
AcDbEntity
  8
0
100
AcDbLine
 62
7
  6
CONTINUOUS
 10
95.4059586517
 20
193.0294358657
 11
92.7001873118
 21
191.9248043988
  0
LINE
  5
231
100
AcDbEntity
  8
0
100
AcDbLine
 62
7
  6
CONTINUOUS
 10
93.2001873118
 20
191.3124319631
 11
95.9059587336
 21
192.4170577453
  0
LINE
  5
232
100
AcDbEntity
  8
0
100
AcDbLine
 62
7
  6
CONTINUOUS
 10
77.1369586777
 20
85.5161637681
 11
119.6749586777
 21
85.5161637681
  0
LINE
  5
233
100
AcDbEntity
  8
0
100
AcDbLine
 62
7
  6
CONTINUOUS
 10
120.9059586777
 20
87.1070100051
 11
119.6739586753
 21
87.1070100051
  0
LINE
  5
234
100
AcDbEntity
  8
0
100
AcDbLine
 62
7
  6
CONTINUOUS
 10
77.1379586802
 20
87.1070100051
 11
75.9059586777
 21
87.1070100051
  0
LINE
  5
235
100
AcDbEntity
  8
0
100
AcDbLine
 62
7
  6
CONTINUOUS
 10
80.1959807559
 20
90.5003191404
 11
94.1059807559
 21
90.4803191404
  0
LINE
  5
236
100
AcDbEntity
  8
0
100
AcDbLine
 62
7
  6
CONTINUOUS
 10
120.9059586777
 20
94.8129070979
 11
94.1122102138
 21
94.8129070979
  0
LINE
  5
237
100
AcDbEntity
  8
0
100
AcDbLine
 62
7
  6
CONTINUOUS
 10
106.9059586777
 20
95.5182163101
 11
95.9059586777
 21
95.5182163101
  0
LINE
  5
238
100
AcDbEntity
  8
0
100
AcDbLine
 62
7
  6
CONTINUOUS
 10
120.9059586777
 20
96.3360441905
 11
106.9059586777
 21
96.3360441905
  0
LINE
  5
239
100
AcDbEntity
  8
0
100
AcDbLine
 62
7
  6
CONTINUOUS
 10
95.9059586777
 20
96.3360441905
 11
94.1144002024
 21
96.3360441905
  0
LINE
  5
23A
100
AcDbEntity
  8
0
100
AcDbLine
 62
7
  6
CONTINUOUS
 10
89.0829766846
 20
78.172029737
 11
90.0384682717
 21
76.5170697621
  0
LINE
  5
23B
100
AcDbEntity
  8
0
100
AcDbLine
 62
7
  6
CONTINUOUS
 10
90.7722832199
 20
75.2460649885
 11
92.793260066
 21
71.74563041
  0
LINE
  5
23C
100
AcDbEntity
  8
0
100
AcDbLine
 62
7
  6
CONTINUOUS
 10
102.7492264089
 20
54.5013908656
 11
104.7702032551
 21
51.0009562872
  0
LINE
  5
23D
100
AcDbEntity
  8
0
100
AcDbLine
 62
7
  6
CONTINUOUS
 10
105.5040182033
 20
49.7299515135
 11
106.2199254619
 21
48.4899637681
  0
LINE
  5
23E
100
AcDbEntity
  8
0
100
AcDbLine
 62
7
  6
CONTINUOUS
 10
94.1259365996
 20
104.3596083958
 11
80.2159365996
 21
104.3796083958
  0
LINE
  5
23F
100
AcDbEntity
  8
0
100
AcDbLine
 62
7
  6
CONTINUOUS
 10
107.7278505123
 20
48.8097860091
 11
106.7734490838
 21
50.4628577741
  0
LINE
  5
240
100
AcDbEntity
  8
0
100
AcDbLine
 62
7
  6
CONTINUOUS
 10
106.0396341356
 20
51.7338625478
 11
104.3040607868
 21
54.7399637681
  0
LINE
  5
241
100
AcDbEntity
  8
0
100
AcDbLine
 62
7
  6
CONTINUOUS
 10
94.0626909466
 20
72.4785366706
 11
92.0417141004
 21
75.9789712491
  0
LINE
  5
242
100
AcDbEntity
  8
0
100
AcDbLine
 62
7
  6
CONTINUOUS
 10
91.3078991522
 20
77.2499760227
 11
90.3523991522
 21
78.9049505693
  0
LINE
  5
243
100
AcDbEntity
  8
0
100
AcDbLine
 62
7
  6
CONTINUOUS
 10
75.9059586777
 20
21.9899637681
 11
75.9059586777
 21
250.8520237892
  0
LINE
  5
244
100
AcDbEntity
  8
0
100
AcDbLine
 62
7
  6
CONTINUOUS
 10
84.1691946267
 20
160.1577188351
 11
83.9566819038
 21
159.86177479
  0
LINE
  5
245
100
AcDbEntity
  8
0
100
AcDbLine
 62
7
  6
CONTINUOUS
 10
77.3956366628
 20
200.8660321456
 11
77.4004635761
 21
195.5399637681
  0
LINE
  5
246
100
AcDbEntity
  8
0
100
AcDbLine
 62
7
  6
CONTINUOUS
 10
79.9059586777
 20
186.1800721763
 11
79.9210597332
 21
167.2971795891
  0
LINE
  5
247
100
AcDbEntity
  8
0
100
AcDbLine
 62
7
  6
CONTINUOUS
 10
79.9210597332
 20
167.2971795891
 11
79.9302683199
 21
154.8969049314
  0
LINE
  5
248
100
AcDbEntity
  8
0
100
AcDbLine
 62
7
  6
CONTINUOUS
 10
77.1379586777
 20
87.107002282
 11
77.1379586777
 21
29.5535637681
  0
LINE
  5
249
100
AcDbEntity
  8
0
100
AcDbLine
 62
7
  6
CONTINUOUS
 10
77.7864218414
 20
251.9686415652
 11
77.7864218414
 21
252.2206991617
  0
LINE
  5
24A
100
AcDbEntity
  8
0
100
AcDbLine
 62
7
  6
CONTINUOUS
 10
78.4059591248
 20
139.348604124
 11
78.4059586777
 21
200.0290425717
  0
LINE
  5
24B
100
AcDbEntity
  8
0
100
AcDbLine
 62
7
  6
CONTINUOUS
 10
78.9059582754
 20
191.1229589508
 11
78.9059582754
 21
200.3153525778
  0
LINE
  5
24C
100
AcDbEntity
  8
0
100
AcDbLine
 62
7
  6
CONTINUOUS
 10
80.9059586032
 20
191.093297468
 11
80.9059586032
 21
191.1229664014
  0
LINE
  5
24D
100
AcDbEntity
  8
0
100
AcDbLine
 62
7
  6
CONTINUOUS
 10
81.133089148
 20
29.5535637681
 11
81.133089148
 21
21.9899637681
  0
LINE
  5
24E
100
AcDbEntity
  8
0
100
AcDbLine
 62
7
  6
CONTINUOUS
 10
81.4059586777
 20
188.2943259341
 11
81.4059586777
 21
191.1229677541
  0
LINE
  5
24F
100
AcDbEntity
  8
0
100
AcDbLine
 62
7
  6
CONTINUOUS
 10
81.4059586777
 20
200.3153523615
 11
81.4059586777
 21
202.4364592296
  0
LINE
  5
250
100
AcDbEntity
  8
0
100
AcDbLine
 62
7
  6
CONTINUOUS
 10
83.4059587858
 20
198.2009379655
 11
83.4059587858
 21
197.3455057499
  0
LINE
  5
251
100
AcDbEntity
  8
0
100
AcDbLine
 62
7
  6
CONTINUOUS
 10
83.4059589534
 20
196.7798166928
 11
83.4059589534
 21
196.0656404335
  0
LINE
  5
252
100
AcDbEntity
  8
0
100
AcDbLine
 62
7
  6
CONTINUOUS
 10
83.4176615098
 20
222.0595370656
 11
83.4176615098
 21
213.5203904707
  0
LINE
  5
253
100
AcDbEntity
  8
0
100
AcDbLine
 62
7
  6
CONTINUOUS
 10
83.9566819038
 20
159.86177479
 11
83.9566819038
 21
152.7907069781
  0
LINE
  5
254
100
AcDbEntity
  8
0
100
AcDbLine
 62
7
  6
CONTINUOUS
 10
84.1691946267
 20
153.0866510232
 11
84.1691946267
 21
160.1577188351
  0
LINE
  5
255
100
AcDbEntity
  8
0
100
AcDbLine
 62
7
  6
CONTINUOUS
 10
84.6059586777
 20
153.5614510555
 11
84.6059586777
 21
160.6325188673
  0
LINE
  5
256
100
AcDbEntity
  8
0
100
AcDbLine
 62
7
  6
CONTINUOUS
 10
80.4178300901
 20
174.2800061923
 11
80.4159581318
 21
168.1399678212
  0
LINE
  5
257
100
AcDbEntity
  8
0
100
AcDbLine
 62
7
  6
CONTINUOUS
 10
84.9178476893
 20
174.3399666906
 11
84.9159588694
 21
167.6399593574
  0
LINE
  5
258
100
AcDbEntity
  8
0
100
AcDbLine
 62
7
  6
CONTINUOUS
 10
79.9302683199
 20
154.8969049314
 11
79.9305062397
 21
155.177479694
  0
LINE
  5
259
100
AcDbEntity
  8
0
100
AcDbLine
 62
7
  6
CONTINUOUS
 10
80.1959807559
 20
90.5003191404
 11
80.2159365996
 21
104.3796083958
  0
LINE
  5
25A
100
AcDbEntity
  8
0
100
AcDbLine
 62
7
  6
CONTINUOUS
 10
81.4146480251
 20
167.6399593574
 11
81.4140696661
 21
174.3399667692
  0
LINE
  5
25B
100
AcDbEntity
  8
0
100
AcDbLine
 62
7
  6
CONTINUOUS
 10
79.3711880545
 20
236.4899637681
 11
79.5624269837
 21
247.446034685
  0
LINE
  5
25C
100
AcDbEntity
  8
0
100
AcDbLine
 62
7
  6
CONTINUOUS
 10
84.1691946267
 20
153.0866510232
 11
83.9566819038
 21
152.7907069781
  0
LINE
  5
25D
100
AcDbEntity
  8
0
100
AcDbLine
 62
7
  6
CONTINUOUS
 10
89.0500107921
 20
167.6399593574
 11
89.0359585761
 21
168.1399678212
  0
LINE
  5
25E
100
AcDbEntity
  8
0
100
AcDbLine
 62
7
  6
CONTINUOUS
 10
85.9159590333
 20
168.1399678212
 11
85.9140880062
 21
174.2800061923
  0
LINE
  5
25F
100
AcDbEntity
  8
0
100
AcDbLine
 62
7
  6
CONTINUOUS
 10
89.0359585761
 20
168.1399678212
 11
89.0340698539
 21
174.339968465
  0
LINE
  5
260
100
AcDbEntity
  8
0
100
AcDbLine
 62
7
  6
CONTINUOUS
 10
85.8587888657
 20
138.2950209324
 11
85.8587888657
 21
136.3185922613
  0
LINE
  5
261
100
AcDbEntity
  8
0
100
AcDbLine
 62
7
  6
CONTINUOUS
 10
86.6742543015
 20
21.9899637681
 11
86.6742543015
 21
29.5535637681
  0
LINE
  5
262
100
AcDbEntity
  8
0
100
AcDbLine
 62
7
  6
CONTINUOUS
 10
86.8059586777
 20
196.6596062877
 11
86.8059586777
 21
201.1426740709
  0
LINE
  5
263
100
AcDbEntity
  8
0
100
AcDbLine
 62
7
  6
CONTINUOUS
 10
87.4412689014
 20
138.2950209324
 11
87.4412689014
 21
136.6184185257
  0
LINE
  5
264
100
AcDbEntity
  8
0
100
AcDbLine
 62
7
  6
CONTINUOUS
 10
88.0059586777
 20
201.1426740709
 11
88.0059586777
 21
196.6596062877
  0
LINE
  5
265
100
AcDbEntity
  8
0
100
AcDbLine
 62
7
  6
CONTINUOUS
 10
89.9639348095
 20
149.9622798534
 11
89.9639348095
 21
141.4769984791
  0
LINE
  5
266
100
AcDbEntity
  8
0
100
AcDbLine
 62
7
  6
CONTINUOUS
 10
90.6328498386
 20
142.7653090478
 11
90.6328498386
 21
151.2505904221
  0
LINE
  5
267
100
AcDbEntity
  8
0
100
AcDbLine
 62
7
  6
CONTINUOUS
 10
91.0488158121
 20
143.3229873886
 11
91.0488158121
 21
151.8082687629
  0
LINE
  5
268
100
AcDbEntity
  8
0
100
AcDbLine
 62
7
  6
CONTINUOUS
 10
91.3059586777
 20
67.4899637681
 11
91.3059586777
 21
54.7399637681
  0
LINE
  5
269
100
AcDbEntity
  8
0
100
AcDbLine
 62
7
  6
CONTINUOUS
 10
91.4059585697
 20
198.2009379655
 11
91.4059585697
 21
197.3455057499
  0
LINE
  5
26A
100
AcDbEntity
  8
0
100
AcDbLine
 62
7
  6
CONTINUOUS
 10
91.4059584021
 20
196.7798166928
 11
91.4059584021
 21
196.0656398639
  0
LINE
  5
26B
100
AcDbEntity
  8
0
100
AcDbLine
 62
7
  6
CONTINUOUS
 10
92.2001873118
 20
191.8300700533
 11
92.2001873118
 21
200.3153514275
  0
LINE
  5
26C
100
AcDbEntity
  8
0
100
AcDbLine
 62
7
  6
CONTINUOUS
 10
92.4059586256
 20
161.7611657359
 11
92.4059586256
 21
154.690097924
  0
LINE
  5
26D
100
AcDbEntity
  8
0
100
AcDbLine
 62
7
  6
CONTINUOUS
 10
92.7001873118
 20
200.410085773
 11
92.7001873118
 21
191.9248043988
  0
LINE
  5
26E
100
AcDbEntity
  8
0
100
AcDbLine
 62
7
  6
CONTINUOUS
 10
88.0378294393
 20
174.2800061923
 11
88.0359584122
 21
168.1399678212
  0
LINE
  5
26F
100
AcDbEntity
  8
0
100
AcDbLine
 62
7
  6
CONTINUOUS
 10
92.537847872
 20
174.339968465
 11
92.5359586841
 21
167.6399593574
  0
LINE
  5
270
100
AcDbEntity
  8
0
100
AcDbLine
 62
7
  6
CONTINUOUS
 10
98.0562403602
 20
242.1899637681
 11
97.5059586777
 21
231.6899637681
  0
LINE
  5
271
100
AcDbEntity
  8
0
100
AcDbLine
 62
7
  6
CONTINUOUS
 10
88.3809613305
 20
136.3765753215
 11
89.3760436249
 21
138.2950209324
  0
LINE
  5
272
100
AcDbEntity
  8
0
100
AcDbLine
 62
7
  6
CONTINUOUS
 10
91.0265097627
 20
141.4769984791
 11
91.5419884435
 21
142.4708035325
  0
LINE
  5
273
100
AcDbEntity
  8
0
100
AcDbLine
 62
7
  6
CONTINUOUS
 10
89.9639348095
 20
149.9622798534
 11
90.6328498386
 21
151.2505904221
  0
LINE
  5
274
100
AcDbEntity
  8
0
100
AcDbLine
 62
7
  6
CONTINUOUS
 10
90.6328498386
 20
142.7653090478
 11
89.9639348095
 21
141.4769984791
  0
LINE
  5
275
100
AcDbEntity
  8
0
100
AcDbLine
 62
7
  6
CONTINUOUS
 10
88.3117923411
 20
138.2950209324
 11
87.4412693698
 21
136.6184194277
  0
LINE
  5
276
100
AcDbEntity
  8
0
100
AcDbLine
 62
7
  6
CONTINUOUS
 10
80.9719971468
 20
138.2950209324
 11
85.2160012006
 21
135.7769089749
  0
LINE
  5
277
100
AcDbEntity
  8
0
100
AcDbLine
 62
7
  6
CONTINUOUS
 10
85.8587888657
 20
136.3185922613
 11
82.5277261579
 21
138.2950209324
  0
LINE
  5
278
100
AcDbEntity
  8
0
100
AcDbLine
 62
7
  6
CONTINUOUS
 10
93.5359588481
 20
168.1399678212
 11
93.534087821
 21
174.2800061923
  0
LINE
  5
279
100
AcDbEntity
  8
0
100
AcDbLine
 62
7
  6
CONTINUOUS
 10
93.3059586777
 20
48.4899637681
 11
93.3059586777
 21
36.4899637681
  0
LINE
  5
27A
100
AcDbEntity
  8
0
100
AcDbLine
 62
7
  6
CONTINUOUS
 10
93.9959586254
 20
202.8399740678
 11
93.9959586254
 21
202.4364577183
  0
LINE
  5
27B
100
AcDbEntity
  8
0
100
AcDbLine
 62
7
  6
CONTINUOUS
 10
94.2909932352
 20
202.4364576829
 11
94.2909932352
 21
202.8399740678
  0
LINE
  5
27C
100
AcDbEntity
  8
0
100
AcDbLine
 62
7
  6
CONTINUOUS
 10
94.9009243055
 20
202.8399740678
 11
94.9009243055
 21
202.4364576097
  0
LINE
  5
27D
100
AcDbEntity
  8
0
100
AcDbLine
 62
7
  6
CONTINUOUS
 10
95.1117301016
 20
154.1029904356
 11
95.1117301016
 21
160.6565426566
  0
LINE
  5
27E
100
AcDbEntity
  8
0
100
AcDbLine
 62
7
  6
CONTINUOUS
 10
95.1959586824
 20
202.4364575743
 11
95.1959586824
 21
202.8399740678
  0
LINE
  5
27F
100
AcDbEntity
  8
0
100
AcDbLine
 62
7
  6
CONTINUOUS
 10
95.2869365579
 20
138.2950209324
 11
95.2869365579
 21
138.1366680374
  0
LINE
  5
280
100
AcDbEntity
  8
0
100
AcDbLine
 62
7
  6
CONTINUOUS
 10
95.4059586517
 20
193.0294358657
 11
95.4059586517
 21
201.5147172399
  0
LINE
  5
281
100
AcDbEntity
  8
0
100
AcDbLine
 62
7
  6
CONTINUOUS
 10
95.6117299507
 20
154.2724684596
 11
95.6117299507
 21
160.5618085243
  0
LINE
  5
282
100
AcDbEntity
  8
0
100
AcDbLine
 62
7
  6
CONTINUOUS
 10
95.9059586777
 20
94.8146709487
 11
95.9059586777
 21
100.0097388272
  0
LINE
  5
283
100
AcDbEntity
  8
0
100
AcDbLine
 62
7
  6
CONTINUOUS
 10
96.4059587858
 20
159.1615725762
 11
96.4059587858
 21
158.3061403606
  0
LINE
  5
284
100
AcDbEntity
  8
0
100
AcDbLine
 62
7
  6
CONTINUOUS
 10
96.4059589534
 20
157.7404513035
 11
96.4059589534
 21
157.0262746184
  0
LINE
  5
285
100
AcDbEntity
  8
0
100
AcDbLine
 62
7
  6
CONTINUOUS
 10
98.4518323098
 20
145.2975220671
 11
98.4518323098
 21
141.4769984791
  0
LINE
  5
286
100
AcDbEntity
  8
0
100
AcDbLine
 62
7
  6
CONTINUOUS
 10
98.6691943966
 20
141.7729430032
 11
98.6691943966
 21
145.3066144048
  0
LINE
  5
287
100
AcDbEntity
  8
0
100
AcDbLine
 62
7
  6
CONTINUOUS
 10
99.1059586777
 20
142.2477425565
 11
99.1059586777
 21
145.2515392817
  0
LINE
  5
288
100
AcDbEntity
  8
0
100
AcDbLine
 62
7
  6
CONTINUOUS
 10
99.8059586777
 20
157.6202408984
 11
99.8059586777
 21
162.1033086816
  0
LINE
  5
289
100
AcDbEntity
  8
0
100
AcDbLine
 62
7
  6
CONTINUOUS
 10
95.6578294869
 20
174.2800061923
 11
95.6559586926
 21
168.1399678212
  0
LINE
  5
28A
100
AcDbEntity
  8
0
100
AcDbLine
 62
7
  6
CONTINUOUS
 10
94.1259365996
 20
104.3596083958
 11
94.1059807559
 21
90.4803191404
  0
LINE
  5
28B
100
AcDbEntity
  8
0
100
AcDbLine
 62
7
  6
CONTINUOUS
 10
105.7059586777
 20
241.6899637681
 11
106.0872021755
 21
248.9645230606
  0
LINE
  5
28C
100
AcDbEntity
  8
0
100
AcDbLine
 62
7
  6
CONTINUOUS
 10
97.8091093135
 20
138.1946521809
 11
97.863440549
 21
138.2950209324
  0
LINE
  5
28D
100
AcDbEntity
  8
0
100
AcDbLine
 62
7
  6
CONTINUOUS
 10
99.5858966799
 20
141.4769984791
 11
99.60041246
 21
141.5038141906
  0
LINE
  5
28E
100
AcDbEntity
  8
0
100
AcDbLine
 62
7
  6
CONTINUOUS
 10
98.6691943966
 20
141.7729430032
 11
98.4518323098
 21
141.4769984791
  0
LINE
  5
28F
100
AcDbEntity
  8
0
100
AcDbLine
 62
7
  6
CONTINUOUS
 10
120.9059586777
 20
138.2950209324
 11
75.9059586777
 21
138.2950209324
  0
LINE
  5
290
100
AcDbEntity
  8
0
100
AcDbLine
 62
7
  6
CONTINUOUS
 10
93.4643294371
 20
138.2950209324
 11
94.6441488928
 21
137.5949959269
  0
LINE
  5
291
100
AcDbEntity
  8
0
100
AcDbLine
 62
7
  6
CONTINUOUS
 10
95.2869365579
 20
138.1366680374
 11
95.0200496345
 21
138.2950209324
  0
LINE
  5
292
100
AcDbEntity
  8
0
100
AcDbLine
 62
7
  6
CONTINUOUS
 10
102.8972311453
 20
242.1899637681
 11
102.9059586777
 21
241.6899637681
  0
LINE
  5
293
100
AcDbEntity
  8
0
100
AcDbLine
 62
7
  6
CONTINUOUS
 10
106.0872021755
 20
248.9645230606
 11
106.0459974683
 21
251.3251391566
  0
LINE
  5
294
100
AcDbEntity
  8
0
100
AcDbLine
 62
7
  6
CONTINUOUS
 10
101.1559586628
 20
168.1399678212
 11
101.1540878686
 21
174.2800061923
  0
LINE
  5
295
100
AcDbEntity
  8
0
100
AcDbLine
 62
7
  6
CONTINUOUS
 10
101.0059586777
 20
162.1033086816
 11
101.0059586777
 21
157.6202408984
  0
LINE
  5
296
100
AcDbEntity
  8
0
100
AcDbLine
 62
7
  6
CONTINUOUS
 10
101.9059586777
 20
153.7935257852
 11
101.9059586777
 21
145.308244411
  0
LINE
  5
297
100
AcDbEntity
  8
0
100
AcDbLine
 62
7
  6
CONTINUOUS
 10
103.8603135769
 20
191.1229650588
 11
103.8603135769
 21
199.608246433
  0
LINE
  5
298
100
AcDbEntity
  8
0
100
AcDbLine
 62
7
  6
CONTINUOUS
 10
104.4059584021
 20
157.7404513035
 11
104.4059584021
 21
157.0262746184
  0
LINE
  5
299
100
AcDbEntity
  8
0
100
AcDbLine
 62
7
  6
CONTINUOUS
 10
104.4059585697
 20
159.1615725762
 11
104.4059585697
 21
158.3061403606
  0
LINE
  5
29A
100
AcDbEntity
  8
0
100
AcDbLine
 62
7
  6
CONTINUOUS
 10
105.7470387233
 20
143.7401294335
 11
105.7470387233
 21
152.2254108077
  0
LINE
  5
29B
100
AcDbEntity
  8
0
100
AcDbLine
 62
7
  6
CONTINUOUS
 10
106.4038372941
 20
253.1614858454
 11
106.4038372941
 21
253.4614977545
  0
LINE
  5
29C
100
AcDbEntity
  8
0
100
AcDbLine
 62
7
  6
CONTINUOUS
 10
106.9059591397
 20
151.8616745246
 11
106.9059591397
 21
143.3763931503
  0
LINE
  5
29D
100
AcDbEntity
  8
0
100
AcDbLine
 62
7
  6
CONTINUOUS
 10
106.9059586777
 20
100.0097388272
 11
106.9059586777
 21
94.8146709487
  0
LINE
  5
29E
100
AcDbEntity
  8
0
100
AcDbLine
 62
7
  6
CONTINUOUS
 10
107.8814442265
 20
202.8199637681
 11
107.8814442265
 21
202.8399740678
  0
LINE
  5
29F
100
AcDbEntity
  8
0
100
AcDbLine
 62
7
  6
CONTINUOUS
 10
107.9198885945
 20
202.8399740678
 11
107.9198885945
 21
202.436456047
  0
LINE
  5
2A0
100
AcDbEntity
  8
0
100
AcDbLine
 62
7
  6
CONTINUOUS
 10
103.2778295345
 20
174.2800061923
 11
103.2759585074
 21
168.1399678212
  0
LINE
  5
2A1
100
AcDbEntity
  8
0
100
AcDbLine
 62
7
  6
CONTINUOUS
 10
75.9059586777
 20
139.348604124
 11
78.4059591248
 21
139.348604124
  0
LINE
  5
2A2
100
AcDbEntity
  8
0
100
AcDbLine
 62
7
  6
CONTINUOUS
 10
117.819375883
 20
139.3486115746
 11
120.9059586777
 21
139.3486115746
  0
LINE
  5
2A3
100
AcDbEntity
  8
0
100
AcDbLine
 62
7
  6
CONTINUOUS
 10
117.8707055882
 20
139.3556781356
 11
78.4059591247
 21
139.3521411298
  0
LINE
  5
2A4
100
AcDbEntity
  8
0
100
AcDbLine
 62
7
  6
CONTINUOUS
 10
117.819375883
 20
141.4699318933
 11
123.4059590503
 21
141.4699274113
  0
LINE
  5
2A5
100
AcDbEntity
  8
0
100
AcDbLine
 62
7
  6
CONTINUOUS
 10
89.9639348095
 20
141.4769984791
 11
91.0265097627
 21
141.4769984791
  0
LINE
  5
2A6
100
AcDbEntity
  8
0
100
AcDbLine
 62
7
  6
CONTINUOUS
 10
98.4518323098
 20
141.4769984791
 11
99.5858966799
 21
141.4769984791
  0
LINE
  5
2A7
100
AcDbEntity
  8
0
100
AcDbLine
 62
7
  6
CONTINUOUS
 10
109.6440019703
 20
141.4769984791
 11
117.8707055882
 21
141.4769984791
  0
LINE
  5
2A8
100
AcDbEntity
  8
0
100
AcDbLine
 62
7
  6
CONTINUOUS
 10
123.4059590503
 20
142.1770322135
 11
110.1117297663
 21
142.1770284882
  0
LINE
  5
2A9
100
AcDbEntity
  8
0
100
AcDbLine
 62
7
  6
CONTINUOUS
 10
101.4059586777
 20
144.6958719753
 11
103.2990124732
 21
143.9230357961
  0
LINE
  5
2AA
100
AcDbEntity
  8
0
100
AcDbLine
 62
7
  6
CONTINUOUS
 10
105.342368944
 20
143.0888383772
 11
108.8437806471
 21
141.6593919506
  0
LINE
  5
2AB
100
AcDbEntity
  8
0
100
AcDbLine
 62
7
  6
CONTINUOUS
 10
105.7470387233
 20
143.7401294335
 11
101.9059568903
 21
145.3082451407
  0
LINE
  5
2AC
100
AcDbEntity
  8
0
100
AcDbLine
 62
7
  6
CONTINUOUS
 10
109.6117220223
 20
142.2717694986
 11
106.9059591397
 21
143.3763931503
  0
LINE
  5
2AD
100
AcDbEntity
  8
0
100
AcDbLine
 62
7
  6
CONTINUOUS
 10
108.7759589433
 20
168.1399678212
 11
108.7740879162
 21
174.2800061923
  0
LINE
  5
2AE
100
AcDbEntity
  8
0
100
AcDbLine
 62
7
  6
CONTINUOUS
 10
116.3959592237
 20
168.1399678212
 11
116.3940872653
 21
174.2800061923
  0
LINE
  5
2AF
100
AcDbEntity
  8
0
100
AcDbLine
 62
7
  6
CONTINUOUS
 10
108.9059585362
 20
160.5618085243
 11
108.9059585362
 21
152.7907069781
  0
LINE
  5
2B0
100
AcDbEntity
  8
0
100
AcDbLine
 62
7
  6
CONTINUOUS
 10
109.4059586181
 20
159.5390181528
 11
109.4059586181
 21
162.3005037596
  0
LINE
  5
2B1
100
AcDbEntity
  8
0
100
AcDbLine
 62
7
  6
CONTINUOUS
 10
109.4059587858
 20
159.5151259668
 11
109.4059586181
 21
151.0229446237
  0
LINE
  5
2B2
100
AcDbEntity
  8
0
100
AcDbLine
 62
7
  6
CONTINUOUS
 10
109.6117300437
 20
142.2717662239
 11
109.6117300437
 21
150.7570475981
  0
LINE
  5
2B3
100
AcDbEntity
  8
0
100
AcDbLine
 62
7
  6
CONTINUOUS
 10
110.1117297663
 20
142.1770284882
 11
110.1117297663
 21
150.6623098624
  0
LINE
  5
2B4
100
AcDbEntity
  8
0
100
AcDbLine
 62
7
  6
CONTINUOUS
 10
110.1376630539
 20
29.5535637681
 11
110.1376630539
 21
21.9899637681
  0
LINE
  5
2B5
100
AcDbEntity
  8
0
100
AcDbLine
 62
7
  6
CONTINUOUS
 10
111.0893587858
 20
148.5549708584
 11
111.0893587858
 21
147.6995386428
  0
LINE
  5
2B6
100
AcDbEntity
  8
0
100
AcDbLine
 62
7
  6
CONTINUOUS
 10
111.0893589534
 20
147.1338495857
 11
111.0893589534
 21
146.4196698299
  0
LINE
  5
2B7
100
AcDbEntity
  8
0
100
AcDbLine
 62
7
  6
CONTINUOUS
 10
112.8059586777
 20
157.973794289
 11
112.8059586777
 21
162.4568620722
  0
LINE
  5
2B8
100
AcDbEntity
  8
0
100
AcDbLine
 62
7
  6
CONTINUOUS
 10
113.3059586777
 20
36.4899637681
 11
113.3059586777
 21
48.4899637681
  0
LINE
  5
2B9
100
AcDbEntity
  8
0
100
AcDbLine
 62
7
  6
CONTINUOUS
 10
113.3059586777
 20
54.7399637681
 11
113.3059586777
 21
67.4899637681
  0
LINE
  5
2BA
100
AcDbEntity
  8
0
100
AcDbLine
 62
7
  6
CONTINUOUS
 10
113.3942558456
 20
222.0595370656
 11
113.3942558456
 21
213.5203904707
  0
LINE
  5
2BB
100
AcDbEntity
  8
0
100
AcDbLine
 62
7
  6
CONTINUOUS
 10
114.0059586777
 20
162.4568620722
 11
114.0059586777
 21
157.973794289
  0
LINE
  5
2BC
100
AcDbEntity
  8
0
100
AcDbLine
 62
7
  6
CONTINUOUS
 10
114.4893586777
 20
147.0136391806
 11
114.4893586777
 21
151.4967069638
  0
LINE
  5
2BD
100
AcDbEntity
  8
0
100
AcDbLine
 62
7
  6
CONTINUOUS
 10
114.7559586777
 20
189.7171280776
 11
114.7559586777
 21
201.0207921798
  0
LINE
  5
2BE
100
AcDbEntity
  8
0
100
AcDbLine
 62
7
  6
CONTINUOUS
 10
114.9059586777
 20
67.4899637681
 11
114.9059586777
 21
33.4899637681
  0
LINE
  5
2BF
100
AcDbEntity
  8
0
100
AcDbLine
 62
7
  6
CONTINUOUS
 10
115.6742543015
 20
21.9899637681
 11
115.6742543015
 21
29.5535637681
  0
LINE
  5
2C0
100
AcDbEntity
  8
0
100
AcDbLine
 62
7
  6
CONTINUOUS
 10
115.6893586777
 20
151.4967069638
 11
115.6893586777
 21
147.0136391806
  0
LINE
  5
2C1
100
AcDbEntity
  8
0
100
AcDbLine
 62
7
  6
CONTINUOUS
 10
110.8978293492
 20
174.2800061923
 11
110.8959583222
 21
168.1399678212
  0
LINE
  5
2C2
100
AcDbEntity
  8
0
100
AcDbLine
 62
7
  6
CONTINUOUS
 10
110.1117297663
 20
150.6623098624
 11
112.2841520067
 21
150.6623104712
  0
LINE
  5
2C3
100
AcDbEntity
  8
0
100
AcDbLine
 62
7
  6
CONTINUOUS
 10
117.9081406207
 20
150.6623120471
 11
123.4059590503
 21
150.6623135877
  0
LINE
  5
2C4
100
AcDbEntity
  8
0
100
AcDbLine
 62
7
  6
CONTINUOUS
 10
109.4059586181
 20
151.0229446237
 11
112.6975677964
 21
151.0229446237
  0
LINE
  5
2C5
100
AcDbEntity
  8
0
100
AcDbLine
 62
7
  6
CONTINUOUS
 10
117.5077749954
 20
151.0229446237
 11
117.8707055882
 21
151.0229446237
  0
LINE
  5
2C6
100
AcDbEntity
  8
0
100
AcDbLine
 62
7
  6
CONTINUOUS
 10
117.6628626643
 20
152.4171007506
 11
109.4059586181
 21
152.4171007506
  0
LINE
  5
2C7
100
AcDbEntity
  8
0
100
AcDbLine
 62
7
  6
CONTINUOUS
 10
83.9566819038
 20
152.7907069781
 11
85.086852316
 21
152.7907069781
  0
LINE
  5
2C8
100
AcDbEntity
  8
0
100
AcDbLine
 62
7
  6
CONTINUOUS
 10
104.3623520956
 20
152.7907069781
 11
108.9059585362
 21
152.7907069781
  0
LINE
  5
2C9
100
AcDbEntity
  8
0
100
AcDbLine
 62
7
  6
CONTINUOUS
 10
108.9059585362
 20
153.4907407124
 11
102.6476273167
 21
153.4907407124
  0
LINE
  5
2CA
100
AcDbEntity
  8
0
100
AcDbLine
 62
7
  6
CONTINUOUS
 10
120.4059585586
 20
153.6388583724
 11
118.893692396
 21
153.6388583724
  0
LINE
  5
2CB
100
AcDbEntity
  8
0
100
AcDbLine
 62
7
  6
CONTINUOUS
 10
91.7846542439
 20
154.1256717403
 11
93.3254305774
 21
153.4975132253
  0
LINE
  5
2CC
100
AcDbEntity
  8
0
100
AcDbLine
 62
7
  6
CONTINUOUS
 10
94.4191265002
 20
153.868228185
 11
92.4059586256
 21
154.690097924
  0
LINE
  5
2CD
100
AcDbEntity
  8
0
100
AcDbLine
 62
7
  6
CONTINUOUS
 10
101.9059568903
 20
153.7935265149
 11
105.7470387233
 21
152.2254108077
  0
LINE
  5
2CE
100
AcDbEntity
  8
0
100
AcDbLine
 62
7
  6
CONTINUOUS
 10
106.9059591397
 20
151.8616745246
 11
109.6117220223
 21
150.7570508728
  0
LINE
  5
2CF
100
AcDbEntity
  8
0
100
AcDbLine
 62
7
  6
CONTINUOUS
 10
119.4534896966
 20
201.7658374243
 11
119.4525257649
 21
202.8399740678
  0
LINE
  5
2D0
100
AcDbEntity
  8
0
100
AcDbLine
 62
7
  6
CONTINUOUS
 10
117.4061033531
 20
167.6630412561
 11
117.4059580668
 21
168.1399678212
  0
LINE
  5
2D1
100
AcDbEntity
  8
0
100
AcDbLine
 62
7
  6
CONTINUOUS
 10
117.0559586777
 20
201.0207920518
 11
117.0559586777
 21
189.717127978
  0
LINE
  5
2D2
100
AcDbEntity
  8
0
100
AcDbLine
 62
7
  6
CONTINUOUS
 10
117.4059585697
 20
159.5151259668
 11
117.4059585697
 21
158.6596937512
  0
LINE
  5
2D3
100
AcDbEntity
  8
0
100
AcDbLine
 62
7
  6
CONTINUOUS
 10
117.4059584021
 20
158.0940046941
 11
117.4059584021
 21
157.3868980873
  0
LINE
  5
2D4
100
AcDbEntity
  8
0
100
AcDbLine
 62
7
  6
CONTINUOUS
 10
117.4059580668
 20
188.2943216128
 11
117.4059580668
 21
202.4364549083
  0
LINE
  5
2D5
100
AcDbEntity
  8
0
100
AcDbLine
 62
7
  6
CONTINUOUS
 10
117.6628626643
 20
162.3005037596
 11
117.6628626643
 21
152.4171007506
  0
LINE
  5
2D6
100
AcDbEntity
  8
0
100
AcDbLine
 62
7
  6
CONTINUOUS
 10
117.8707055882
 20
166.7432534502
 11
117.8707055882
 21
162.3972621379
  0
LINE
  5
2D7
100
AcDbEntity
  8
0
100
AcDbLine
 62
7
  6
CONTINUOUS
 10
117.8707055882
 20
151.0229446237
 11
117.8707055882
 21
150.6960319555
  0
LINE
  5
2D8
100
AcDbEntity
  8
0
100
AcDbLine
 62
7
  6
CONTINUOUS
 10
117.8707055882
 20
141.4769984791
 11
117.8707055882
 21
139.3556781356
  0
LINE
  5
2D9
100
AcDbEntity
  8
0
100
AcDbLine
 62
7
  6
CONTINUOUS
 10
117.9059586777
 20
33.4899637681
 11
117.9059586777
 21
67.4899637681
  0
LINE
  5
2DA
100
AcDbEntity
  8
0
100
AcDbLine
 62
7
  6
CONTINUOUS
 10
119.0893585697
 20
148.5549708584
 11
119.0893585697
 21
147.6995386428
  0
LINE
  5
2DB
100
AcDbEntity
  8
0
100
AcDbLine
 62
7
  6
CONTINUOUS
 10
119.0893584021
 20
147.1338495857
 11
119.0893584021
 21
146.419671691
  0
LINE
  5
2DC
100
AcDbEntity
  8
0
100
AcDbLine
 62
7
  6
CONTINUOUS
 10
119.4381653919
 20
201.7766107683
 11
119.4381653919
 21
202.8399740678
  0
LINE
  5
2DD
100
AcDbEntity
  8
0
100
AcDbLine
 62
7
  6
CONTINUOUS
 10
119.6739586777
 20
29.5535637681
 11
119.6739586777
 21
33.2131439876
  0
LINE
  5
2DE
100
AcDbEntity
  8
0
100
AcDbLine
 62
7
  6
CONTINUOUS
 10
119.6739586777
 20
33.2161908861
 11
119.6739586777
 21
38.763735652
  0
LINE
  5
2DF
100
AcDbEntity
  8
0
100
AcDbLine
 62
7
  6
CONTINUOUS
 10
120.4059586777
 20
199.8172510378
 11
120.4059585585
 21
153.6284965817
  0
LINE
  5
2E0
100
AcDbEntity
  8
0
100
AcDbLine
 62
7
  6
CONTINUOUS
 10
120.9059586777
 20
250.7120436084
 11
120.9059586777
 21
150.6623128872
  0
LINE
  5
2E1
100
AcDbEntity
  8
0
100
AcDbLine
 62
7
  6
CONTINUOUS
 10
120.9059586777
 20
38.763735652
 11
120.9059586777
 21
33.2161908861
  0
LINE
  5
2E2
100
AcDbEntity
  8
0
100
AcDbLine
 62
7
  6
CONTINUOUS
 10
120.9059586777
 20
33.2131439876
 11
120.9059586777
 21
21.9899637681
  0
LINE
  5
2E3
100
AcDbEntity
  8
0
100
AcDbLine
 62
7
  6
CONTINUOUS
 10
120.9059586777
 20
38.7667844129
 11
120.9059586777
 21
141.4699289085
  0
LINE
  5
2E4
100
AcDbEntity
  8
0
100
AcDbLine
 62
7
  6
CONTINUOUS
 10
123.4059590503
 20
150.6623135877
 11
123.4059590503
 21
141.4699274113
  0
LINE
  5
2E5
100
AcDbEntity
  8
0
100
AcDbLine
 62
7
  6
CONTINUOUS
 10
119.6739586777
 20
38.7667844129
 11
119.6739586777
 21
87.107002282
  0
LINE
  5
2E6
100
AcDbEntity
  8
0
100
AcDbLine
 62
7
  6
CONTINUOUS
 10
118.893692396
 20
153.6388583724
 11
118.905959244
 21
186.1800737922
  0
LINE
  5
2E7
100
AcDbEntity
  8
0
100
AcDbLine
 62
7
  6
CONTINUOUS
 10
117.3535041167
 20
167.6495706063
 11
117.4061033531
 21
167.6630412561
  0
LINE
  5
2E8
100
AcDbEntity
  8
0
100
AcDbLine
 62
7
  6
CONTINUOUS
 10
78.4059591203
 20
154.8967605929
 11
79.9302683858
 21
154.8967605929
  0
LINE
  5
2E9
100
AcDbEntity
  8
0
100
AcDbLine
 62
7
  6
CONTINUOUS
 10
79.9295486531
 20
155.4303376697
 11
78.4059591072
 21
155.4303376697
  0
LINE
  5
2EA
100
AcDbEntity
  8
0
100
AcDbLine
 62
7
  6
CONTINUOUS
 10
108.9059585362
 20
160.5618085243
 11
103.9865457943
 21
160.5618085243
  0
LINE
  5
2EB
100
AcDbEntity
  8
0
100
AcDbLine
 62
7
  6
CONTINUOUS
 10
96.8329811179
 20
160.5618085243
 11
95.6117299507
 21
160.5618085243
  0
LINE
  5
2EC
100
AcDbEntity
  8
0
100
AcDbLine
 62
7
  6
CONTINUOUS
 10
109.4059586181
 20
162.3005037596
 11
111.8697721615
 21
162.3005037596
  0
LINE
  5
2ED
100
AcDbEntity
  8
0
100
AcDbLine
 62
7
  6
CONTINUOUS
 10
114.9403594036
 20
162.3005037596
 11
117.6628626643
 21
162.3005037596
  0
LINE
  5
2EE
100
AcDbEntity
  8
0
100
AcDbLine
 62
7
  6
CONTINUOUS
 10
95.1117301016
 20
160.6565426566
 11
92.4059586256
 21
161.7611657359
  0
LINE
  5
2EF
100
AcDbEntity
  8
0
100
AcDbLine
 62
7
  6
CONTINUOUS
 10
117.1559594228
 20
167.6399593574
 11
117.3535041167
 21
167.6495706063
  0
LINE
  5
2F0
100
AcDbEntity
  8
0
100
AcDbLine
 62
7
  6
CONTINUOUS
 10
98.4059586777
 20
164.8829761781
 11
79.9305062397
 21
164.8829761781
  0
LINE
  5
2F1
100
AcDbEntity
  8
0
100
AcDbLine
 62
7
  6
CONTINUOUS
 10
79.9298693983
 20
166.7433267968
 11
117.8707055882
 21
166.7432534502
  0
LINE
  5
2F2
100
AcDbEntity
  8
0
100
AcDbLine
 62
7
  6
CONTINUOUS
 10
117.819375883
 20
166.884239884
 11
118.8981697277
 21
166.884239884
  0
LINE
  5
2F3
100
AcDbEntity
  8
0
100
AcDbLine
 62
7
  6
CONTINUOUS
 10
120.4059586021
 20
166.884239884
 11
120.9059586777
 21
166.884239884
  0
LINE
  5
2F4
100
AcDbEntity
  8
0
100
AcDbLine
 62
7
  6
CONTINUOUS
 10
75.9059586777
 20
166.8843409398
 11
78.4059591248
 21
166.8843409398
  0
LINE
  5
2F5
100
AcDbEntity
  8
0
100
AcDbLine
 62
7
  6
CONTINUOUS
 10
120.9059586777
 20
167.0819260423
 11
120.4059586027
 21
167.0819260423
  0
LINE
  5
2F6
100
AcDbEntity
  8
0
100
AcDbLine
 62
7
  6
CONTINUOUS
 10
118.8982365515
 20
167.0819260423
 11
79.9296733137
 21
167.0819260423
  0
LINE
  5
2F7
100
AcDbEntity
  8
0
100
AcDbLine
 62
7
  6
CONTINUOUS
 10
78.4059589554
 20
167.0819260423
 11
75.9059586777
 21
167.0819260423
  0
LINE
  5
2F8
100
AcDbEntity
  8
0
100
AcDbLine
 62
7
  6
CONTINUOUS
 10
79.929301685
 20
167.6399593574
 11
81.4146480251
 21
167.6399593574
  0
LINE
  5
2F9
100
AcDbEntity
  8
0
100
AcDbLine
 62
7
  6
CONTINUOUS
 10
84.9159588694
 20
167.6399593574
 11
89.0500107921
 21
167.6399593574
  0
LINE
  5
2FA
100
AcDbEntity
  8
0
100
AcDbLine
 62
7
  6
CONTINUOUS
 10
92.5359586841
 20
167.6399593574
 11
117.1559594228
 21
167.6399593574
  0
LINE
  5
2FB
100
AcDbEntity
  8
0
100
AcDbLine
 62
7
  6
CONTINUOUS
 10
117.4059580668
 20
168.1399678212
 11
116.3959592237
 21
168.1399678212
  0
LINE
  5
2FC
100
AcDbEntity
  8
0
100
AcDbLine
 62
7
  6
CONTINUOUS
 10
110.8959583222
 20
168.1399678212
 11
108.7759589433
 21
168.1399678212
  0
LINE
  5
2FD
100
AcDbEntity
  8
0
100
AcDbLine
 62
7
  6
CONTINUOUS
 10
103.2759585074
 20
168.1399678212
 11
101.1559586628
 21
168.1399678212
  0
LINE
  5
2FE
100
AcDbEntity
  8
0
100
AcDbLine
 62
7
  6
CONTINUOUS
 10
95.6559586926
 20
168.1399678212
 11
93.5359588481
 21
168.1399678212
  0
LINE
  5
2FF
100
AcDbEntity
  8
0
100
AcDbLine
 62
7
  6
CONTINUOUS
 10
88.0359584122
 20
168.1399678212
 11
85.9159590333
 21
168.1399678212
  0
LINE
  5
300
100
AcDbEntity
  8
0
100
AcDbLine
 62
7
  6
CONTINUOUS
 10
80.4159581318
 20
168.1399678212
 11
79.9289414255
 21
168.1399678212
  0
LINE
  5
301
100
AcDbEntity
  8
0
100
AcDbLine
 62
7
  6
CONTINUOUS
 10
106.4595097903
 20
78.9049359976
 11
105.5040182033
 21
77.2499760227
  0
LINE
  5
302
100
AcDbEntity
  8
0
100
AcDbLine
 62
7
  6
CONTINUOUS
 10
104.7702032551
 20
75.9789712491
 11
102.7492264089
 21
72.4785366706
  0
LINE
  5
303
100
AcDbEntity
  8
0
100
AcDbLine
 62
7
  6
CONTINUOUS
 10
92.5078565686
 20
54.7399637681
 11
90.7722832199
 21
51.7338625478
  0
LINE
  5
304
100
AcDbEntity
  8
0
100
AcDbLine
 62
7
  6
CONTINUOUS
 10
90.0384682717
 20
50.4628577741
 11
89.0829682717
 21
48.8078832275
  0
LINE
  5
305
100
AcDbEntity
  8
0
100
AcDbLine
 62
7
  6
CONTINUOUS
 10
90.3524075652
 20
48.0749915386
 11
91.3078991522
 21
49.7299515135
  0
LINE
  5
306
100
AcDbEntity
  8
0
100
AcDbLine
 62
7
  6
CONTINUOUS
 10
92.0417141004
 20
51.0009562872
 11
94.0626909466
 21
54.5013908656
  0
LINE
  5
307
100
AcDbEntity
  8
0
100
AcDbLine
 62
7
  6
CONTINUOUS
 10
104.0186572895
 20
71.74563041
 11
106.0396341356
 21
75.2460649885
  0
LINE
  5
308
100
AcDbEntity
  8
0
100
AcDbLine
 62
7
  6
CONTINUOUS
 10
106.7734490838
 20
76.5170697621
 11
107.7289490838
 21
78.1720443087
  0
LINE
  5
309
100
AcDbEntity
  8
0
100
AcDbLine
 62
7
  6
CONTINUOUS
 10
75.9059586777
 20
177.870985827
 11
78.4059588149
 21
177.870985827
  0
LINE
  5
30A
100
AcDbEntity
  8
0
100
AcDbLine
 62
7
  6
CONTINUOUS
 10
79.9219301619
 20
177.870985827
 11
118.9018835736
 21
177.870985827
  0
LINE
  5
30B
100
AcDbEntity
  8
0
100
AcDbLine
 62
7
  6
CONTINUOUS
 10
120.4059586382
 20
177.870985827
 11
120.9059586777
 21
177.870985827
  0
LINE
  5
30C
100
AcDbEntity
  8
0
100
AcDbLine
 62
7
  6
CONTINUOUS
 10
120.405958639
 20
178.1423576419
 11
118.9019753053
 21
178.1423576419
  0
LINE
  5
30D
100
AcDbEntity
  8
0
100
AcDbLine
 62
7
  6
CONTINUOUS
 10
79.9133016584
 20
178.1423576419
 11
78.4059588113
 21
178.1423576419
  0
LINE
  5
30E
100
AcDbEntity
  8
0
100
AcDbLine
 62
7
  6
CONTINUOUS
 10
120.9059586777
 20
178.8937633258
 11
120.4059586427
 21
178.8937633258
  0
LINE
  5
30F
100
AcDbEntity
  8
0
100
AcDbLine
 62
7
  6
CONTINUOUS
 10
118.9023477437
 20
178.8937633258
 11
79.9211932438
 21
178.8937633258
  0
LINE
  5
310
100
AcDbEntity
  8
0
100
AcDbLine
 62
7
  6
CONTINUOUS
 10
78.4059587988
 20
178.8937633258
 11
75.9059586777
 21
178.8937633258
  0
LINE
  5
311
100
AcDbEntity
  8
0
100
AcDbLine
 62
7
  6
CONTINUOUS
 10
117.4059586777
 20
187.2407323481
 11
81.4059586777
 21
187.2407323481
  0
LINE
  5
312
100
AcDbEntity
  8
0
100
AcDbLine
 62
7
  6
CONTINUOUS
 10
117.4059691104
 20
188.2943216128
 11
81.4059586777
 21
188.2943259341
  0
LINE
  5
313
100
AcDbEntity
  8
0
100
AcDbLine
 62
7
  6
CONTINUOUS
 10
114.7559586777
 20
189.7237999179
 11
117.0559586777
 21
189.7237996418
  0
LINE
  5
314
100
AcDbEntity
  8
0
100
AcDbLine
 62
7
  6
CONTINUOUS
 10
117.0559586777
 20
190.0844297058
 11
114.7559586777
 21
190.0844297058
  0
LINE
  5
315
100
AcDbEntity
  8
0
100
AcDbLine
 62
7
  6
CONTINUOUS
 10
81.4059586778
 20
191.1229677541
 11
92.2044324918
 21
191.1229664579
  0
LINE
  5
316
100
AcDbEntity
  8
0
100
AcDbLine
 62
7
  6
CONTINUOUS
 10
102.7337264405
 20
191.122965194
 11
103.8603135769
 21
191.1229650588
  0
LINE
  5
317
100
AcDbEntity
  8
0
100
AcDbLine
 62
7
  6
CONTINUOUS
 10
78.9059582754
 20
191.1229589508
 11
80.9059586032
 21
191.1229664014
  0
LINE
  5
318
100
AcDbEntity
  8
0
100
AcDbLine
 62
7
  6
CONTINUOUS
 10
92.2001873118
 20
191.8300700533
 11
78.9059582754
 21
191.8300712035
  0
LINE
  5
319
100
AcDbEntity
  8
0
100
AcDbLine
 62
7
  6
CONTINUOUS
 10
114.7559586777
 20
194.0643226129
 11
117.0559586777
 21
194.0643226129
  0
LINE
  5
31A
100
AcDbEntity
  8
0
100
AcDbLine
 62
7
  6
CONTINUOUS
 10
117.0559586777
 20
195.1249888649
 11
114.7559586777
 21
195.1249888649
  0
LINE
  5
31B
100
AcDbEntity
  8
0
100
AcDbLine
 62
7
  6
CONTINUOUS
 10
77.4004635761
 20
195.5399637681
 11
78.4059586777
 21
195.5399637681
  0
LINE
  5
31C
100
AcDbEntity
  8
0
100
AcDbLine
 62
7
  6
CONTINUOUS
 10
78.4059586777
 20
196.3999637681
 11
77.3859586777
 21
196.3999637681
  0
LINE
  5
31D
100
AcDbEntity
  8
0
100
AcDbLine
 62
7
  6
CONTINUOUS
 10
92.2001873118
 20
200.3153514275
 11
90.2168889622
 21
200.3153515991
  0
LINE
  5
31E
100
AcDbEntity
  8
0
100
AcDbLine
 62
7
  6
CONTINUOUS
 10
84.6088619222
 20
200.3153520843
 11
78.9059582754
 21
200.3153525778
  0
LINE
  5
31F
100
AcDbEntity
  8
0
100
AcDbLine
 62
7
  6
CONTINUOUS
 10
114.7559586777
 20
200.4282956344
 11
117.0559586777
 21
200.4282956344
  0
LINE
  5
320
100
AcDbEntity
  8
0
100
AcDbLine
 62
7
  6
CONTINUOUS
 10
75.9059586777
 20
200.8660321456
 11
77.3956366628
 21
200.8660321456
  0
LINE
  5
321
100
AcDbEntity
  8
0
100
AcDbLine
 62
7
  6
CONTINUOUS
 10
120.2276832631
 20
200.8660321456
 11
120.9059586777
 21
200.8660321456
  0
LINE
  5
322
100
AcDbEntity
  8
0
100
AcDbLine
 62
7
  6
CONTINUOUS
 10
117.0559586777
 20
200.8676265699
 11
114.7559586777
 21
200.8676265699
  0
LINE
  5
323
100
AcDbEntity
  8
0
100
AcDbLine
 62
7
  6
CONTINUOUS
 10
117.0559586777
 20
201.0069994881
 11
114.7559586777
 21
201.0069997642
  0
LINE
  5
324
100
AcDbEntity
  8
0
100
AcDbLine
 62
7
  6
CONTINUOUS
 10
77.3859586777
 20
201.9399637681
 11
79.6061102719
 21
201.9399637681
  0
LINE
  5
325
100
AcDbEntity
  8
0
100
AcDbLine
 62
7
  6
CONTINUOUS
 10
81.4059586777
 20
202.4364592296
 11
117.4059691104
 21
202.4364549083
  0
LINE
  5
326
100
AcDbEntity
  8
0
100
AcDbLine
 62
7
  6
CONTINUOUS
 10
107.8814442265
 20
202.8199637681
 11
95.1959586777
 21
202.8199637681
  0
LINE
  5
327
100
AcDbEntity
  8
0
100
AcDbLine
 62
7
  6
CONTINUOUS
 10
93.9959426662
 20
202.8199637681
 11
77.3859586777
 21
202.8199637681
  0
LINE
  5
328
100
AcDbEntity
  8
0
100
AcDbLine
 62
7
  6
CONTINUOUS
 10
120.9059586777
 20
202.8399740678
 11
119.4525257729
 21
202.8399740678
  0
LINE
  5
329
100
AcDbEntity
  8
0
100
AcDbLine
 62
7
  6
CONTINUOUS
 10
75.9059586777
 20
202.8399740678
 11
119.4381653919
 21
202.8399740678
  0
LINE
  5
32A
100
AcDbEntity
  8
0
100
AcDbLine
 62
7
  6
CONTINUOUS
 10
120.9059586777
 20
202.9899580461
 11
75.9059586777
 21
202.9899580461
  0
LINE
  5
32B
100
AcDbEntity
  8
0
100
AcDbLine
 62
7
  6
CONTINUOUS
 10
79.3711880545
 20
236.4899637681
 11
86.1331683573
 21
236.4899637681
  0
LINE
  5
32C
100
AcDbEntity
  8
0
100
AcDbLine
 62
7
  6
CONTINUOUS
 10
102.9059586777
 20
241.6899637681
 11
105.7059586777
 21
241.6899637681
  0
LINE
  5
32D
100
AcDbEntity
  8
0
100
AcDbLine
 62
7
  6
CONTINUOUS
 10
98.0562403602
 20
242.1899637681
 11
102.8972311453
 21
242.1899637681
  0
LINE
  5
32E
100
AcDbEntity
  8
0
100
AcDbLine
 62
7
  6
CONTINUOUS
 10
120.9059586777
 20
247.6241959315
 11
106.0169586072
 21
247.6241959315
  0
LINE
  5
32F
100
AcDbEntity
  8
0
100
AcDbLine
 62
7
  6
CONTINUOUS
 10
79.7405882302
 20
247.6241959315
 11
75.9059586777
 21
247.6241959315
  0
LINE
  5
330
100
AcDbEntity
  8
0
100
AcDbLine
 62
7
  6
CONTINUOUS
 10
80.0063504401
 20
247.8899581414
 11
75.9059586777
 21
247.8899581414
  0
LINE
  5
331
100
AcDbEntity
  8
0
100
AcDbLine
 62
7
  6
CONTINUOUS
 10
120.9059586777
 20
247.8911719833
 11
106.0309502292
 21
247.8911719833
  0
ARC
  5
332
100
AcDbEntity
  8
0
100
AcDbCircle
 62
7
  6
CONTINUOUS
 10
87.783930166
 20
49.5578832275
 40
1.5
100
AcDbArc
 50
229.3467105886
 51
330.0
  0
ARC
  5
333
100
AcDbEntity
  8
0
100
AcDbCircle
 62
7
  6
CONTINUOUS
 10
91.6514372579
 20
79.6549505693
 40
1.5
100
AcDbArc
 50
109.3467105886
 51
210.0
  0
ARC
  5
334
100
AcDbEntity
  8
0
100
AcDbCircle
 62
7
  6
CONTINUOUS
 10
81.0294087461
 20
65.7228700287
 40
1.5
100
AcDbArc
 50
169.3467105886
 51
270.0
  0
ARC
  5
335
100
AcDbEntity
  8
0
100
AcDbCircle
 62
7
  6
CONTINUOUS
 10
91.652464231
 20
47.3269644528
 40
1.4998972816
100
AcDbArc
 50
150.0847223744
 51
247.2310605588
  0
ARC
  5
336
100
AcDbEntity
  8
0
100
AcDbCircle
 62
7
  6
CONTINUOUS
 10
81.0316434459
 20
61.2571618657
 40
1.4998972816
100
AcDbArc
 50
90.0847223744
 51
187.2310605587
  0
ARC
  5
337
100
AcDbEntity
  8
0
100
AcDbCircle
 62
7
  6
CONTINUOUS
 10
87.7851378927
 20
77.420161181
 40
1.4998972816
100
AcDbArc
 50
30.0847223744
 51
127.2310605587
  0
ARC
  5
338
100
AcDbEntity
  8
0
100
AcDbCircle
 62
7
  6
CONTINUOUS
 10
71.3282317606
 20
278.4557290498
 40
27.0182348118
100
AcDbArc
 50
283.8293440257
 51
284.75849519
  0
ARC
  5
339
100
AcDbEntity
  8
0
100
AcDbCircle
 62
7
  6
CONTINUOUS
 10
83.2324474062
 20
230.5322081452
 40
22.1174110652
100
AcDbArc
 50
91.6463172087
 51
107.6612501932
  0
ARC
  5
33A
100
AcDbEntity
  8
0
100
AcDbCircle
 62
7
  6
CONTINUOUS
 10
82.7635005772
 20
233.5734825529
 40
19.3
100
AcDbArc
 50
95.6105046093
 51
103.6435494434
  0
ARC
  5
33B
100
AcDbEntity
  8
0
100
AcDbCircle
 62
7
  6
CONTINUOUS
 10
86.7218371729
 20
218.1646315084
 40
5.6996975033
100
AcDbArc
 50
183.7690369118
 51
234.5698021939
  0
ARC
  5
33C
100
AcDbEntity
  8
0
100
AcDbCircle
 62
7
  6
CONTINUOUS
 10
86.7218371729
 20
217.4152960278
 40
5.6996975033
100
AcDbArc
 50
125.4301978061
 51
176.2309630882
  0
ARC
  5
33D
100
AcDbEntity
  8
0
100
AcDbCircle
 62
7
  6
CONTINUOUS
 10
87.4059837514
 20
196.0418136183
 40
5.2731603898
100
AcDbArc
 50
83.0412477979
 51
96.9142674825
  0
ARC
  5
33E
100
AcDbEntity
  8
0
100
AcDbCircle
 62
7
  6
CONTINUOUS
 10
87.4059586777
 20
196.3453934237
 40
4.9190628979
100
AcDbArc
 50
82.739118388
 51
97.260881612
  0
ARC
  5
33F
100
AcDbEntity
  8
0
100
AcDbCircle
 62
7
  6
CONTINUOUS
 10
87.4059586777
 20
196.6395256396
 40
4.5429550677
100
AcDbArc
 50
82.4106221668
 51
97.5893778332
  0
ARC
  5
340
100
AcDbEntity
  8
0
100
AcDbCircle
 62
7
  6
CONTINUOUS
 10
87.4059586777
 20
201.162754719
 40
4.5429550677
100
AcDbArc
 50
262.4106221668
 51
277.5893778332
  0
ARC
  5
341
100
AcDbEntity
  8
0
100
AcDbCircle
 62
7
  6
CONTINUOUS
 10
81.4053023133
 20
186.9062231839
 40
4.2167446213
100
AcDbArc
 50
89.9910815295
 51
96.8008814324
  0
ARC
  5
342
100
AcDbEntity
  8
0
100
AcDbCircle
 62
7
  6
CONTINUOUS
 10
83.1659590482
 20
174.2584221543
 40
2.7482137182
100
AcDbArc
 50
0.4499966603
 51
179.5500033397
  0
ARC
  5
343
100
AcDbEntity
  8
0
100
AcDbCircle
 62
7
  6
CONTINUOUS
 10
90.7859586301
 20
174.2808391495
 40
2.7481293171
100
AcDbArc
 50
359.9826336663
 51
180.0173663337
  0
ARC
  5
344
100
AcDbEntity
  8
0
100
AcDbCircle
 62
7
  6
CONTINUOUS
 10
88.9629004037
 20
198.2249364363
 40
2.4436990219
100
AcDbArc
 50
357.0036891443
 51
359.4365254751
  0
ARC
  5
345
100
AcDbEntity
  8
0
100
AcDbCircle
 62
7
  6
CONTINUOUS
 10
85.8480515428
 20
198.2249482247
 40
2.44273369
100
AcDbArc
 50
180.5639314895
 51
183.0039685233
  0
ARC
  5
346
100
AcDbEntity
  8
0
100
AcDbCircle
 62
7
  6
CONTINUOUS
 10
88.9693443071
 20
198.2248319998
 40
2.4372544034
100
AcDbArc
 50
359.437490727
 51
359.9999565504
  0
ARC
  5
347
100
AcDbEntity
  8
0
100
AcDbCircle
 62
7
  6
CONTINUOUS
 10
85.8408485871
 20
198.2248322505
 40
2.4355299422
100
AcDbArc
 50
180.0000493783
 51
180.5628711031
  0
ARC
  5
348
100
AcDbEntity
  8
0
100
AcDbCircle
 62
7
  6
CONTINUOUS
 10
89.2376939066
 20
198.2390286348
 40
2.1730265993
100
AcDbArc
 50
338.9149154441
 51
342.1117017105
  0
ARC
  5
349
100
AcDbEntity
  8
0
100
AcDbCircle
 62
7
  6
CONTINUOUS
 10
85.5742234489
 20
198.2390286348
 40
2.1730265994
100
AcDbArc
 50
197.8882982895
 51
201.0850845558
  0
ARC
  5
34A
100
AcDbEntity
  8
0
100
AcDbCircle
 62
7
  6
CONTINUOUS
 10
85.420120437
 20
196.7793911611
 40
2.0141090954
100
AcDbArc
 50
171.9988589208
 51
179.9878948376
  0
ARC
  5
34B
100
AcDbEntity
  8
0
100
AcDbCircle
 62
7
  6
CONTINUOUS
 10
90.785958863
 20
174.3419954807
 40
1.7518901817
100
AcDbArc
 50
359.9337061904
 51
180.0662938096
  0
ARC
  5
34C
100
AcDbEntity
  8
0
100
AcDbCircle
 62
7
  6
CONTINUOUS
 10
83.1659586777
 20
174.3405005336
 40
1.7518890929
100
AcDbArc
 50
359.9825405897
 51
180.0174568385
  0
ARC
  5
34D
100
AcDbEntity
  8
0
100
AcDbCircle
 62
7
  6
CONTINUOUS
 10
86.1452353936
 20
235.015914911
 40
1.4740982486
100
AcDbArc
 50
39.6550034571
 51
89.9869848262
  0
ARC
  5
34E
100
AcDbEntity
  8
0
100
AcDbCircle
 62
7
  6
CONTINUOUS
 10
76.7570357282
 20
250.7864765447
 40
0.8535974386
100
AcDbArc
 50
105.9635161155
 51
175.5959554322
  0
ARC
  5
34F
100
AcDbEntity
  8
0
100
AcDbCircle
 62
7
  6
CONTINUOUS
 10
101.4059586777
 20
70.518214621
 40
30.0
100
AcDbArc
 50
79.4360224109
 51
100.5639775891
  0
ARC
  5
350
100
AcDbEntity
  8
0
100
AcDbCircle
 62
7
  6
CONTINUOUS
 10
98.4059586777
 20
63.4899637681
 40
19.0170937395
100
AcDbArc
 50
12.1421068201
 51
52.4149777603
  0
ARC
  5
351
100
AcDbEntity
  8
0
100
AcDbCircle
 62
7
  6
CONTINUOUS
 10
98.4059586777
 20
63.4899637682
 40
19.0170937395
100
AcDbArc
 50
247.3157829331
 51
254.4440182254
  0
ARC
  5
352
100
AcDbEntity
  8
0
100
AcDbCircle
 62
7
  6
CONTINUOUS
 10
98.4059586778
 20
63.4899637681
 40
19.0170937395
100
AcDbArc
 50
187.3157829331
 51
232.4149777603
  0
ARC
  5
353
100
AcDbEntity
  8
0
100
AcDbCircle
 62
7
  6
CONTINUOUS
 10
98.4059586777
 20
63.4899637681
 40
19.0170937395
100
AcDbArc
 50
67.3157829331
 51
112.4149777603
  0
ARC
  5
354
100
AcDbEntity
  8
0
100
AcDbCircle
 62
7
  6
CONTINUOUS
 10
98.4059586778
 20
63.4899637681
 40
19.0170937395
100
AcDbArc
 50
127.3157829331
 51
172.4149777603
  0
ARC
  5
355
100
AcDbEntity
  8
0
100
AcDbCircle
 62
7
  6
CONTINUOUS
 10
98.4059586777
 20
63.4899637682
 40
19.0170937395
100
AcDbArc
 50
307.9298397951
 51
330.1855930077
  0
ARC
  5
356
100
AcDbEntity
  8
0
100
AcDbCircle
 62
7
  6
CONTINUOUS
 10
98.4059586778
 20
63.4899637682
 40
15.4829062605
100
AcDbArc
 50
2.7131943452
 51
57.2868056548
  0
ARC
  5
357
100
AcDbEntity
  8
0
100
AcDbCircle
 62
7
  6
CONTINUOUS
 10
98.4059586778
 20
63.4899637681
 40
15.4829062605
100
AcDbArc
 50
344.22814443
 51
357.2868056548
  0
ARC
  5
358
100
AcDbEntity
  8
0
100
AcDbCircle
 62
7
  6
CONTINUOUS
 10
98.4059586778
 20
63.4899637681
 40
15.4829062605
100
AcDbArc
 50
302.7131943452
 51
325.5880295361
  0
ARC
  5
359
100
AcDbEntity
  8
0
100
AcDbCircle
 62
7
  6
CONTINUOUS
 10
98.4059586777
 20
63.4899637681
 40
15.4829062605
100
AcDbArc
 50
284.3475619037
 51
297.2868056548
  0
ARC
  5
35A
100
AcDbEntity
  8
0
100
AcDbCircle
 62
7
  6
CONTINUOUS
 10
98.4059586777
 20
63.4899637681
 40
15.4829062605
100
AcDbArc
 50
242.7131943452
 51
255.6524380963
  0
ARC
  5
35B
100
AcDbEntity
  8
0
100
AcDbCircle
 62
7
  6
CONTINUOUS
 10
98.4059586777
 20
63.4899637681
 40
15.4829062605
100
AcDbArc
 50
182.7131943452
 51
237.2868056548
  0
ARC
  5
35C
100
AcDbEntity
  8
0
100
AcDbCircle
 62
7
  6
CONTINUOUS
 10
98.4059586777
 20
63.4899637682
 40
15.4829062605
100
AcDbArc
 50
62.7131943452
 51
117.2868056548
  0
ARC
  5
35D
100
AcDbEntity
  8
0
100
AcDbCircle
 62
7
  6
CONTINUOUS
 10
98.4059586777
 20
63.4899637681
 40
15.4829062605
100
AcDbArc
 50
122.7131943452
 51
177.2868056548
  0
ARC
  5
35E
100
AcDbEntity
  8
0
100
AcDbCircle
 62
7
  6
CONTINUOUS
 10
98.4059586777
 20
63.4899637681
 40
14.0170937394
100
AcDbArc
 50
16.5807189911
 51
57.0028314252
  0
ARC
  5
35F
100
AcDbEntity
  8
0
100
AcDbCircle
 62
7
  6
CONTINUOUS
 10
98.4059586778
 20
63.4899637681
 40
14.0170937394
100
AcDbArc
 50
182.9971685749
 51
237.0028314252
  0
ARC
  5
360
100
AcDbEntity
  8
0
100
AcDbCircle
 62
7
  6
CONTINUOUS
 10
98.4059586777
 20
63.4899637681
 40
14.0170937394
100
AcDbArc
 50
302.9971685749
 51
321.3737328929
  0
ARC
  5
361
100
AcDbEntity
  8
0
100
AcDbCircle
 62
7
  6
CONTINUOUS
 10
98.4059586777
 20
63.4899637681
 40
14.0170937394
100
AcDbArc
 50
242.9971685749
 51
297.0028314252
  0
ARC
  5
362
100
AcDbEntity
  8
0
100
AcDbCircle
 62
7
  6
CONTINUOUS
 10
98.4059586777
 20
63.4899637681
 40
14.0170937394
100
AcDbArc
 50
62.9971685749
 51
117.0028314252
  0
ARC
  5
363
100
AcDbEntity
  8
0
100
AcDbCircle
 62
7
  6
CONTINUOUS
 10
98.4059586778
 20
63.4899637681
 40
14.0170937394
100
AcDbArc
 50
122.9971685749
 51
177.0028314252
  0
ARC
  5
364
100
AcDbEntity
  8
0
100
AcDbCircle
 62
7
  6
CONTINUOUS
 10
98.4059586777
 20
63.4899637681
 40
9.9829062606
100
AcDbArc
 50
23.6210031405
 51
55.7897781572
  0
ARC
  5
365
100
AcDbEntity
  8
0
100
AcDbCircle
 62
7
  6
CONTINUOUS
 10
98.4059586777
 20
63.4899637681
 40
9.9829062606
100
AcDbArc
 50
184.2102218429
 51
224.666082962
  0
ARC
  5
366
100
AcDbEntity
  8
0
100
AcDbCircle
 62
7
  6
CONTINUOUS
 10
98.4059586777
 20
63.4899637681
 40
9.9829062606
100
AcDbArc
 50
244.2102218429
 51
295.7897781572
  0
ARC
  5
367
100
AcDbEntity
  8
0
100
AcDbCircle
 62
7
  6
CONTINUOUS
 10
98.4059586777
 20
63.4899637681
 40
9.9829062606
100
AcDbArc
 50
64.2102218429
 51
115.7897781572
  0
ARC
  5
368
100
AcDbEntity
  8
0
100
AcDbCircle
 62
7
  6
CONTINUOUS
 10
98.4059586777
 20
63.4899637681
 40
9.9829062606
100
AcDbArc
 50
124.2102218429
 51
175.7897781572
  0
ARC
  5
369
100
AcDbEntity
  8
0
100
AcDbCircle
 62
7
  6
CONTINUOUS
 10
98.4059586777
 20
74.3399637682
 40
179.2999999999
100
AcDbArc
 50
87.4434088785
 51
95.6105046093
  0
ARC
  5
36A
100
AcDbEntity
  8
0
100
AcDbCircle
 62
7
  6
CONTINUOUS
 10
98.4097345084
 20
74.2661046827
 40
179.0739039634
100
AcDbArc
 50
84.236420372
 51
95.0659716209
  0
ARC
  5
36B
100
AcDbEntity
  8
0
100
AcDbCircle
 62
7
  6
CONTINUOUS
 10
98.2897791794
 20
79.579831327
 40
171.920358549
100
AcDbArc
 50
87.4142127888
 51
95.1261202856
  0
ARC
  5
36C
100
AcDbEntity
  8
0
100
AcDbCircle
 62
7
  6
CONTINUOUS
 10
105.1594531245
 20
79.6529630834
 40
1.4998972816
100
AcDbArc
 50
330.0847223744
 51
67.2310605587
  0
ARC
  5
36D
100
AcDbEntity
  8
0
100
AcDbCircle
 62
7
  6
CONTINUOUS
 10
100.4059837514
 20
157.002448229
 40
5.2731603898
100
AcDbArc
 50
83.0412477979
 51
96.9142674824
  0
ARC
  5
36E
100
AcDbEntity
  8
0
100
AcDbCircle
 62
7
  6
CONTINUOUS
 10
100.4059586777
 20
157.3060280344
 40
4.9190628979
100
AcDbArc
 50
82.739118388
 51
97.260881612
  0
ARC
  5
36F
100
AcDbEntity
  8
0
100
AcDbCircle
 62
7
  6
CONTINUOUS
 10
100.4059586777
 20
162.1233893297
 40
4.5429550677
100
AcDbArc
 50
262.4106221668
 51
277.5893778332
  0
ARC
  5
370
100
AcDbEntity
  8
0
100
AcDbCircle
 62
7
  6
CONTINUOUS
 10
100.4059586777
 20
157.6001602503
 40
4.5429550677
100
AcDbArc
 50
82.4106221668
 51
97.5893778332
  0
ARC
  5
371
100
AcDbEntity
  8
0
100
AcDbCircle
 62
7
  6
CONTINUOUS
 10
101.9629004039
 20
159.185571047
 40
2.4436990217
100
AcDbArc
 50
357.0036891443
 51
359.4365254752
  0
ARC
  5
372
100
AcDbEntity
  8
0
100
AcDbCircle
 62
7
  6
CONTINUOUS
 10
98.8480515429
 20
159.1855828354
 40
2.4427336901
100
AcDbArc
 50
180.5639314895
 51
183.0039685231
  0
ARC
  5
373
100
AcDbEntity
  8
0
100
AcDbCircle
 62
7
  6
CONTINUOUS
 10
101.969344307
 20
159.1854666105
 40
2.4372544035
100
AcDbArc
 50
359.4374907271
 51
359.9999565505
  0
ARC
  5
374
100
AcDbEntity
  8
0
100
AcDbCircle
 62
7
  6
CONTINUOUS
 10
98.840848588
 20
159.1854668612
 40
2.435529943
100
AcDbArc
 50
180.0000493785
 51
180.562871103
  0
ARC
  5
375
100
AcDbEntity
  8
0
100
AcDbCircle
 62
7
  6
CONTINUOUS
 10
102.2376939066
 20
159.1996632455
 40
2.1730265993
100
AcDbArc
 50
338.9149154442
 51
342.1117017105
  0
ARC
  5
376
100
AcDbEntity
  8
0
100
AcDbCircle
 62
7
  6
CONTINUOUS
 10
98.5741774774
 20
159.199647427
 40
2.1729779914
100
AcDbArc
 50
197.8882736871
 51
201.080685998
  0
ARC
  5
377
100
AcDbEntity
  8
0
100
AcDbCircle
 62
7
  6
CONTINUOUS
 10
98.420120437
 20
157.7400257718
 40
2.0141090954
100
AcDbArc
 50
171.9988589208
 51
179.9878948376
  0
ARC
  5
378
100
AcDbEntity
  8
0
100
AcDbCircle
 62
7
  6
CONTINUOUS
 10
109.0279871895
 20
77.4220443087
 40
1.5
100
AcDbArc
 50
49.3467105886
 51
150.0
  0
ARC
  5
379
100
AcDbEntity
  8
0
100
AcDbCircle
 62
7
  6
CONTINUOUS
 10
109.0267794627
 20
49.5597663552
 40
1.4998972816
100
AcDbArc
 50
210.0014346663
 51
225.4768111883
  0
ARC
  5
37A
100
AcDbEntity
  8
0
100
AcDbCircle
 62
7
  6
CONTINUOUS
 10
113.4059837514
 20
157.3560016196
 40
5.2731603898
100
AcDbArc
 50
83.0412477979
 51
96.9142674824
  0
ARC
  5
37B
100
AcDbEntity
  8
0
100
AcDbCircle
 62
7
  6
CONTINUOUS
 10
115.0893837514
 20
146.3958465112
 40
5.2731603898
100
AcDbArc
 50
83.0412477979
 51
96.9142674824
  0
ARC
  5
37C
100
AcDbEntity
  8
0
100
AcDbCircle
 62
7
  6
CONTINUOUS
 10
113.4059586777
 20
157.659581425
 40
4.9190628979
100
AcDbArc
 50
82.739118388
 51
97.260881612
  0
ARC
  5
37D
100
AcDbEntity
  8
0
100
AcDbCircle
 62
7
  6
CONTINUOUS
 10
115.0893586777
 20
146.6994263166
 40
4.9190628978
100
AcDbArc
 50
82.739118388
 51
97.260881612
  0
ARC
  5
37E
100
AcDbEntity
  8
0
100
AcDbCircle
 62
7
  6
CONTINUOUS
 10
113.4059586777
 20
162.4769427203
 40
4.5429550677
100
AcDbArc
 50
262.4106221668
 51
277.5893778332
  0
ARC
  5
37F
100
AcDbEntity
  8
0
100
AcDbCircle
 62
7
  6
CONTINUOUS
 10
113.4059586777
 20
157.9537136409
 40
4.5429550677
100
AcDbArc
 50
82.4106221668
 51
97.5893778332
  0
ARC
  5
380
100
AcDbEntity
  8
0
100
AcDbCircle
 62
7
  6
CONTINUOUS
 10
115.0893586777
 20
151.5167876119
 40
4.5429550677
100
AcDbArc
 50
262.4106221668
 51
277.5893778332
  0
ARC
  5
381
100
AcDbEntity
  8
0
100
AcDbCircle
 62
7
  6
CONTINUOUS
 10
115.0893586777
 20
146.9935585325
 40
4.5429550677
100
AcDbArc
 50
82.4106221668
 51
97.5893778332
  0
ARC
  5
382
100
AcDbEntity
  8
0
100
AcDbCircle
 62
7
  6
CONTINUOUS
 10
117.2505890363
 20
143.6700911012
 40
4.3587502539
100
AcDbArc
 50
277.498087783
 51
278.1791849239
  0
ARC
  5
383
100
AcDbEntity
  8
0
100
AcDbCircle
 62
7
  6
CONTINUOUS
 10
114.9629004038
 20
159.5391244376
 40
2.4436990218
100
AcDbArc
 50
357.0036891442
 51
359.4365254751
  0
ARC
  5
384
100
AcDbEntity
  8
0
100
AcDbCircle
 62
7
  6
CONTINUOUS
 10
116.6463004038
 20
148.5789693292
 40
2.4436990219
100
AcDbArc
 50
357.0036891443
 51
359.4365254751
  0
ARC
  5
385
100
AcDbEntity
  8
0
100
AcDbCircle
 62
7
  6
CONTINUOUS
 10
111.8480515427
 20
159.539136226
 40
2.4427336899
100
AcDbArc
 50
180.5639314895
 51
183.0039685234
  0
ARC
  5
386
100
AcDbEntity
  8
0
100
AcDbCircle
 62
7
  6
CONTINUOUS
 10
113.5314515426
 20
148.5789811176
 40
2.4427336898
100
AcDbArc
 50
180.5639314894
 51
183.0039685234
  0
ARC
  5
387
100
AcDbEntity
  8
0
100
AcDbCircle
 62
7
  6
CONTINUOUS
 10
114.9693443071
 20
159.5390200011
 40
2.4372544034
100
AcDbArc
 50
359.4374907271
 51
359.9999565505
  0
ARC
  5
388
100
AcDbEntity
  8
0
100
AcDbCircle
 62
7
  6
CONTINUOUS
 10
116.6527443071
 20
148.5788648927
 40
2.4372544034
100
AcDbArc
 50
359.4374907271
 51
359.9999565505
  0
ARC
  5
389
100
AcDbEntity
  8
0
100
AcDbCircle
 62
7
  6
CONTINUOUS
 10
111.8408485886
 20
159.5390202518
 40
2.4355299437
100
AcDbArc
 50
180.0000493785
 51
180.5628711029
  0
ARC
  5
38A
100
AcDbEntity
  8
0
100
AcDbCircle
 62
7
  6
CONTINUOUS
 10
113.5242485886
 20
148.5788651434
 40
2.4355299437
100
AcDbArc
 50
180.0000493785
 51
180.5628711029
  0
ARC
  5
38B
100
AcDbEntity
  8
0
100
AcDbCircle
 62
7
  6
CONTINUOUS
 10
115.2376939066
 20
159.5532166361
 40
2.1730265993
100
AcDbArc
 50
338.9149154442
 51
342.1117017105
  0
ARC
  5
38C
100
AcDbEntity
  8
0
100
AcDbCircle
 62
7
  6
CONTINUOUS
 10
116.9210939066
 20
148.5930615277
 40
2.1730265993
100
AcDbArc
 50
338.9149154441
 51
342.1117017105
  0
ARC
  5
38D
100
AcDbEntity
  8
0
100
AcDbCircle
 62
7
  6
CONTINUOUS
 10
113.2575774774
 20
148.5930457092
 40
2.1729779914
100
AcDbArc
 50
197.8882736871
 51
201.080685998
  0
ARC
  5
38E
100
AcDbEntity
  8
0
100
AcDbCircle
 62
7
  6
CONTINUOUS
 10
111.5741774775
 20
159.5532008176
 40
2.1729779915
100
AcDbArc
 50
197.8882736871
 51
201.080685998
  0
ARC
  5
38F
100
AcDbEntity
  8
0
100
AcDbCircle
 62
7
  6
CONTINUOUS
 10
111.420120437
 20
158.0935791624
 40
2.0141090954
100
AcDbArc
 50
171.9988589208
 51
179.9878948376
  0
ARC
  5
390
100
AcDbEntity
  8
0
100
AcDbCircle
 62
7
  6
CONTINUOUS
 10
113.103520437
 20
147.133424054
 40
2.0141090954
100
AcDbArc
 50
171.9988589208
 51
179.9878948376
  0
ARC
  5
391
100
AcDbEntity
  8
0
100
AcDbCircle
 62
7
  6
CONTINUOUS
 10
98.4059586777
 20
197.6064134189
 40
28.6810792696
100
AcDbArc
 50
58.4942024118
 51
121.5057975882
  0
ARC
  5
392
100
AcDbEntity
  8
0
100
AcDbCircle
 62
7
  6
CONTINUOUS
 10
98.4059586777
 20
237.9735141173
 40
28.6810792696
100
AcDbArc
 50
238.4942024118
 51
301.5057975882
  0
ARC
  5
393
100
AcDbEntity
  8
0
100
AcDbCircle
 62
7
  6
CONTINUOUS
 10
114.4150446028
 20
233.5283915982
 40
19.0095397346
100
AcDbArc
 50
72.2101696277
 51
84.0274347259
  0
ARC
  5
394
100
AcDbEntity
  8
0
100
AcDbCircle
 62
7
  6
CONTINUOUS
 10
96.5745924597
 20
243.8450911767
 40
12.190757374
100
AcDbArc
 50
220.3222099866
 51
274.3816311903
  0
ARC
  5
395
100
AcDbEntity
  8
0
100
AcDbCircle
 62
7
  6
CONTINUOUS
 10
110.0900801826
 20
218.1646315084
 40
5.6996975033
100
AcDbArc
 50
305.4301978061
 51
356.2309630882
  0
ARC
  5
396
100
AcDbEntity
  8
0
100
AcDbCircle
 62
7
  6
CONTINUOUS
 10
110.0900801826
 20
217.4152960278
 40
5.6996975033
100
AcDbArc
 50
3.7690369118
 51
54.5698021939
  0
ARC
  5
397
100
AcDbEntity
  8
0
100
AcDbCircle
 62
7
  6
CONTINUOUS
 10
98.840988051
 20
187.8427706457
 40
5.0904900004
100
AcDbArc
 50
40.1189792632
 51
45.5473346934
  0
ARC
  5
398
100
AcDbEntity
  8
0
100
AcDbCircle
 62
7
  6
CONTINUOUS
 10
113.6459583073
 20
174.2226543917
 40
2.7487273417
100
AcDbArc
 50
1.1955549559
 51
178.8044450441
  0
ARC
  5
399
100
AcDbEntity
  8
0
100
AcDbCircle
 62
7
  6
CONTINUOUS
 10
106.0259587253
 20
174.287519826
 40
2.7481394623
100
AcDbArc
 50
359.8433485484
 51
180.1566514516
  0
ARC
  5
39A
100
AcDbEntity
  8
0
100
AcDbCircle
 62
7
  6
CONTINUOUS
 10
98.4059586777
 20
174.2740935081
 40
2.7481355515
100
AcDbArc
 50
0.1232734364
 51
179.8767265636
  0
ARC
  5
39B
100
AcDbEntity
  8
0
100
AcDbCircle
 62
7
  6
CONTINUOUS
 10
119.9189615357
 20
250.6896832286
 40
0.9872503963
100
AcDbArc
 50
1.2978115327
 51
72.0658722663
  0
SPLINE
  5
39C
100
AcDbEntity
  8
0
100
AcDbSpline
 62
7
  6
CONTINUOUS
 70
0
 71
3
 72
14
 73
10
 74
0
 42
0.0000001
 43
0.0000001
 44
0.0000000001
 40
0.0
 40
0.0
 40
0.0
 40
0.0
 40
0.1164505082
 40
0.2337006637
 40
0.3529608324
 40
0.4751127482
 40
0.6009668636
 40
0.7308202588
 40
1.0
 40
1.0
 40
1.0
 40
1.0
 10
96.405318645
 20
159.1854647623
 30
0.0
 10
96.405318645
 20
159.3777417094
 30
0.0
 10
96.4514010836
 20
159.7651321538
 30
0.0
 10
96.6535058268
 20
160.3167654242
 30
0.0
 10
96.9741557348
 20
160.819797403
 30
0.0
 10
97.3970183533
 20
161.2593516261
 30
0.0
 10
97.9046312102
 20
161.62735058
 30
0.0
 10
98.6805430206
 20
162.019235801
 30
0.0
 10
99.3299803254
 20
162.1835559308
 30
0.0
 10
99.7711793678
 20
162.2372590079
 30
0.0
  0
SPLINE
  5
39D
100
AcDbEntity
  8
0
100
AcDbSpline
 62
7
  6
CONTINUOUS
 70
0
 71
3
 72
14
 73
10
 74
0
 42
0.0000001
 43
0.0000001
 44
0.0000000001
 40
0.0
 40
0.0
 40
0.0
 40
0.0
 40
0.2691811585
 40
0.3990256103
 40
0.5248696703
 40
0.647017276
 40
0.7662701739
 40
0.8835387922
 40
1.0
 40
1.0
 40
1.0
 40
1.0
 10
101.0448522756
 20
162.236764565
 30
0.0
 10
101.485644807
 20
162.1827647766
 30
0.0
 10
102.1343964269
 20
162.0180925879
 30
0.0
 10
102.9093838946
 20
161.6260544492
 30
0.0
 10
103.4163237919
 20
161.2580821691
 30
0.0
 10
103.8385659596
 20
160.8186961078
 30
0.0
 10
104.1588038076
 20
160.3159809658
 30
0.0
 10
104.3605664179
 20
159.7647083669
 30
0.0
 10
104.4065987105
 20
159.3775993438
 30
0.0
 10
104.4065987105
 20
159.1854647623
 30
0.0
  0
SPLINE
  5
39E
100
AcDbEntity
  8
0
100
AcDbSpline
 62
7
  6
CONTINUOUS
 70
0
 71
3
 72
13
 73
9
 74
0
 42
0.0000001
 43
0.0000001
 44
0.0000000001
 40
0.0
 40
0.0
 40
0.0
 40
0.0
 40
0.1034550566
 40
0.2106673021
 40
0.3244968403
 40
0.446430815
 40
0.7129369009
 40
1.0
 40
1.0
 40
1.0
 40
1.0
 10
104.4059220806
 20
158.3061403606
 30
0.0
 10
104.4059220806
 20
158.1204340546
 30
0.0
 10
104.3520380277
 20
157.7403485583
 30
0.0
 10
104.1162290315
 20
157.2010052698
 30
0.0
 10
103.7379352312
 20
156.708429846
 30
0.0
 10
103.0464897954
 20
156.1212542515
 30
0.0
 10
101.9200046642
 20
155.611881754
 30
0.0
 10
100.9212493699
 20
155.4777134308
 30
0.0
 10
100.4059586777
 20
155.4777134308
 30
0.0
  0
SPLINE
  5
39F
100
AcDbEntity
  8
0
100
AcDbSpline
 62
7
  6
CONTINUOUS
 70
0
 71
3
 72
13
 73
9
 74
0
 42
0.0000001
 43
0.0000001
 44
0.0000000001
 40
0.0
 40
0.0
 40
0.0
 40
0.0
 40
0.2870630991
 40
0.553569185
 40
0.6755031597
 40
0.7893326979
 40
0.8965449434
 40
1.0
 40
1.0
 40
1.0
 40
1.0
 10
87.4059586777
 20
194.5170788201
 30
0.0
 10
86.8906679856
 20
194.5170788201
 30
0.0
 10
85.8919126912
 20
194.6512471433
 30
0.0
 10
84.7654275601
 20
195.1606196408
 30
0.0
 10
84.0739821243
 20
195.7477952353
 30
0.0
 10
83.695688324
 20
196.2403706591
 30
0.0
 10
83.4598793277
 20
196.7797139476
 30
0.0
 10
83.4059952749
 20
197.159799444
 30
0.0
 10
83.4059952749
 20
197.3455057499
 30
0.0
  0
SPLINE
  5
3A0
100
AcDbEntity
  8
0
100
AcDbSpline
 62
7
  6
CONTINUOUS
 70
0
 71
3
 72
12
 73
8
 74
0
 42
0.0000001
 43
0.0000001
 44
0.0000000001
 40
0.0
 40
0.0
 40
0.0
 40
0.0
 40
0.2546189857
 40
0.5166798267
 40
0.645503618
 40
0.7700460258
 40
1.0
 40
1.0
 40
1.0
 40
1.0
 10
95.9059587336
 20
192.4170577453
 30
0.0
 10
96.4467079177
 20
192.6378182413
 30
0.0
 10
97.6146490664
 20
192.9224668292
 30
0.0
 10
99.1112372727
 20
192.9010720191
 30
0.0
 10
100.2716644008
 20
192.6559720599
 30
0.0
 10
101.3165871475
 20
192.2810009848
 30
0.0
 10
102.0221499363
 20
191.8383721488
 30
0.0
 10
102.4059588677
 20
191.4765113519
 30
0.0
  0
SPLINE
  5
3A1
100
AcDbEntity
  8
0
100
AcDbSpline
 62
7
  6
CONTINUOUS
 70
0
 71
3
 72
9
 73
5
 74
0
 42
0.0000001
 43
0.0000001
 44
0.0000000001
 40
0.0
 40
0.0
 40
0.0
 40
0.0
 40
0.255861498
 40
1.0
 40
1.0
 40
1.0
 40
1.0
 10
92.2044324918
 20
191.1229664579
 30
0.0
 10
92.2911741894
 20
191.1230966486
 30
0.0
 10
92.6298620604
 20
191.1391480501
 30
0.0
 10
92.966624417
 20
191.2170803106
 30
0.0
 10
93.2001873118
 20
191.3124319631
 30
0.0
  0
SPLINE
  5
3A2
100
AcDbEntity
  8
0
100
AcDbSpline
 62
7
  6
CONTINUOUS
 70
0
 71
3
 72
14
 73
10
 74
0
 42
0.0000001
 43
0.0000001
 44
0.0000000001
 40
0.0
 40
0.0
 40
0.0
 40
0.0
 40
0.2605861635
 40
0.3948582774
 40
0.5277366101
 40
0.6564943992
 40
0.7788821473
 40
0.8934698427
 40
1.0
 40
1.0
 40
1.0
 40
1.0
 10
95.4059586517
 20
201.5147172399
 30
0.0
 10
96.1523389966
 20
201.8194236853
 30
0.0
 10
97.3703283539
 20
202.0886105775
 30
0.0
 10
99.0061343942
 20
202.0921893261
 30
0.0
 10
100.2232921187
 20
201.9156282948
 30
0.0
 10
101.3639583398
 20
201.5665469492
 30
0.0
 10
102.381650767
 20
201.0585216859
 30
0.0
 10
103.2331457534
 20
200.4117175712
 30
0.0
 10
103.6810477288
 20
199.8848029362
 30
0.0
 10
103.8603135769
 20
199.608246433
 30
0.0
  0
SPLINE
  5
3A3
100
AcDbEntity
  8
0
100
AcDbSpline
 62
7
  6
CONTINUOUS
 70
0
 71
3
 72
9
 73
5
 74
0
 42
0.0000001
 43
0.0000001
 44
0.0000000001
 40
0.0
 40
0.0
 40
0.0
 40
0.0
 40
0.2558574442
 40
1.0
 40
1.0
 40
1.0
 40
1.0
 10
92.2001873118
 20
200.3153514275
 30
0.0
 10
92.2437371303
 20
200.3153514275
 30
0.0
 10
92.4137930006
 20
200.3231870821
 30
0.0
 10
92.5829216013
 20
200.3622122472
 30
0.0
 10
92.7001873118
 20
200.410085773
 30
0.0
  0
SPLINE
  5
3A4
100
AcDbEntity
  8
0
100
AcDbSpline
 62
7
  6
CONTINUOUS
 70
0
 71
3
 72
14
 73
10
 74
0
 42
0.0000001
 43
0.0000001
 44
0.0000000001
 40
0.0
 40
0.0
 40
0.0
 40
0.0
 40
0.1164505082
 40
0.2337006637
 40
0.3529608324
 40
0.4751127482
 40
0.6009668636
 40
0.7308202588
 40
1.0
 40
1.0
 40
1.0
 40
1.0
 10
109.405318645
 20
159.5390181528
 30
0.0
 10
109.405318645
 20
159.7312951
 30
0.0
 10
109.4514010836
 20
160.1186855444
 30
0.0
 10
109.6535058268
 20
160.6703188148
 30
0.0
 10
109.9741557348
 20
161.1733507936
 30
0.0
 10
110.3970183533
 20
161.6129050167
 30
0.0
 10
110.9046312102
 20
161.9809039706
 30
0.0
 10
111.6805430206
 20
162.3727891916
 30
0.0
 10
112.3299803254
 20
162.5371093214
 30
0.0
 10
112.7711793678
 20
162.5908123985
 30
0.0
  0
SPLINE
  5
3A5
100
AcDbEntity
  8
0
100
AcDbSpline
 62
7
  6
CONTINUOUS
 70
0
 71
3
 72
14
 73
10
 74
0
 42
0.0000001
 43
0.0000001
 44
0.0000000001
 40
0.0
 40
0.0
 40
0.0
 40
0.0
 40
0.2691811585
 40
0.3990256103
 40
0.5248696703
 40
0.647017276
 40
0.7662701739
 40
0.8835387922
 40
1.0
 40
1.0
 40
1.0
 40
1.0
 10
114.0448522756
 20
162.5903179556
 30
0.0
 10
114.485644807
 20
162.5363181672
 30
0.0
 10
115.1343964269
 20
162.3716459785
 30
0.0
 10
115.9093838946
 20
161.9796078398
 30
0.0
 10
116.4163237919
 20
161.6116355597
 30
0.0
 10
116.8385659596
 20
161.1722494984
 30
0.0
 10
117.1588038076
 20
160.6695343564
 30
0.0
 10
117.3605664179
 20
160.1182617575
 30
0.0
 10
117.4065987105
 20
159.7311527344
 30
0.0
 10
117.4065987105
 20
159.5390181528
 30
0.0
  0
SPLINE
  5
3A6
100
AcDbEntity
  8
0
100
AcDbSpline
 62
7
  6
CONTINUOUS
 70
0
 71
3
 72
13
 73
9
 74
0
 42
0.0000001
 43
0.0000001
 44
0.0000000001
 40
0.0
 40
0.0
 40
0.0
 40
0.0
 40
0.1034550566
 40
0.2106673021
 40
0.3244968403
 40
0.446430815
 40
0.7129369009
 40
1.0
 40
1.0
 40
1.0
 40
1.0
 10
117.4059220806
 20
158.6596937512
 30
0.0
 10
117.4059220806
 20
158.4739874452
 30
0.0
 10
117.3520380277
 20
158.0939019488
 30
0.0
 10
117.1162290315
 20
157.5545586603
 30
0.0
 10
116.7379352312
 20
157.0619832366
 30
0.0
 10
116.0464897954
 20
156.4748076421
 30
0.0
 10
114.9200046642
 20
155.9654351445
 30
0.0
 10
113.9212493699
 20
155.8312668213
 30
0.0
 10
113.4059586777
 20
155.8312668213
 30
0.0
  0
SPLINE
  5
3A7
100
AcDbEntity
  8
0
100
AcDbSpline
 62
7
  6
CONTINUOUS
 70
0
 71
3
 72
12
 73
8
 74
0
 42
0.0000001
 43
0.0000001
 44
0.0000000001
 40
0.0
 40
0.0
 40
0.0
 40
0.0
 40
0.2874741198
 40
0.5542984682
 40
0.7890290439
 40
0.8964861391
 40
1.0
 40
1.0
 40
1.0
 40
1.0
 10
117.4059582773
 20
187.2407323481
 30
0.0
 10
117.5992088386
 20
187.2407323116
 30
0.0
 10
117.9741940816
 20
187.1899476648
 30
0.0
 10
118.4650771393
 20
186.9690479997
 30
0.0
 10
118.7646631621
 20
186.6696939903
 30
0.0
 10
118.8855928499
 20
186.3921721314
 30
0.0
 10
118.9059590295
 20
186.2496572808
 30
0.0
 10
118.9059592428
 20
186.1800714978
 30
0.0
  0
SPLINE
  5
3A8
100
AcDbEntity
  8
0
100
AcDbSpline
 62
7
  6
CONTINUOUS
 70
0
 71
3
 72
12
 73
8
 74
0
 42
0.0000001
 43
0.0000001
 44
0.0000000001
 40
0.0
 40
0.0
 40
0.0
 40
0.0
 40
0.1035139165
 40
0.210971185
 40
0.4457018446
 40
0.7125261527
 40
1.0
 40
1.0
 40
1.0
 40
1.0
 10
79.9059586777
 20
186.1800721763
 30
0.0
 10
79.9059586777
 20
186.2496579524
 30
0.0
 10
79.9263250619
 20
186.392172895
 30
0.0
 10
80.0472549524
 20
186.669694639
 30
0.0
 10
80.3468409329
 20
186.9690485236
 30
0.0
 10
80.8377236479
 20
187.1899477375
 30
0.0
 10
81.2127084227
 20
187.2407323481
 30
0.0
 10
81.4059586777
 20
187.2407323481
 30
0.0
  0
SPLINE
  5
3A9
100
AcDbEntity
  8
0
100
AcDbSpline
 62
7
  6
CONTINUOUS
 70
0
 71
3
 72
11
 73
7
 74
0
 42
0.0000001
 43
0.0000001
 44
0.0000000001
 40
0.0
 40
0.0
 40
0.0
 40
0.0
 40
0.2242363193
 40
0.4661612703
 40
0.7262561132
 40
1.0
 40
1.0
 40
1.0
 40
1.0
 10
118.893692396
 20
163.5383530732
 30
0.0
 10
118.8854651936
 20
163.3995158623
 30
0.0
 10
118.8061459018
 20
163.1126465655
 30
0.0
 10
118.5369932676
 20
162.7418665436
 30
0.0
 10
118.1448107351
 20
162.4515757586
 30
0.0
 10
117.8288437503
 20
162.3362567851
 30
0.0
 10
117.6628626643
 20
162.3005069609
 30
0.0
  0
SPLINE
  5
3AA
100
AcDbEntity
  8
0
100
AcDbSpline
 62
7
  6
CONTINUOUS
 70
0
 71
3
 72
14
 73
10
 74
0
 42
0.0000001
 43
0.0000001
 44
0.0000000001
 40
0.0
 40
0.0
 40
0.0
 40
0.0
 40
0.1164505082
 40
0.2337006637
 40
0.3529608324
 40
0.4751127482
 40
0.6009668636
 40
0.7308202588
 40
1.0
 40
1.0
 40
1.0
 40
1.0
 10
111.088718645
 20
148.5788630445
 30
0.0
 10
111.088718645
 20
148.7711399916
 30
0.0
 10
111.1348010836
 20
149.158530436
 30
0.0
 10
111.3369058268
 20
149.7101637064
 30
0.0
 10
111.6575557348
 20
150.2131956852
 30
0.0
 10
112.0804183533
 20
150.6527499083
 30
0.0
 10
112.5880312102
 20
151.0207488622
 30
0.0
 10
113.3639430206
 20
151.4126340832
 30
0.0
 10
114.0133803254
 20
151.576954213
 30
0.0
 10
114.4545793678
 20
151.6306572901
 30
0.0
  0
SPLINE
  5
3AB
100
AcDbEntity
  8
0
100
AcDbSpline
 62
7
  6
CONTINUOUS
 70
0
 71
3
 72
14
 73
10
 74
0
 42
0.0000001
 43
0.0000001
 44
0.0000000001
 40
0.0
 40
0.0
 40
0.0
 40
0.0
 40
0.2691811585
 40
0.3990256103
 40
0.5248696703
 40
0.647017276
 40
0.7662701739
 40
0.8835387922
 40
1.0
 40
1.0
 40
1.0
 40
1.0
 10
115.7282522756
 20
151.6301628472
 30
0.0
 10
116.169044807
 20
151.5761630588
 30
0.0
 10
116.8177964269
 20
151.4114908701
 30
0.0
 10
117.5927838946
 20
151.0194527314
 30
0.0
 10
118.0997237919
 20
150.6514804513
 30
0.0
 10
118.5219659596
 20
150.21209439
 30
0.0
 10
118.8422038076
 20
149.709379248
 30
0.0
 10
119.0439664179
 20
149.1581066491
 30
0.0
 10
119.0899987105
 20
148.770997626
 30
0.0
 10
119.0899987105
 20
148.5788630445
 30
0.0
  0
SPLINE
  5
3AC
100
AcDbEntity
  8
0
100
AcDbSpline
 62
7
  6
CONTINUOUS
 70
0
 71
3
 72
14
 73
10
 74
0
 42
0.0000001
 43
0.0000001
 44
0.0000000001
 40
0.0
 40
0.0
 40
0.0
 40
0.0
 40
0.136932979
 40
0.2723649755
 40
0.4053161982
 40
0.5349186928
 40
0.6601199888
 40
0.779906995
 40
1.0
 40
1.0
 40
1.0
 40
1.0
 10
117.8707030665
 20
151.0229446237
 30
0.0
 10
118.0447167343
 20
151.0580332617
 30
0.0
 10
118.3856267554
 20
151.1568573391
 30
0.0
 10
118.8626416222
 20
151.3819200885
 30
0.0
 10
119.2919471183
 20
151.6716679811
 30
0.0
 10
119.6636514883
 20
152.0126893852
 30
0.0
 10
119.9695647394
 20
152.3926781106
 30
0.0
 10
120.27129342
 20
152.9158114965
 30
0.0
 10
120.3937953182
 20
153.3538608537
 30
0.0
 10
120.4074084952
 20
153.6388583724
 30
0.0
  0
SPLINE
  5
3AD
100
AcDbEntity
  8
0
100
AcDbSpline
 62
7
  6
CONTINUOUS
 70
0
 71
3
 72
8
 73
4
 74
0
 42
0.0000001
 43
0.0000001
 44
0.0000000001
 40
0.0
 40
0.0
 40
0.0
 40
0.0
 40
1.0
 40
1.0
 40
1.0
 40
1.0
 10
117.819375883
 20
166.8841164008
 30
0.0
 10
117.8437921033
 20
166.8405162451
 30
0.0
 10
117.8611966522
 20
166.7923073838
 30
0.0
 10
117.870618927
 20
166.7432324805
 30
0.0
  0
SPLINE
  5
3AE
100
AcDbEntity
  8
0
100
AcDbSpline
 62
7
  6
CONTINUOUS
 70
0
 71
3
 72
13
 73
9
 74
0
 42
0.0000001
 43
0.0000001
 44
0.0000000001
 40
0.0
 40
0.0
 40
0.0
 40
0.0
 40
0.1034550566
 40
0.2106673021
 40
0.3244968403
 40
0.446430815
 40
0.7129369009
 40
1.0
 40
1.0
 40
1.0
 40
1.0
 10
119.0893220806
 20
147.6995386428
 30
0.0
 10
119.0893220806
 20
147.5138323368
 30
0.0
 10
119.0354380277
 20
147.1337468405
 30
0.0
 10
118.7996290315
 20
146.594403552
 30
0.0
 10
118.4213352312
 20
146.1018281282
 30
0.0
 10
117.7298897954
 20
145.5146525337
 30
0.0
 10
116.6034046642
 20
145.0052800362
 30
0.0
 10
115.6046493699
 20
144.871111713
 30
0.0
 10
115.0893586777
 20
144.871111713
 30
0.0
  0
SPLINE
  5
3AF
100
AcDbEntity
  8
0
100
AcDbSpline
 62
7
  6
CONTINUOUS
 70
0
 71
3
 72
9
 73
5
 74
0
 42
0.0000001
 43
0.0000001
 44
0.0000000001
 40
0.0
 40
0.0
 40
0.0
 40
0.0
 40
0.2432564744
 40
1.0
 40
1.0
 40
1.0
 40
1.0
 10
109.6117220223
 20
150.7570508728
 30
0.0
 10
109.6500608844
 20
150.7413994327
 30
0.0
 10
109.8110502223
 20
150.6855252233
 30
0.0
 10
109.9829061186
 20
150.6623123613
 30
0.0
 10
110.1117297663
 20
150.6623098624
 30
0.0
  0
SPLINE
  5
3B0
100
AcDbEntity
  8
0
100
AcDbSpline
 62
7
  6
CONTINUOUS
 70
0
 71
3
 72
9
 73
5
 74
0
 42
0.0000001
 43
0.0000001
 44
0.0000000001
 40
0.0
 40
0.0
 40
0.0
 40
0.0
 40
0.2539611529
 40
1.0
 40
1.0
 40
1.0
 40
1.0
 10
105.7470387233
 20
152.2254108077
 30
0.0
 10
105.8473541052
 20
152.2025417991
 30
0.0
 10
106.2405431808
 20
152.104785654
 30
0.0
 10
106.6261316815
 20
151.9759132536
 30
0.0
 10
106.9059591397
 20
151.8616745246
 30
0.0
  0
SPLINE
  5
3B1
100
AcDbEntity
  8
0
100
AcDbSpline
 62
7
  6
CONTINUOUS
 70
0
 71
3
 72
13
 73
9
 74
0
 42
0.0000001
 43
0.0000001
 44
0.0000000001
 40
0.0
 40
0.0
 40
0.0
 40
0.0
 40
0.2251764207
 40
0.3488057729
 40
0.4776935707
 40
0.6097447246
 40
0.7425515019
 40
1.0
 40
1.0
 40
1.0
 40
1.0
 10
91.0488158121
 20
151.8082687629
 30
0.0
 10
91.616208188
 20
152.4759190495
 30
0.0
 10
92.738935908
 20
153.3118225596
 30
0.0
 10
94.4533423852
 20
154.0361844065
 30
0.0
 10
95.908988391
 20
154.4088370764
 30
0.0
 10
97.4370312869
 20
154.5768132962
 30
0.0
 10
99.4721515582
 20
154.522732284
 30
0.0
 10
100.9785138472
 20
154.1721537774
 30
0.0
 10
101.9059568903
 20
153.7935265149
 30
0.0
  0
SPLINE
  5
3B2
100
AcDbEntity
  8
0
100
AcDbSpline
 62
7
  6
CONTINUOUS
 70
0
 71
3
 72
9
 73
5
 74
0
 42
0.0000001
 43
0.0000001
 44
0.0000000001
 40
0.0
 40
0.0
 40
0.0
 40
0.0
 40
0.2467672507
 40
1.0
 40
1.0
 40
1.0
 40
1.0
 10
90.6328498386
 20
151.2505904221
 30
0.0
 10
90.6641779406
 20
151.2985049888
 30
0.0
 10
90.7941895617
 20
151.4906628346
 30
0.0
 10
90.9361750941
 20
151.6746769611
 30
0.0
 10
91.0488158121
 20
151.8082687629
 30
0.0
  0
SPLINE
  5
3B3
100
AcDbEntity
  8
0
100
AcDbSpline
 62
7
  6
CONTINUOUS
 70
0
 71
3
 72
13
 73
9
 74
0
 42
0.0000001
 43
0.0000001
 44
0.0000000001
 40
0.0
 40
0.0
 40
0.0
 40
0.0
 40
0.2251764415
 40
0.3488057991
 40
0.4776935982
 40
0.6097447493
 40
0.7425515203
 40
1.0
 40
1.0
 40
1.0
 40
1.0
 10
91.9059585436
 20
142.9587732067
 30
0.0
 10
92.4024272488
 20
143.5429670919
 30
0.0
 10
93.3848144251
 20
144.2743824251
 30
0.0
 10
94.8849205162
 20
144.9081987398
 30
0.0
 10
96.1586109968
 20
145.2342695774
 30
0.0
 10
97.4956486746
 20
145.3812485156
 30
0.0
 10
99.2763790246
 20
145.3339273749
 30
0.0
 10
100.5944459564
 20
145.0271707763
 30
0.0
 10
101.4059586777
 20
144.6958719753
 30
0.0
  0
SPLINE
  5
3B4
100
AcDbEntity
  8
0
100
AcDbSpline
 62
7
  6
CONTINUOUS
 70
0
 71
3
 72
9
 73
5
 74
0
 42
0.0000001
 43
0.0000001
 44
0.0000000001
 40
0.0
 40
0.0
 40
0.0
 40
0.0
 40
0.2465338491
 40
1.0
 40
1.0
 40
1.0
 40
1.0
 10
91.5419884435
 20
142.4708035325
 30
0.0
 10
91.5691793156
 20
142.5128194739
 30
0.0
 10
91.6823633483
 20
142.6813630901
 30
0.0
 10
91.8068533134
 20
142.842268388
 30
0.0
 10
91.9059585436
 20
142.9587732067
 30
0.0
  0
SPLINE
  5
3B5
100
AcDbEntity
  8
0
100
AcDbSpline
 62
7
  6
CONTINUOUS
 70
0
 71
3
 72
9
 73
5
 74
0
 42
0.0000001
 43
0.0000001
 44
0.0000000001
 40
0.0
 40
0.0
 40
0.0
 40
0.0
 40
0.2436881121
 40
1.0
 40
1.0
 40
1.0
 40
1.0
 10
108.8437806471
 20
141.6593919506
 30
0.0
 10
108.9056500959
 20
141.6341343021
 30
0.0
 10
109.1639551514
 20
141.5414949633
 30
0.0
 10
109.4371195453
 20
141.4916846782
 30
0.0
 10
109.6440019703
 20
141.4769984791
 30
0.0
  0
SPLINE
  5
3B6
100
AcDbEntity
  8
0
100
AcDbSpline
 62
7
  6
CONTINUOUS
 70
0
 71
3
 72
11
 73
7
 74
0
 42
0.0000001
 43
0.0000001
 44
0.0000000001
 40
0.0
 40
0.0
 40
0.0
 40
0.0
 40
0.2284229506
 40
0.4773858184
 40
0.7384110592
 40
1.0
 40
1.0
 40
1.0
 40
1.0
 10
99.9059586777
 20
141.8234784878
 30
0.0
 10
100.2258118892
 20
142.1250389876
 30
0.0
 10
101.0006654144
 20
142.6459162291
 30
0.0
 10
102.3535058344
 20
143.1189975855
 30
0.0
 10
103.8395513987
 20
143.2908188676
 30
0.0
 10
104.849913619
 20
143.1933518481
 30
0.0
 10
105.342368944
 20
143.0888383772
 30
0.0
  0
SPLINE
  5
3B7
100
AcDbEntity
  8
0
100
AcDbSpline
 62
7
  6
CONTINUOUS
 70
0
 71
3
 72
9
 73
5
 74
0
 42
0.0000001
 43
0.0000001
 44
0.0000000001
 40
0.0
 40
0.0
 40
0.0
 40
0.0
 40
0.2459506642
 40
1.0
 40
1.0
 40
1.0
 40
1.0
 10
99.60041246
 20
141.5038141906
 30
0.0
 10
99.6236097284
 20
141.5316947689
 30
0.0
 10
99.7199259529
 20
141.6433800081
 30
0.0
 10
99.8240012559
 20
141.7483291466
 30
0.0
 10
99.9059586777
 20
141.8234784878
 30
0.0
  0
SPLINE
  5
3B8
100
AcDbEntity
  8
0
100
AcDbSpline
 62
7
  6
CONTINUOUS
 70
0
 71
3
 72
9
 73
5
 74
0
 42
0.0000001
 43
0.0000001
 44
0.0000000001
 40
0.0
 40
0.0
 40
0.0
 40
0.0
 40
0.494939663
 40
1.0
 40
1.0
 40
1.0
 40
1.0
 10
78.4059753309
 20
200.0380046908
 30
0.0
 10
78.4059753309
 20
200.2335519481
 30
0.0
 10
78.4623588118
 20
200.6301481438
 30
0.0
 10
78.6187794074
 20
200.9981192092
 30
0.0
 10
78.7189553253
 20
201.1706977075
 30
0.0
  0
SPLINE
  5
3B9
100
AcDbEntity
  8
0
100
AcDbSpline
 62
7
  6
CONTINUOUS
 70
0
 71
3
 72
10
 73
6
 74
0
 42
0.0000001
 43
0.0000001
 44
0.0000000001
 40
0.0
 40
0.0
 40
0.0
 40
0.0
 40
0.2707554414
 40
0.5325908132
 40
1.0
 40
1.0
 40
1.0
 40
1.0
 10
117.4059691104
 20
202.4364549083
 30
0.0
 10
117.664963256
 20
202.4364555824
 30
0.0
 10
118.1765370414
 20
202.389423485
 30
0.0
 10
119.0973036733
 20
202.1271902605
 30
0.0
 10
119.7139630006
 20
201.7279572261
 30
0.0
 10
119.9982413519
 20
201.3828642909
 30
0.0
  0
SPLINE
  5
3BA
100
AcDbEntity
  8
0
100
AcDbSpline
 62
7
  6
CONTINUOUS
 70
0
 71
3
 72
10
 73
6
 74
0
 42
0.0000001
 43
0.0000001
 44
0.0000000001
 40
0.0
 40
0.0
 40
0.0
 40
0.0
 40
0.4674091666
 40
0.7292445453
 40
1.0
 40
1.0
 40
1.0
 40
1.0
 10
78.8136768799
 20
201.3828642909
 30
0.0
 10
79.0979561502
 20
201.7279586263
 30
0.0
 10
79.7146177352
 20
202.1271931563
 30
0.0
 10
80.6353878098
 20
202.3894279079
 30
0.0
 10
81.1469635437
 20
202.4364592296
 30
0.0
 10
81.4059586777
 20
202.4364592296
 30
0.0
  0
SPLINE
  5
3BB
100
AcDbEntity
  8
0
100
AcDbSpline
 62
7
  6
CONTINUOUS
 70
0
 71
3
 72
9
 73
5
 74
0
 42
0.0000001
 43
0.0000001
 44
0.0000000001
 40
0.0
 40
0.0
 40
0.0
 40
0.0
 40
0.5017676886
 40
1.0
 40
1.0
 40
1.0
 40
1.0
 10
119.9982413519
 20
201.3828642909
 30
0.0
 10
120.1310235243
 20
201.1465135535
 30
0.0
 10
120.3346970138
 20
200.6389823062
 30
0.0
 10
120.4059424128
 20
200.0968006106
 30
0.0
 10
120.4059420389
 20
199.8276151959
 30
0.0
  0
SPLINE
  5
3BC
100
AcDbEntity
  8
0
100
AcDbSpline
 62
7
  6
CONTINUOUS
 70
0
 71
3
 72
11
 73
7
 74
0
 42
0.0000001
 43
0.0000001
 44
0.0000000001
 40
0.0
 40
0.0
 40
0.0
 40
0.0
 40
0.2445888354
 40
0.5018043581
 40
0.7580128935
 40
1.0
 40
1.0
 40
1.0
 40
1.0
 10
105.1840080018
 20
187.1990661488
 30
0.0
 10
105.3686483284
 20
187.1014217115
 30
0.0
 10
105.7781238515
 20
186.9564453662
 30
0.0
 10
106.4278077916
 20
186.892332148
 30
0.0
 10
107.0729287959
 20
186.9769525557
 30
0.0
 10
107.4743195459
 20
187.135418895
 30
0.0
 10
107.6529458267
 20
187.239322462
 30
0.0
  0
SPLINE
  5
3BD
100
AcDbEntity
  8
0
100
AcDbSpline
 62
7
  6
CONTINUOUS
 70
0
 71
3
 72
13
 73
9
 74
0
 42
0.0000001
 43
0.0000001
 44
0.0000000001
 40
0.0
 40
0.0
 40
0.0
 40
0.0
 40
0.1034550566
 40
0.2106673021
 40
0.3244968403
 40
0.446430815
 40
0.7129369009
 40
1.0
 40
1.0
 40
1.0
 40
1.0
 10
91.4059220806
 20
197.3455057499
 30
0.0
 10
91.4059220806
 20
197.159799444
 30
0.0
 10
91.3520380277
 20
196.7797139476
 30
0.0
 10
91.1162290315
 20
196.2403706591
 30
0.0
 10
90.7379352312
 20
195.7477952353
 30
0.0
 10
90.0464897954
 20
195.1606196408
 30
0.0
 10
88.9200046642
 20
194.6512471433
 30
0.0
 10
87.9212493699
 20
194.5170788201
 30
0.0
 10
87.4059586777
 20
194.5170788201
 30
0.0
  0
SPLINE
  5
3BE
100
AcDbEntity
  8
0
100
AcDbSpline
 62
7
  6
CONTINUOUS
 70
0
 71
3
 72
14
 73
10
 74
0
 42
0.0000001
 43
0.0000001
 44
0.0000000001
 40
0.0
 40
0.0
 40
0.0
 40
0.0
 40
0.1164505082
 40
0.2337006637
 40
0.3529608324
 40
0.4751127482
 40
0.6009668636
 40
0.7308202588
 40
1.0
 40
1.0
 40
1.0
 40
1.0
 10
83.405318645
 20
198.2248301516
 30
0.0
 10
83.405318645
 20
198.4171070987
 30
0.0
 10
83.4514010836
 20
198.8044975431
 30
0.0
 10
83.6535058268
 20
199.3561308135
 30
0.0
 10
83.9741557348
 20
199.8591627923
 30
0.0
 10
84.3970183533
 20
200.2987170154
 30
0.0
 10
84.9046312102
 20
200.6667159693
 30
0.0
 10
85.6805430206
 20
201.0586011903
 30
0.0
 10
86.3299803254
 20
201.2229213201
 30
0.0
 10
86.7711793678
 20
201.2766243972
 30
0.0
  0
SPLINE
  5
3BF
100
AcDbEntity
  8
0
100
AcDbSpline
 62
7
  6
CONTINUOUS
 70
0
 71
3
 72
14
 73
10
 74
0
 42
0.0000001
 43
0.0000001
 44
0.0000000001
 40
0.0
 40
0.0
 40
0.0
 40
0.0
 40
0.2691811585
 40
0.3990256103
 40
0.5248696703
 40
0.647017276
 40
0.7662701739
 40
0.8835387922
 40
1.0
 40
1.0
 40
1.0
 40
1.0
 10
88.0448522756
 20
201.2761299543
 30
0.0
 10
88.485644807
 20
201.2221301659
 30
0.0
 10
89.1343964269
 20
201.0574579773
 30
0.0
 10
89.9093838946
 20
200.6654198385
 30
0.0
 10
90.4163237919
 20
200.2974475584
 30
0.0
 10
90.8385659596
 20
199.8580614971
 30
0.0
 10
91.1588038076
 20
199.3553463552
 30
0.0
 10
91.3605664179
 20
198.8040737562
 30
0.0
 10
91.4065987105
 20
198.4169647331
 30
0.0
 10
91.4065987105
 20
198.2248301516
 30
0.0
  0
SPLINE
  5
3C0
100
AcDbEntity
  8
0
100
AcDbSpline
 62
7
  6
CONTINUOUS
 70
0
 71
3
 72
13
 73
9
 74
0
 42
0.0000001
 43
0.0000001
 44
0.0000000001
 40
0.0
 40
0.0
 40
0.0
 40
0.0
 40
0.2870630991
 40
0.553569185
 40
0.6755031597
 40
0.7893326979
 40
0.8965449434
 40
1.0
 40
1.0
 40
1.0
 40
1.0
 10
100.4059586777
 20
155.4777134308
 30
0.0
 10
99.8906679856
 20
155.4777134308
 30
0.0
 10
98.8919126912
 20
155.611881754
 30
0.0
 10
97.7654275601
 20
156.1212542515
 30
0.0
 10
97.0739821243
 20
156.708429846
 30
0.0
 10
96.695688324
 20
157.2010052698
 30
0.0
 10
96.4598793277
 20
157.7403485583
 30
0.0
 10
96.4059952749
 20
158.1204340546
 30
0.0
 10
96.4059952749
 20
158.3061403606
 30
0.0
  0
SPLINE
  5
3C1
100
AcDbEntity
  8
0
100
AcDbSpline
 62
7
  6
CONTINUOUS
 70
0
 71
3
 72
9
 73
5
 74
0
 42
0.0000001
 43
0.0000001
 44
0.0000000001
 40
0.0
 40
0.0
 40
0.0
 40
0.0
 40
0.2460489733
 40
1.0
 40
1.0
 40
1.0
 40
1.0
 10
84.1691946267
 20
160.1577188351
 30
0.0
 10
84.2022926922
 20
160.1990288066
 30
0.0
 10
84.3397428192
 20
160.3645593702
 30
0.0
 10
84.4885859719
 20
160.5205678583
 30
0.0
 10
84.6059586777
 20
160.6325188673
 30
0.0
  0
SPLINE
  5
3C2
100
AcDbEntity
  8
0
100
AcDbSpline
 62
7
  6
CONTINUOUS
 70
0
 71
3
 72
12
 73
8
 74
0
 42
0.0000001
 43
0.0000001
 44
0.0000000001
 40
0.0
 40
0.0
 40
0.0
 40
0.0
 40
0.2299540954
 40
0.3544965276
 40
0.4833203187
 40
0.7453811032
 40
1.0
 40
1.0
 40
1.0
 40
1.0
 10
84.6059586777
 20
160.6325188673
 30
0.0
 10
85.066530645
 20
161.066750648
 30
0.0
 10
85.9132069898
 20
161.5979034822
 30
0.0
 10
87.1671148772
 20
162.0478668676
 30
0.0
 10
88.5596271731
 20
162.341985002
 30
0.0
 10
90.3555319241
 20
162.3676572142
 30
0.0
 10
91.7570601645
 20
162.0260783787
 30
0.0
 10
92.4059586256
 20
161.7611657359
 30
0.0
  0
SPLINE
  5
3C3
100
AcDbEntity
  8
0
100
AcDbSpline
 62
7
  6
CONTINUOUS
 70
0
 71
3
 72
9
 73
5
 74
0
 42
0.0000001
 43
0.0000001
 44
0.0000000001
 40
0.0
 40
0.0
 40
0.0
 40
0.0
 40
0.2432563079
 40
1.0
 40
1.0
 40
1.0
 40
1.0
 10
95.1117318
 20
160.6565419632
 30
0.0
 10
95.1500696941
 20
160.6408905126
 30
0.0
 10
95.3110561247
 20
160.5850185428
 30
0.0
 10
95.482908962
 20
160.5618082569
 30
0.0
 10
95.6117299507
 20
160.5618085243
 30
0.0
  0
SPLINE
  5
3C4
100
AcDbEntity
  8
0
100
AcDbSpline
 62
7
  6
CONTINUOUS
 70
0
 71
3
 72
9
 73
5
 74
0
 42
0.0000001
 43
0.0000001
 44
0.0000000001
 40
0.0
 40
0.0
 40
0.0
 40
0.0
 40
0.2449808405
 40
1.0
 40
1.0
 40
1.0
 40
1.0
 10
85.086852316
 20
152.7907069781
 30
0.0
 10
85.1103467707
 20
152.8211968868
 30
0.0
 10
85.2090649417
 20
152.943471905
 30
0.0
 10
85.3186301666
 20
153.0568958755
 30
0.0
 10
85.4059584095
 20
153.1371883114
 30
0.0
  0
SPLINE
  5
3C5
100
AcDbEntity
  8
0
100
AcDbSpline
 62
7
  6
CONTINUOUS
 70
0
 71
3
 72
12
 73
8
 74
0
 42
0.0000001
 43
0.0000001
 44
0.0000000001
 40
0.0
 40
0.0
 40
0.0
 40
0.0
 40
0.2296575806
 40
0.3539138078
 40
0.4824667599
 40
0.7444190688
 40
1.0
 40
1.0
 40
1.0
 40
1.0
 10
85.4059584095
 20
153.1371883114
 30
0.0
 10
85.782069858
 20
153.4917896654
 30
0.0
 10
86.4710416475
 20
153.9276421226
 30
0.0
 10
87.4919183378
 20
154.3020038076
 30
0.0
 10
88.6267578089
 20
154.5523617156
 30
0.0
 10
90.0956821732
 20
154.5908394987
 30
0.0
 10
91.2473453088
 20
154.3311667309
 30
0.0
 10
91.7846542439
 20
154.1256717403
 30
0.0
  0
SPLINE
  5
3C6
100
AcDbEntity
  8
0
100
AcDbSpline
 62
7
  6
CONTINUOUS
 70
0
 71
3
 72
13
 73
9
 74
0
 42
0.0000001
 43
0.0000001
 44
0.0000000001
 40
0.0
 40
0.0
 40
0.0
 40
0.0
 40
0.2870630991
 40
0.553569185
 40
0.6755031597
 40
0.7893326979
 40
0.8965449434
 40
1.0
 40
1.0
 40
1.0
 40
1.0
 10
113.4059586777
 20
155.8312668213
 30
0.0
 10
112.8906679856
 20
155.8312668213
 30
0.0
 10
111.8919126912
 20
155.9654351445
 30
0.0
 10
110.7654275601
 20
156.4748076421
 30
0.0
 10
110.0739821243
 20
157.0619832366
 30
0.0
 10
109.695688324
 20
157.5545586603
 30
0.0
 10
109.4598793277
 20
158.0939019488
 30
0.0
 10
109.4059952749
 20
158.4739874452
 30
0.0
 10
109.4059952749
 20
158.6596937512
 30
0.0
  0
SPLINE
  5
3C7
100
AcDbEntity
  8
0
100
AcDbSpline
 62
7
  6
CONTINUOUS
 70
0
 71
3
 72
13
 73
9
 74
0
 42
0.0000001
 43
0.0000001
 44
0.0000000001
 40
0.0
 40
0.0
 40
0.0
 40
0.0
 40
0.2870630991
 40
0.553569185
 40
0.6755031597
 40
0.7893326979
 40
0.8965449434
 40
1.0
 40
1.0
 40
1.0
 40
1.0
 10
115.0893586777
 20
144.871111713
 30
0.0
 10
114.5740679856
 20
144.871111713
 30
0.0
 10
113.5753126912
 20
145.0052800362
 30
0.0
 10
112.4488275601
 20
145.5146525337
 30
0.0
 10
111.7573821243
 20
146.1018281282
 30
0.0
 10
111.379088324
 20
146.594403552
 30
0.0
 10
111.1432793277
 20
147.1337468405
 30
0.0
 10
111.0893952749
 20
147.5138323368
 30
0.0
 10
111.0893952749
 20
147.6995386428
 30
0.0
  0
SPLINE
  5
3C8
100
AcDbEntity
  8
0
100
AcDbSpline
 62
7
  6
CONTINUOUS
 70
0
 71
3
 72
13
 73
9
 74
0
 42
0.0000001
 43
0.0000001
 44
0.0000000001
 40
0.0
 40
0.0
 40
0.0
 40
0.0
 40
0.2560242893
 40
0.5254992264
 40
0.6564383489
 40
0.7801171747
 40
0.8946755916
 40
1.0
 40
1.0
 40
1.0
 40
1.0
 10
94.6441488928
 20
137.5949959269
 30
0.0
 10
94.903044193
 20
137.4413832547
 30
0.0
 10
95.5061061227
 20
137.2431817345
 30
0.0
 10
96.2922555674
 20
137.2555277573
 30
0.0
 10
96.8886595547
 20
137.4220336133
 30
0.0
 10
97.2799927884
 20
137.6169053257
 30
0.0
 10
97.5970481622
 20
137.8727771943
 30
0.0
 10
97.7524316571
 20
138.0845407437
 30
0.0
 10
97.8091093135
 20
138.1946521809
 30
0.0
  0
SPLINE
  5
3C9
100
AcDbEntity
  8
0
100
AcDbSpline
 62
7
  6
CONTINUOUS
 70
0
 71
3
 72
13
 73
9
 74
0
 42
0.0000001
 43
0.0000001
 44
0.0000000001
 40
0.0
 40
0.0
 40
0.0
 40
0.0
 40
0.2560247376
 40
0.525499515
 40
0.6564384748
 40
0.7801171795
 40
0.8946755567
 40
1.0
 40
1.0
 40
1.0
 40
1.0
 10
85.2160012006
 20
135.7769089749
 30
0.0
 10
85.4748983782
 20
135.6232990601
 30
0.0
 10
86.0779610243
 20
135.4251022341
 30
0.0
 10
86.8641095385
 20
135.4374515057
 30
0.0
 10
87.4605119347
 20
135.6039585132
 30
0.0
 10
87.8518441547
 20
135.7988302543
 30
0.0
 10
88.1688992012
 20
136.0547015028
 30
0.0
 10
88.3242831651
 20
136.2664642481
 30
0.0
 10
88.3809613305
 20
136.3765753215
 30
0.0
  0
SPLINE
  5
3CA
100
AcDbEntity
  8
0
100
AcDbSpline
 62
7
  6
CONTINUOUS
 70
0
 71
3
 72
13
 73
9
 74
0
 42
0.0000001
 43
0.0000001
 44
0.0000000001
 40
0.0
 40
0.0
 40
0.0
 40
0.0
 40
0.2785844272
 40
0.5430510499
 40
0.6669508378
 40
0.7842007377
 40
0.8949196084
 40
1.0
 40
1.0
 40
1.0
 40
1.0
 10
100.4059586777
 20
156.3331486554
 30
0.0
 10
100.8361143026
 20
156.3331486554
 30
0.0
 10
101.6776151857
 20
156.4281224995
 30
0.0
 10
102.6564338826
 20
156.7861175152
 30
0.0
 10
103.3185722375
 20
157.2046938957
 30
0.0
 10
103.7288963084
 20
157.5647035448
 30
0.0
 10
104.0522282986
 20
157.9681527701
 30
0.0
 10
104.2068806499
 20
158.2665113212
 30
0.0
 10
104.2652303317
 20
158.4179083949
 30
0.0
  0
SPLINE
  5
3CB
100
AcDbEntity
  8
0
100
AcDbSpline
 62
7
  6
CONTINUOUS
 70
0
 71
3
 72
9
 73
5
 74
0
 42
0.0000001
 43
0.0000001
 44
0.0000000001
 40
0.0
 40
0.0
 40
0.0
 40
0.0
 40
0.2528311171
 40
1.0
 40
1.0
 40
1.0
 40
1.0
 10
104.3056702211
 20
158.5321914754
 30
0.0
 10
104.3195248767
 20
158.575138421
 30
0.0
 10
104.3689565029
 20
158.7466801491
 30
0.0
 10
104.3963019543
 20
158.9246417915
 30
0.0
 10
104.4032499727
 20
159.0578186187
 30
0.0
  0
SPLINE
  5
3CC
100
AcDbEntity
  8
0
100
AcDbSpline
 62
7
  6
CONTINUOUS
 70
0
 71
3
 72
9
 73
5
 74
0
 42
0.0000001
 43
0.0000001
 44
0.0000000001
 40
0.0
 40
0.0
 40
0.0
 40
0.0
 40
0.2564059849
 40
1.0
 40
1.0
 40
1.0
 40
1.0
 10
100.4059586777
 20
155.4137048969
 30
0.0
 10
100.2542535061
 20
155.4137048969
 30
0.0
 10
99.6632459945
 20
155.442664373
 30
0.0
 10
99.0755200912
 20
155.5860760326
 30
0.0
 10
98.6725880456
 20
155.7627283466
 30
0.0
  0
SPLINE
  5
3CD
100
AcDbEntity
  8
0
100
AcDbSpline
 62
7
  6
CONTINUOUS
 70
0
 71
3
 72
13
 73
9
 74
0
 42
0.0000001
 43
0.0000001
 44
0.0000000001
 40
0.0
 40
0.0
 40
0.0
 40
0.0
 40
0.2870685863
 40
0.5535747875
 40
0.6755043683
 40
0.7893334285
 40
0.8965458294
 40
1.0
 40
1.0
 40
1.0
 40
1.0
 10
100.4059586777
 20
154.9120243736
 30
0.0
 10
100.9212578573
 20
154.9120243736
 30
0.0
 10
101.9200202844
 20
155.0461985538
 30
0.0
 10
103.0465026458
 20
155.5555776249
 30
0.0
 10
103.7379312152
 20
156.1427555067
 30
0.0
 10
104.1162180692
 20
156.6353228358
 30
0.0
 10
104.3520247021
 20
157.1746639215
 30
0.0
 10
104.4059040097
 20
157.5547470799
 30
0.0
 10
104.4059059689
 20
157.7404513044
 30
0.0
  0
SPLINE
  5
3CE
100
AcDbEntity
  8
0
100
AcDbSpline
 62
7
  6
CONTINUOUS
 70
0
 71
3
 72
9
 73
5
 74
0
 42
0.0000001
 43
0.0000001
 44
0.0000000001
 40
0.0
 40
0.0
 40
0.0
 40
0.0
 40
0.2560079993
 40
1.0
 40
1.0
 40
1.0
 40
1.0
 10
99.1059586777
 20
142.2477425565
 30
0.0
 10
99.0650376901
 20
142.2108438472
 30
0.0
 10
98.9084553905
 20
142.0631630315
 30
0.0
 10
98.7653841538
 20
141.9009612241
 30
0.0
 10
98.6691943966
 20
141.7729430032
 30
0.0
  0
SPLINE
  5
3CF
100
AcDbEntity
  8
0
100
AcDbSpline
 62
7
  6
CONTINUOUS
 70
0
 71
3
 72
10
 73
6
 74
0
 42
0.0000001
 43
0.0000001
 44
0.0000000001
 40
0.0
 40
0.0
 40
0.0
 40
0.0
 40
0.2668674645
 40
0.5255435417
 40
1.0
 40
1.0
 40
1.0
 40
1.0
 10
103.2990124732
 20
143.9230357961
 30
0.0
 10
102.8920903593
 20
143.8937788675
 30
0.0
 10
102.0928570134
 20
143.7775584962
 30
0.0
 10
100.6285970768
 20
143.3322742535
 30
0.0
 10
99.6337089126
 20
142.7453102496
 30
0.0
 10
99.1059586777
 20
142.2477425565
 30
0.0
  0
SPLINE
  5
3D0
100
AcDbEntity
  8
0
100
AcDbSpline
 62
7
  6
CONTINUOUS
 70
0
 71
3
 72
12
 73
8
 74
0
 42
0.0000001
 43
0.0000001
 44
0.0000000001
 40
0.0
 40
0.0
 40
0.0
 40
0.0
 40
0.2839137647
 40
0.5436468654
 40
0.7791170311
 40
0.8906263671
 40
1.0
 40
1.0
 40
1.0
 40
1.0
 10
98.7164773912
 20
154.4625232797
 30
0.0
 10
98.386226671
 20
154.5713335347
 30
0.0
 10
97.7726900879
 20
154.8476931647
 30
0.0
 10
97.0185235385
 20
155.4506889727
 30
0.0
 10
96.5990876176
 20
156.0839580406
 30
0.0
 10
96.4335055323
 20
156.6210219639
 30
0.0
 10
96.4060127998
 20
156.8923227752
 30
0.0
 10
96.4060113866
 20
157.0262746193
 30
0.0
  0
SPLINE
  5
3D1
100
AcDbEntity
  8
0
100
AcDbSpline
 62
7
  6
CONTINUOUS
 70
0
 71
3
 72
12
 73
8
 74
0
 42
0.0000001
 43
0.0000001
 44
0.0000000001
 40
0.0
 40
0.0
 40
0.0
 40
0.0
 40
0.2546188968
 40
0.5166796813
 40
0.6455034724
 40
0.7700459046
 40
1.0
 40
1.0
 40
1.0
 40
1.0
 10
92.4059586256
 20
154.690097924
 30
0.0
 10
91.7570601645
 20
154.9550105669
 30
0.0
 10
90.3555319241
 20
155.2965894023
 30
0.0
 10
88.5596271731
 20
155.2709171901
 30
0.0
 10
87.1671148772
 20
154.9767990558
 30
0.0
 10
85.9132069898
 20
154.5268356703
 30
0.0
 10
85.066530645
 20
153.9956828361
 30
0.0
 10
84.6059586777
 20
153.5614510555
 30
0.0
  0
SPLINE
  5
3D2
100
AcDbEntity
  8
0
100
AcDbSpline
 62
7
  6
CONTINUOUS
 70
0
 71
3
 72
9
 73
5
 74
0
 42
0.0000001
 43
0.0000001
 44
0.0000000001
 40
0.0
 40
0.0
 40
0.0
 40
0.0
 40
0.254131121
 40
1.0
 40
1.0
 40
1.0
 40
1.0
 10
84.6059586777
 20
153.5614510555
 30
0.0
 10
84.566396707
 20
153.5237165369
 30
0.0
 10
84.4130936159
 20
153.3727728791
 30
0.0
 10
84.269526663
 20
153.2118762743
 30
0.0
 10
84.1691946267
 20
153.0866510232
 30
0.0
  0
SPLINE
  5
3D3
100
AcDbEntity
  8
0
100
AcDbSpline
 62
7
  6
CONTINUOUS
 70
0
 71
3
 72
13
 73
9
 74
0
 42
0.0000001
 43
0.0000001
 44
0.0000000001
 40
0.0
 40
0.0
 40
0.0
 40
0.0
 40
0.2870738714
 40
0.5535705122
 40
0.6755055605
 40
0.789314473
 40
0.8965741776
 40
1.0
 40
1.0
 40
1.0
 40
1.0
 10
81.4059586777
 20
188.2943259341
 30
0.0
 10
81.019477964
 20
188.2943259341
 30
0.0
 10
80.2704267681
 20
188.1936726271
 30
0.0
 10
79.4255223801
 20
187.8116894037
 30
0.0
 10
78.9070459269
 20
187.3712618684
 30
0.0
 10
78.6232176326
 20
187.0018610382
 30
0.0
 10
78.4464770383
 20
186.5973102741
 30
0.0
 10
78.4059586777
 20
186.3122453111
 30
0.0
 10
78.4059586777
 20
186.1730055905
 30
0.0
  0
SPLINE
  5
3D4
100
AcDbEntity
  8
0
100
AcDbSpline
 62
7
  6
CONTINUOUS
 70
0
 71
3
 72
19
 73
15
 74
0
 42
0.0000001
 43
0.0000001
 44
0.0000000001
 40
0.0
 40
0.0
 40
0.0
 40
0.0
 40
0.0517190809
 40
0.105339288
 40
0.1622479039
 40
0.2232156281
 40
0.356475455
 40
0.5
 40
0.643524545
 40
0.7767843719
 40
0.8377520961
 40
0.894660712
 40
0.9482809191
 40
1.0
 40
1.0
 40
1.0
 40
1.0
 10
109.9116419657
 20
160.1077774201
 30
0.0
 10
109.9116419657
 20
159.9455750849
 30
0.0
 10
109.9587829927
 20
159.6135385026
 30
0.0
 10
110.1647021019
 20
159.142347399
 30
0.0
 10
110.4952856879
 20
158.7120852742
 30
0.0
 10
111.0991676182
 20
158.1990615843
 30
0.0
 10
112.0839363587
 20
157.7541333025
 30
0.0
 10
113.4059586777
 20
157.5761775658
 30
0.0
 10
114.7279809968
 20
157.7541333025
 30
0.0
 10
115.7127497373
 20
158.1990615843
 30
0.0
 10
116.3166316676
 20
158.7120852742
 30
0.0
 10
116.6472152536
 20
159.142347399
 30
0.0
 10
116.8531343628
 20
159.6135385026
 30
0.0
 10
116.9002753898
 20
159.9455750849
 30
0.0
 10
116.9002753898
 20
160.1077774201
 30
0.0
  0
SPLINE
  5
3D5
100
AcDbEntity
  8
0
100
AcDbSpline
 62
7
  6
CONTINUOUS
 70
0
 71
3
 72
13
 73
9
 74
0
 42
0.0000001
 43
0.0000001
 44
0.0000000001
 40
0.0
 40
0.0
 40
0.0
 40
0.0
 40
0.1054743427
 40
0.2140737826
 40
0.3281182888
 40
0.4492129216
 40
0.7128045923
 40
1.0
 40
1.0
 40
1.0
 40
1.0
 10
116.9002753898
 20
160.1077774201
 30
0.0
 10
116.9002753898
 20
160.2513926856
 30
0.0
 10
116.8635856293
 20
160.5440539312
 30
0.0
 10
116.702385784
 20
160.9648240451
 30
0.0
 10
116.4410287457
 20
161.3573120934
 30
0.0
 10
115.9587613271
 20
161.8405882871
 30
0.0
 10
115.1516434172
 20
162.3046115844
 30
0.0
 10
114.4155539347
 20
162.4895755538
 30
0.0
 10
114.0276660924
 20
162.5391981808
 30
0.0
  0
SPLINE
  5
3D6
100
AcDbEntity
  8
0
100
AcDbSpline
 62
7
  6
CONTINUOUS
 70
0
 71
3
 72
13
 73
9
 74
0
 42
0.0000001
 43
0.0000001
 44
0.0000000001
 40
0.0
 40
0.0
 40
0.0
 40
0.0
 40
0.2871954077
 40
0.5507870784
 40
0.6718817112
 40
0.7859262174
 40
0.8945256573
 40
1.0
 40
1.0
 40
1.0
 40
1.0
 10
112.7842512631
 20
162.5391981808
 30
0.0
 10
112.3963634208
 20
162.4895755538
 30
0.0
 10
111.6602739383
 20
162.3046115844
 30
0.0
 10
110.8531560284
 20
161.8405882871
 30
0.0
 10
110.3708886098
 20
161.3573120934
 30
0.0
 10
110.1095315715
 20
160.9648240451
 30
0.0
 10
109.9483317262
 20
160.5440539312
 30
0.0
 10
109.9116419657
 20
160.2513926856
 30
0.0
 10
109.9116419657
 20
160.1077774201
 30
0.0
  0
SPLINE
  5
3D7
100
AcDbEntity
  8
0
100
AcDbSpline
 62
7
  6
CONTINUOUS
 70
0
 71
3
 72
9
 73
5
 74
0
 42
0.0000001
 43
0.0000001
 44
0.0000000001
 40
0.0
 40
0.0
 40
0.0
 40
0.0
 40
0.2534051132
 40
1.0
 40
1.0
 40
1.0
 40
1.0
 10
91.0488158121
 20
143.3229873886
 30
0.0
 10
91.0109210721
 20
143.2780442573
 30
0.0
 10
90.8639729662
 20
143.0985217747
 30
0.0
 10
90.7276325035
 20
142.9102737928
 30
0.0
 10
90.6328498386
 20
142.7653090478
 30
0.0
  0
SPLINE
  5
3D8
100
AcDbEntity
  8
0
100
AcDbSpline
 62
7
  6
CONTINUOUS
 70
0
 71
3
 72
13
 73
9
 74
0
 42
0.0000001
 43
0.0000001
 44
0.0000000001
 40
0.0
 40
0.0
 40
0.0
 40
0.0
 40
0.2574485242
 40
0.3902553069
 40
0.5223064628
 40
0.6511942572
 40
0.774823603
 40
1.0
 40
1.0
 40
1.0
 40
1.0
 10
101.9059568903
 20
145.3082451407
 30
0.0
 10
100.9785137531
 20
145.6868724416
 30
0.0
 10
99.4721513314
 20
146.0374509568
 30
0.0
 10
97.4370309276
 20
146.0915319033
 30
0.0
 10
95.9089880215
 20
145.9235556351
 30
0.0
 10
94.4533420565
 20
145.5509029264
 30
0.0
 10
92.7389357272
 20
144.8265410621
 30
0.0
 10
91.6162081284
 20
143.9906376051
 30
0.0
 10
91.0488158121
 20
143.3229873886
 30
0.0
  0
SPLINE
  5
3D9
100
AcDbEntity
  8
0
100
AcDbSpline
 62
7
  6
CONTINUOUS
 70
0
 71
3
 72
13
 73
9
 74
0
 42
0.0000001
 43
0.0000001
 44
0.0000000001
 40
0.0
 40
0.0
 40
0.0
 40
0.0
 40
0.2785844272
 40
0.5430510499
 40
0.6669508378
 40
0.7842007377
 40
0.8949196084
 40
1.0
 40
1.0
 40
1.0
 40
1.0
 10
113.4059586777
 20
156.686702046
 30
0.0
 10
113.8361143026
 20
156.686702046
 30
0.0
 10
114.6776151857
 20
156.7816758901
 30
0.0
 10
115.6564338826
 20
157.1396709058
 30
0.0
 10
116.3185722375
 20
157.5582472863
 30
0.0
 10
116.7288963084
 20
157.9182569353
 30
0.0
 10
117.0522282986
 20
158.3217061607
 30
0.0
 10
117.2068806499
 20
158.6200647118
 30
0.0
 10
117.2652303317
 20
158.7714617855
 30
0.0
  0
SPLINE
  5
3DA
100
AcDbEntity
  8
0
100
AcDbSpline
 62
7
  6
CONTINUOUS
 70
0
 71
3
 72
9
 73
5
 74
0
 42
0.0000001
 43
0.0000001
 44
0.0000000001
 40
0.0
 40
0.0
 40
0.0
 40
0.0
 40
0.2528311171
 40
1.0
 40
1.0
 40
1.0
 40
1.0
 10
117.3056702211
 20
158.885744866
 30
0.0
 10
117.3195248767
 20
158.9286918116
 30
0.0
 10
117.3689565029
 20
159.1002335397
 30
0.0
 10
117.3963019543
 20
159.2781951821
 30
0.0
 10
117.4032499727
 20
159.4113720092
 30
0.0
  0
SPLINE
  5
3DB
100
AcDbEntity
  8
0
100
AcDbSpline
 62
7
  6
CONTINUOUS
 70
0
 71
3
 72
9
 73
5
 74
0
 42
0.0000001
 43
0.0000001
 44
0.0000000001
 40
0.0
 40
0.0
 40
0.0
 40
0.0
 40
0.2564059849
 40
1.0
 40
1.0
 40
1.0
 40
1.0
 10
113.4059586777
 20
155.7672582875
 30
0.0
 10
113.2542535061
 20
155.7672582875
 30
0.0
 10
112.6632459945
 20
155.7962177636
 30
0.0
 10
112.0755200912
 20
155.9396294231
 30
0.0
 10
111.6725880456
 20
156.1162817372
 30
0.0
  0
SPLINE
  5
3DC
100
AcDbEntity
  8
0
100
AcDbSpline
 62
7
  6
CONTINUOUS
 70
0
 71
3
 72
13
 73
9
 74
0
 42
0.0000001
 43
0.0000001
 44
0.0000000001
 40
0.0
 40
0.0
 40
0.0
 40
0.0
 40
0.2870685863
 40
0.5535747875
 40
0.6755043683
 40
0.7893334285
 40
0.8965458294
 40
1.0
 40
1.0
 40
1.0
 40
1.0
 10
113.4059586777
 20
155.2655777642
 30
0.0
 10
113.9212578573
 20
155.2655777642
 30
0.0
 10
114.9200202844
 20
155.3997519444
 30
0.0
 10
116.0465026458
 20
155.9091310155
 30
0.0
 10
116.7379312152
 20
156.4963088973
 30
0.0
 10
117.1162180692
 20
156.9888762264
 30
0.0
 10
117.3520247021
 20
157.5282173121
 30
0.0
 10
117.4059040097
 20
157.9083004704
 30
0.0
 10
117.4059059689
 20
158.094004695
 30
0.0
  0
SPLINE
  5
3DD
100
AcDbEntity
  8
0
100
AcDbSpline
 62
7
  6
CONTINUOUS
 70
0
 71
3
 72
9
 73
5
 74
0
 42
0.0000001
 43
0.0000001
 44
0.0000000001
 40
0.0
 40
0.0
 40
0.0
 40
0.0
 40
0.2459525584
 40
1.0
 40
1.0
 40
1.0
 40
1.0
 10
106.9059591397
 20
143.3763931503
 30
0.0
 10
106.8137049638
 20
143.4140556437
 30
0.0
 10
106.435350031
 20
143.5591030395
 30
0.0
 10
106.0448936003
 20
143.6722271276
 30
0.0
 10
105.7470387233
 20
143.7401294335
 30
0.0
  0
SPLINE
  5
3DE
100
AcDbEntity
  8
0
100
AcDbSpline
 62
7
  6
CONTINUOUS
 70
0
 71
3
 72
13
 73
9
 74
0
 42
0.0000001
 43
0.0000001
 44
0.0000000001
 40
0.0
 40
0.0
 40
0.0
 40
0.0
 40
0.2870606458
 40
0.5535681455
 40
0.6755005469
 40
0.7893227287
 40
0.8965513091
 40
1.0
 40
1.0
 40
1.0
 40
1.0
 10
113.4059586777
 20
154.5584711574
 30
0.0
 10
112.8906726961
 20
154.5584711574
 30
0.0
 10
111.8919280154
 20
154.6926471305
 30
0.0
 10
110.7654205689
 20
155.2019948933
 30
0.0
 10
110.0740411116
 20
155.7892149351
 30
0.0
 10
109.6956706414
 20
156.2817483939
 30
0.0
 10
109.4598921052
 20
156.8211116914
 30
0.0
 10
109.4059586181
 20
157.2012054121
 30
0.0
 10
109.4059586181
 20
157.3869001809
 30
0.0
  0
SPLINE
  5
3DF
100
AcDbEntity
  8
0
100
AcDbSpline
 62
7
  6
CONTINUOUS
 70
0
 71
3
 72
9
 73
5
 74
0
 42
0.0000001
 43
0.0000001
 44
0.0000000001
 40
0.0
 40
0.0
 40
0.0
 40
0.0
 40
0.2558574851
 40
1.0
 40
1.0
 40
1.0
 40
1.0
 10
110.1117297663
 20
142.1770284882
 30
0.0
 10
110.0681791983
 20
142.177029333
 30
0.0
 10
109.8981205042
 20
142.1848678814
 30
0.0
 10
109.7289900839
 20
142.2238960369
 30
0.0
 10
109.6117220223
 20
142.2717694986
 30
0.0
  0
SPLINE
  5
3E0
100
AcDbEntity
  8
0
100
AcDbSpline
 62
7
  6
CONTINUOUS
 70
0
 71
3
 72
13
 73
9
 74
0
 42
0.0000001
 43
0.0000001
 44
0.0000000001
 40
0.0
 40
0.0
 40
0.0
 40
0.0
 40
0.1034257878
 40
0.2106854504
 40
0.3244943287
 40
0.4464293645
 40
0.7129260109
 40
1.0
 40
1.0
 40
1.0
 40
1.0
 10
120.4059586777
 20
186.1730086461
 30
0.0
 10
120.4059589614
 20
186.3122478358
 30
0.0
 10
120.3654405987
 20
186.5973117544
 30
0.0
 10
120.1887005599
 20
187.0018608648
 30
0.0
 10
119.9048735053
 20
187.3712604369
 30
0.0
 10
119.386398951
 20
187.8116865521
 30
0.0
 10
118.5414973736
 20
188.193667996
 30
0.0
 10
117.7924486382
 20
188.2943226187
 30
0.0
 10
117.4059691104
 20
188.2943216128
 30
0.0
  0
SPLINE
  5
3E1
100
AcDbEntity
  8
0
100
AcDbSpline
 62
7
  6
CONTINUOUS
 70
0
 71
3
 72
19
 73
15
 74
0
 42
0.0000001
 43
0.0000001
 44
0.0000000001
 40
0.0
 40
0.0
 40
0.0
 40
0.0
 40
0.0517190809
 40
0.105339288
 40
0.1622479039
 40
0.2232156281
 40
0.356475455
 40
0.5
 40
0.643524545
 40
0.7767843719
 40
0.8377520961
 40
0.894660712
 40
0.9482809191
 40
1.0
 40
1.0
 40
1.0
 40
1.0
 10
111.5950419657
 20
149.1476223117
 30
0.0
 10
111.5950419657
 20
148.9854199765
 30
0.0
 10
111.6421829927
 20
148.6533833942
 30
0.0
 10
111.8481021019
 20
148.1821922906
 30
0.0
 10
112.1786856879
 20
147.7519301658
 30
0.0
 10
112.7825676182
 20
147.2389064759
 30
0.0
 10
113.7673363587
 20
146.7939781941
 30
0.0
 10
115.0893586777
 20
146.6160224574
 30
0.0
 10
116.4113809968
 20
146.7939781941
 30
0.0
 10
117.3961497373
 20
147.2389064759
 30
0.0
 10
118.0000316676
 20
147.7519301658
 30
0.0
 10
118.3306152536
 20
148.1821922906
 30
0.0
 10
118.5365343628
 20
148.6533833942
 30
0.0
 10
118.5836753898
 20
148.9854199765
 30
0.0
 10
118.5836753898
 20
149.1476223117
 30
0.0
  0
SPLINE
  5
3E2
100
AcDbEntity
  8
0
100
AcDbSpline
 62
7
  6
CONTINUOUS
 70
0
 71
3
 72
13
 73
9
 74
0
 42
0.0000001
 43
0.0000001
 44
0.0000000001
 40
0.0
 40
0.0
 40
0.0
 40
0.0
 40
0.1054743427
 40
0.2140737826
 40
0.3281182888
 40
0.4492129216
 40
0.7128045923
 40
1.0
 40
1.0
 40
1.0
 40
1.0
 10
118.5836753898
 20
149.1476223117
 30
0.0
 10
118.5836753898
 20
149.2912375772
 30
0.0
 10
118.5469856293
 20
149.5838988228
 30
0.0
 10
118.385785784
 20
150.0046689367
 30
0.0
 10
118.1244287457
 20
150.397156985
 30
0.0
 10
117.6421613271
 20
150.8804331787
 30
0.0
 10
116.8350434172
 20
151.344456476
 30
0.0
 10
116.0989539347
 20
151.5294204454
 30
0.0
 10
115.7110660924
 20
151.5790430724
 30
0.0
  0
SPLINE
  5
3E3
100
AcDbEntity
  8
0
100
AcDbSpline
 62
7
  6
CONTINUOUS
 70
0
 71
3
 72
13
 73
9
 74
0
 42
0.0000001
 43
0.0000001
 44
0.0000000001
 40
0.0
 40
0.0
 40
0.0
 40
0.0
 40
0.2871954077
 40
0.5507870784
 40
0.6718817112
 40
0.7859262174
 40
0.8945256573
 40
1.0
 40
1.0
 40
1.0
 40
1.0
 10
114.4676512631
 20
151.5790430724
 30
0.0
 10
114.0797634208
 20
151.5294204454
 30
0.0
 10
113.3436739383
 20
151.344456476
 30
0.0
 10
112.5365560284
 20
150.8804331787
 30
0.0
 10
112.0542886098
 20
150.397156985
 30
0.0
 10
111.7929315715
 20
150.0046689367
 30
0.0
 10
111.6317317262
 20
149.5838988228
 30
0.0
 10
111.5950419657
 20
149.2912375772
 30
0.0
 10
111.5950419657
 20
149.1476223117
 30
0.0
  0
SPLINE
  5
3E4
100
AcDbEntity
  8
0
100
AcDbSpline
 62
7
  6
CONTINUOUS
 70
0
 71
3
 72
13
 73
9
 74
0
 42
0.0000001
 43
0.0000001
 44
0.0000000001
 40
0.0
 40
0.0
 40
0.0
 40
0.0
 40
0.2785844272
 40
0.5430510499
 40
0.6669508378
 40
0.7842007377
 40
0.8949196084
 40
1.0
 40
1.0
 40
1.0
 40
1.0
 10
115.0893586777
 20
145.7265469376
 30
0.0
 10
115.5195143026
 20
145.7265469376
 30
0.0
 10
116.3610151857
 20
145.8215207817
 30
0.0
 10
117.3398338826
 20
146.1795157974
 30
0.0
 10
118.0019722375
 20
146.5980921779
 30
0.0
 10
118.4122963084
 20
146.958101827
 30
0.0
 10
118.7356282986
 20
147.3615510523
 30
0.0
 10
118.8902806499
 20
147.6599096034
 30
0.0
 10
118.9486303317
 20
147.8113066771
 30
0.0
  0
SPLINE
  5
3E5
100
AcDbEntity
  8
0
100
AcDbSpline
 62
7
  6
CONTINUOUS
 70
0
 71
3
 72
9
 73
5
 74
0
 42
0.0000001
 43
0.0000001
 44
0.0000000001
 40
0.0
 40
0.0
 40
0.0
 40
0.0
 40
0.2528311171
 40
1.0
 40
1.0
 40
1.0
 40
1.0
 10
118.9890702211
 20
147.9255897576
 30
0.0
 10
119.0029248767
 20
147.9685367032
 30
0.0
 10
119.0523565029
 20
148.1400784313
 30
0.0
 10
119.0797019543
 20
148.3180400737
 30
0.0
 10
119.0866499727
 20
148.4512169009
 30
0.0
  0
SPLINE
  5
3E6
100
AcDbEntity
  8
0
100
AcDbSpline
 62
7
  6
CONTINUOUS
 70
0
 71
3
 72
9
 73
5
 74
0
 42
0.0000001
 43
0.0000001
 44
0.0000000001
 40
0.0
 40
0.0
 40
0.0
 40
0.0
 40
0.2564059849
 40
1.0
 40
1.0
 40
1.0
 40
1.0
 10
115.0893586777
 20
144.8071031791
 30
0.0
 10
114.9376535061
 20
144.8071031791
 30
0.0
 10
114.3466459945
 20
144.8360626552
 30
0.0
 10
113.7589200912
 20
144.9794743148
 30
0.0
 10
113.3559880456
 20
145.1561266288
 30
0.0
  0
SPLINE
  5
3E7
100
AcDbEntity
  8
0
100
AcDbSpline
 62
7
  6
CONTINUOUS
 70
0
 71
3
 72
13
 73
9
 74
0
 42
0.0000001
 43
0.0000001
 44
0.0000000001
 40
0.0
 40
0.0
 40
0.0
 40
0.0
 40
0.2870685863
 40
0.5535747875
 40
0.6755043683
 40
0.7893334285
 40
0.8965458294
 40
1.0
 40
1.0
 40
1.0
 40
1.0
 10
115.0893586777
 20
144.3054226558
 30
0.0
 10
115.6046578573
 20
144.3054226558
 30
0.0
 10
116.6034202844
 20
144.439596836
 30
0.0
 10
117.7299026458
 20
144.9489759071
 30
0.0
 10
118.4213312152
 20
145.5361537889
 30
0.0
 10
118.7996180692
 20
146.028721118
 30
0.0
 10
119.0354247021
 20
146.5680622037
 30
0.0
 10
119.0893040097
 20
146.9481453621
 30
0.0
 10
119.0893059689
 20
147.1338495866
 30
0.0
  0
SPLINE
  5
3E8
100
AcDbEntity
  8
0
100
AcDbSpline
 62
7
  6
CONTINUOUS
 70
0
 71
3
 72
13
 73
9
 74
0
 42
0.0000001
 43
0.0000001
 44
0.0000000001
 40
0.0
 40
0.0
 40
0.0
 40
0.0
 40
0.287068582
 40
0.553574785
 40
0.6755043677
 40
0.7893334296
 40
0.896545831
 40
1.0
 40
1.0
 40
1.0
 40
1.0
 10
87.4059586777
 20
193.2372131576
 30
0.0
 10
86.8906594921
 20
193.2372132022
 30
0.0
 10
85.8918970549
 20
193.3713874737
 30
0.0
 10
84.7654147054
 20
193.8807666407
 30
0.0
 10
84.0739861406
 20
194.4679445788
 30
0.0
 10
83.695699288
 20
194.9605119382
 30
0.0
 10
83.4598926551
 20
195.4998530414
 30
0.0
 10
83.4060133458
 20
195.8799362077
 30
0.0
 10
83.4060113866
 20
196.0656404344
 30
0.0
  0
SPLINE
  5
3E9
100
AcDbEntity
  8
0
100
AcDbSpline
 62
7
  6
CONTINUOUS
 70
0
 71
3
 72
13
 73
9
 74
0
 42
0.0000001
 43
0.0000001
 44
0.0000000001
 40
0.0
 40
0.0
 40
0.0
 40
0.0
 40
0.2785844272
 40
0.5430510499
 40
0.6669508378
 40
0.7842007377
 40
0.8949196084
 40
1.0
 40
1.0
 40
1.0
 40
1.0
 10
87.4059586777
 20
195.3725140448
 30
0.0
 10
87.8361143026
 20
195.3725140448
 30
0.0
 10
88.6776151857
 20
195.4674878888
 30
0.0
 10
89.6564338826
 20
195.8254829045
 30
0.0
 10
90.3185722375
 20
196.244059285
 30
0.0
 10
90.7288963084
 20
196.6040689341
 30
0.0
 10
91.0522282986
 20
197.0075181594
 30
0.0
 10
91.2068806499
 20
197.3058767105
 30
0.0
 10
91.2652303317
 20
197.4572737842
 30
0.0
  0
SPLINE
  5
3EA
100
AcDbEntity
  8
0
100
AcDbSpline
 62
7
  6
CONTINUOUS
 70
0
 71
3
 72
9
 73
5
 74
0
 42
0.0000001
 43
0.0000001
 44
0.0000000001
 40
0.0
 40
0.0
 40
0.0
 40
0.0
 40
0.2528311171
 40
1.0
 40
1.0
 40
1.0
 40
1.0
 10
91.3056702211
 20
197.5715568647
 30
0.0
 10
91.3195248767
 20
197.6145038103
 30
0.0
 10
91.3689565029
 20
197.7860455384
 30
0.0
 10
91.3963019543
 20
197.9640071808
 30
0.0
 10
91.4032499727
 20
198.097184008
 30
0.0
  0
SPLINE
  5
3EB
100
AcDbEntity
  8
0
100
AcDbSpline
 62
7
  6
CONTINUOUS
 70
0
 71
3
 72
13
 73
9
 74
0
 42
0.0000001
 43
0.0000001
 44
0.0000000001
 40
0.0
 40
0.0
 40
0.0
 40
0.0
 40
0.1034515788
 40
0.2106607524
 40
0.3244872747
 40
0.4464175357
 40
0.7129293771
 40
1.0
 40
1.0
 40
1.0
 40
1.0
 10
96.4060113866
 20
157.7404513025
 30
0.0
 10
96.4060094275
 20
157.5547518274
 30
0.0
 10
96.459895108
 20
157.1746796117
 30
0.0
 10
96.6956893514
 20
156.6353523265
 30
0.0
 10
97.073958472
 20
156.1427829587
 30
0.0
 10
97.7653866403
 20
155.555593746
 30
0.0
 10
98.8918805197
 20
155.0462030212
 30
0.0
 10
99.8906561118
 20
154.9120243736
 30
0.0
 10
100.4059586777
 20
154.9120243736
 30
0.0
  0
SPLINE
  5
3EC
100
AcDbEntity
  8
0
100
AcDbSpline
 62
7
  6
CONTINUOUS
 70
0
 71
3
 72
13
 73
9
 74
0
 42
0.0000001
 43
0.0000001
 44
0.0000000001
 40
0.0
 40
0.0
 40
0.0
 40
0.0
 40
0.1034515788
 40
0.2106607524
 40
0.3244872747
 40
0.4464175357
 40
0.7129293771
 40
1.0
 40
1.0
 40
1.0
 40
1.0
 10
109.4060113866
 20
158.0940046931
 30
0.0
 10
109.4060094275
 20
157.908305218
 30
0.0
 10
109.459895108
 20
157.5282330023
 30
0.0
 10
109.6956893514
 20
156.9889057171
 30
0.0
 10
110.073958472
 20
156.4963363493
 30
0.0
 10
110.7653866403
 20
155.9091471366
 30
0.0
 10
111.8918805197
 20
155.3997564118
 30
0.0
 10
112.8906561118
 20
155.2655777642
 30
0.0
 10
113.4059586777
 20
155.2655777642
 30
0.0
  0
SPLINE
  5
3ED
100
AcDbEntity
  8
0
100
AcDbSpline
 62
7
  6
CONTINUOUS
 70
0
 71
3
 72
11
 73
7
 74
0
 42
0.0000001
 43
0.0000001
 44
0.0000000001
 40
0.0
 40
0.0
 40
0.0
 40
0.0
 40
0.2754514815
 40
0.5367787945
 40
0.7784969756
 40
1.0
 40
1.0
 40
1.0
 40
1.0
 10
117.6628626643
 20
152.4171042003
 30
0.0
 10
117.8286223678
 20
152.4528192104
 30
0.0
 10
118.1439165865
 20
152.567800264
 30
0.0
 10
118.5353237139
 20
152.8555159932
 30
0.0
 10
118.8046837754
 20
153.2202836463
 30
0.0
 10
118.8854003265
 20
153.5027539612
 30
0.0
 10
118.893692396
 20
153.6388554372
 30
0.0
  0
SPLINE
  5
3EE
100
AcDbEntity
  8
0
100
AcDbSpline
 62
7
  6
CONTINUOUS
 70
0
 71
3
 72
13
 73
9
 74
0
 42
0.0000001
 43
0.0000001
 44
0.0000000001
 40
0.0
 40
0.0
 40
0.0
 40
0.0
 40
0.2870686002
 40
0.5535747957
 40
0.6755043702
 40
0.789333425
 40
0.8965458244
 40
1.0
 40
1.0
 40
1.0
 40
1.0
 10
115.0893586777
 20
143.5912436403
 30
0.0
 10
114.5740595181
 20
143.5912434959
 30
0.0
 10
113.5752971234
 20
143.7254173803
 30
0.0
 10
112.4488147234
 20
144.2347961408
 30
0.0
 10
111.7573861394
 20
144.8219738401
 30
0.0
 10
111.3790992807
 20
145.314541071
 30
0.0
 10
111.1432926479
 20
145.8538821
 30
0.0
 10
111.0894133458
 20
146.2339652328
 30
0.0
 10
111.0894113866
 20
146.4196694502
 30
0.0
  0
SPLINE
  5
3EF
100
AcDbEntity
  8
0
100
AcDbSpline
 62
7
  6
CONTINUOUS
 70
0
 71
3
 72
13
 73
9
 74
0
 42
0.0000001
 43
0.0000001
 44
0.0000000001
 40
0.0
 40
0.0
 40
0.0
 40
0.0
 40
0.1054743427
 40
0.2140737826
 40
0.3281182888
 40
0.4492129216
 40
0.7128045923
 40
1.0
 40
1.0
 40
1.0
 40
1.0
 10
90.9002753898
 20
198.7935894188
 30
0.0
 10
90.9002753898
 20
198.9372046844
 30
0.0
 10
90.8635856293
 20
199.2298659299
 30
0.0
 10
90.702385784
 20
199.6506360438
 30
0.0
 10
90.4410287457
 20
200.0431240921
 30
0.0
 10
89.9587613271
 20
200.5264002858
 30
0.0
 10
89.1516434172
 20
200.9904235831
 30
0.0
 10
88.4155539347
 20
201.1753875525
 30
0.0
 10
88.0276660924
 20
201.2250101795
 30
0.0
  0
SPLINE
  5
3F0
100
AcDbEntity
  8
0
100
AcDbSpline
 62
7
  6
CONTINUOUS
 70
0
 71
3
 72
13
 73
9
 74
0
 42
0.0000001
 43
0.0000001
 44
0.0000000001
 40
0.0
 40
0.0
 40
0.0
 40
0.0
 40
0.2871954077
 40
0.5507870784
 40
0.6718817112
 40
0.7859262174
 40
0.8945256573
 40
1.0
 40
1.0
 40
1.0
 40
1.0
 10
86.7842512631
 20
201.2250101795
 30
0.0
 10
86.3963634208
 20
201.1753875525
 30
0.0
 10
85.6602739383
 20
200.9904235831
 30
0.0
 10
84.8531560284
 20
200.5264002858
 30
0.0
 10
84.3708886098
 20
200.0431240921
 30
0.0
 10
84.1095315715
 20
199.6506360438
 30
0.0
 10
83.9483317262
 20
199.2298659299
 30
0.0
 10
83.9116419657
 20
198.9372046844
 30
0.0
 10
83.9116419657
 20
198.7935894188
 30
0.0
  0
SPLINE
  5
3F1
100
AcDbEntity
  8
0
100
AcDbSpline
 62
7
  6
CONTINUOUS
 70
0
 71
3
 72
11
 73
7
 74
0
 42
0.0000001
 43
0.0000001
 44
0.0000000001
 40
0.0
 40
0.0
 40
0.0
 40
0.0
 40
0.2308729213
 40
0.4874095887
 40
0.7510118586
 40
1.0
 40
1.0
 40
1.0
 40
1.0
 10
96.7513177672
 20
138.2752855666
 30
0.0
 10
96.6671413535
 20
138.1893895231
 30
0.0
 10
96.4461735173
 20
138.0496728566
 30
0.0
 10
96.0603912182
 20
137.957884054
 30
0.0
 10
95.6551133984
 20
137.9779464492
 30
0.0
 10
95.3984818264
 20
138.0704843851
 30
0.0
 10
95.2869365579
 20
138.1366680374
 30
0.0
  0
SPLINE
  5
3F2
100
AcDbEntity
  8
0
100
AcDbSpline
 62
7
  6
CONTINUOUS
 70
0
 71
3
 72
13
 73
9
 74
0
 42
0.0000001
 43
0.0000001
 44
0.0000000001
 40
0.0
 40
0.0
 40
0.0
 40
0.0
 40
0.103448686
 40
0.2106772725
 40
0.3244994642
 40
0.4464318712
 40
0.7129393692
 40
1.0
 40
1.0
 40
1.0
 40
1.0
 10
91.4059584021
 20
196.0656397413
 30
0.0
 10
91.4059584021
 20
195.8799450593
 30
0.0
 10
91.3520247318
 20
195.4998514943
 30
0.0
 10
91.1162458176
 20
194.9604886133
 30
0.0
 10
90.7378751813
 20
194.4679555769
 30
0.0
 10
90.0464957332
 20
193.8807360837
 30
0.0
 10
88.9199886547
 20
193.3713888794
 30
0.0
 10
87.9212444163
 20
193.237213113
 30
0.0
 10
87.4059586777
 20
193.2372131576
 30
0.0
  0
SPLINE
  5
3F3
100
AcDbEntity
  8
0
100
AcDbSpline
 62
7
  6
CONTINUOUS
 70
0
 71
3
 72
9
 73
5
 74
0
 42
0.0000001
 43
0.0000001
 44
0.0000000001
 40
0.0
 40
0.0
 40
0.0
 40
0.0
 40
0.2481077343
 40
1.0
 40
1.0
 40
1.0
 40
1.0
 10
111.0920811135
 20
148.4509540492
 30
0.0
 10
111.0943930217
 20
148.4067521076
 30
0.0
 10
111.1096012429
 20
148.2289409399
 30
0.0
 10
111.1484644198
 20
148.053248781
 30
0.0
 10
111.1896471343
 20
147.9255897576
 30
0.0
  0
SPLINE
  5
3F4
100
AcDbEntity
  8
0
100
AcDbSpline
 62
7
  6
CONTINUOUS
 70
0
 71
3
 72
13
 73
9
 74
0
 42
0.0000001
 43
0.0000001
 44
0.0000000001
 40
0.0
 40
0.0
 40
0.0
 40
0.0
 40
0.1050796152
 40
0.2157975783
 40
0.3330467831
 40
0.4569462713
 40
0.7214135964
 40
1.0
 40
1.0
 40
1.0
 40
1.0
 10
111.2300263984
 20
147.8114639969
 30
0.0
 10
111.2883661903
 20
147.6600581203
 30
0.0
 10
111.4430027339
 20
147.3616801772
 30
0.0
 10
111.7663230297
 20
146.9582018444
 30
0.0
 10
112.1766456386
 20
146.5981645764
 30
0.0
 10
112.8387956785
 20
146.1795539417
 30
0.0
 10
113.8176488078
 20
145.8215287079
 30
0.0
 10
114.6591844741
 20
145.7265469376
 30
0.0
 10
115.0893586777
 20
145.7265469376
 30
0.0
  0
SPLINE
  5
3F5
100
AcDbEntity
  8
0
100
AcDbSpline
 62
7
  6
CONTINUOUS
 70
0
 71
3
 72
12
 73
8
 74
0
 42
0.0000001
 43
0.0000001
 44
0.0000000001
 40
0.0
 40
0.0
 40
0.0
 40
0.0
 40
0.2184558636
 40
0.3423423753
 40
0.4735282915
 40
0.7434856203
 40
1.0
 40
1.0
 40
1.0
 40
1.0
 10
87.4412693698
 20
136.6184194277
 30
0.0
 10
87.3825993599
 20
136.504438158
 30
0.0
 10
87.2306397238
 20
136.3557710222
 30
0.0
 10
86.981227323
 20
136.2323482836
 30
0.0
 10
86.6827401452
 20
136.1487066464
 30
0.0
 10
86.2898200767
 20
136.1427440585
 30
0.0
 10
85.9882446963
 20
136.241780967
 30
0.0
 10
85.8587888657
 20
136.3185922613
 30
0.0
  0
SPLINE
  5
3F6
100
AcDbEntity
  8
0
100
AcDbSpline
 62
7
  6
CONTINUOUS
 70
0
 71
3
 72
9
 73
5
 74
0
 42
0.0000001
 43
0.0000001
 44
0.0000000001
 40
0.0
 40
0.0
 40
0.0
 40
0.0
 40
0.2481077343
 40
1.0
 40
1.0
 40
1.0
 40
1.0
 10
96.4086811135
 20
159.057555767
 30
0.0
 10
96.4109930217
 20
159.0133538254
 30
0.0
 10
96.4262012429
 20
158.8355426577
 30
0.0
 10
96.4650644198
 20
158.6598504988
 30
0.0
 10
96.5062471343
 20
158.5321914754
 30
0.0
  0
SPLINE
  5
3F7
100
AcDbEntity
  8
0
100
AcDbSpline
 62
7
  6
CONTINUOUS
 70
0
 71
3
 72
13
 73
9
 74
0
 42
0.0000001
 43
0.0000001
 44
0.0000000001
 40
0.0
 40
0.0
 40
0.0
 40
0.0
 40
0.1050796152
 40
0.2157975783
 40
0.3330467831
 40
0.4569462713
 40
0.7214135964
 40
1.0
 40
1.0
 40
1.0
 40
1.0
 10
96.5466263984
 20
158.4180657147
 30
0.0
 10
96.6049661903
 20
158.266659838
 30
0.0
 10
96.7596027339
 20
157.968281895
 30
0.0
 10
97.0829230297
 20
157.5648035622
 30
0.0
 10
97.4932456386
 20
157.2047662942
 30
0.0
 10
98.1553956785
 20
156.7861556595
 30
0.0
 10
99.1342488078
 20
156.4281304257
 30
0.0
 10
99.9757844741
 20
156.3331486554
 30
0.0
 10
100.4059586777
 20
156.3331486554
 30
0.0
  0
SPLINE
  5
3F8
100
AcDbEntity
  8
0
100
AcDbSpline
 62
7
  6
CONTINUOUS
 70
0
 71
3
 72
13
 73
9
 74
0
 42
0.0000001
 43
0.0000001
 44
0.0000000001
 40
0.0
 40
0.0
 40
0.0
 40
0.0
 40
0.1034515788
 40
0.2106607524
 40
0.3244872747
 40
0.4464175357
 40
0.7129293771
 40
1.0
 40
1.0
 40
1.0
 40
1.0
 10
83.4060113866
 20
196.7798166919
 30
0.0
 10
83.4060094275
 20
196.5941172167
 30
0.0
 10
83.459895108
 20
196.214045001
 30
0.0
 10
83.6956893514
 20
195.6747177158
 30
0.0
 10
84.073958472
 20
195.182148348
 30
0.0
 10
84.7653866403
 20
194.5949591353
 30
0.0
 10
85.8918805197
 20
194.0855684105
 30
0.0
 10
86.8906561118
 20
193.951389763
 30
0.0
 10
87.4059586777
 20
193.951389763
 30
0.0
  0
SPLINE
  5
3F9
100
AcDbEntity
  8
0
100
AcDbSpline
 62
7
  6
CONTINUOUS
 70
0
 71
3
 72
9
 73
5
 74
0
 42
0.0000001
 43
0.0000001
 44
0.0000000001
 40
0.0
 40
0.0
 40
0.0
 40
0.0
 40
0.2432563317
 40
1.0
 40
1.0
 40
1.0
 40
1.0
 10
92.7001873118
 20
191.9248043988
 30
0.0
 10
92.6618492412
 20
191.909152947
 30
0.0
 10
92.5008622535
 20
191.8532806129
 30
0.0
 10
92.3290087933
 20
191.8300700533
 30
0.0
 10
92.2001873118
 20
191.8300700533
 30
0.0
  0
SPLINE
  5
3FA
100
AcDbEntity
  8
0
100
AcDbSpline
 62
7
  6
CONTINUOUS
 70
0
 71
3
 72
14
 73
10
 74
0
 42
0.0000001
 43
0.0000001
 44
0.0000000001
 40
0.0
 40
0.0
 40
0.0
 40
0.0
 40
0.1065301716
 40
0.2211178836
 40
0.3435056404
 40
0.4722634343
 40
0.6051417645
 40
0.7394138714
 40
1.0
 40
1.0
 40
1.0
 40
1.0
 10
103.8603135769
 20
191.1229650588
 30
0.0
 10
103.6810477047
 20
191.3995215991
 30
0.0
 10
103.233145647
 20
191.9264362928
 30
0.0
 10
102.3816505453
 20
192.5732404607
 30
0.0
 10
101.3639580016
 20
193.0812657029
 30
0.0
 10
100.2232917331
 20
193.430347007
 30
0.0
 10
99.0061340149
 20
193.6069079829
 30
0.0
 10
97.3703281123
 20
193.6033291564
 30
0.0
 10
96.1523388968
 20
193.3341422703
 30
0.0
 10
95.4059586517
 20
193.0294358657
 30
0.0
  0
SPLINE
  5
3FB
100
AcDbEntity
  8
0
100
AcDbSpline
 62
7
  6
CONTINUOUS
 70
0
 71
3
 72
9
 73
5
 74
0
 42
0.0000001
 43
0.0000001
 44
0.0000000001
 40
0.0
 40
0.0
 40
0.0
 40
0.0
 40
0.2424122914
 40
1.0
 40
1.0
 40
1.0
 40
1.0
 10
89.1430643983
 20
194.803733463
 30
0.0
 10
89.0114518671
 20
194.7458597095
 30
0.0
 10
88.4548938101
 20
194.5387623446
 30
0.0
 10
87.855284564
 20
194.4530702862
 30
0.0
 10
87.4059586777
 20
194.4530702862
 30
0.0
  0
SPLINE
  5
3FC
100
AcDbEntity
  8
0
100
AcDbSpline
 62
7
  6
CONTINUOUS
 70
0
 71
3
 72
9
 73
5
 74
0
 42
0.0000001
 43
0.0000001
 44
0.0000000001
 40
0.0
 40
0.0
 40
0.0
 40
0.0
 40
0.2424122914
 40
1.0
 40
1.0
 40
1.0
 40
1.0
 10
102.1430643983
 20
155.7643680737
 30
0.0
 10
102.0114518671
 20
155.7064943202
 30
0.0
 10
101.4548938101
 20
155.4993969553
 30
0.0
 10
100.855284564
 20
155.4137048969
 30
0.0
 10
100.4059586777
 20
155.4137048969
 30
0.0
  0
SPLINE
  5
3FD
100
AcDbEntity
  8
0
100
AcDbSpline
 62
7
  6
CONTINUOUS
 70
0
 71
3
 72
9
 73
5
 74
0
 42
0.0000001
 43
0.0000001
 44
0.0000000001
 40
0.0
 40
0.0
 40
0.0
 40
0.0
 40
0.2481077343
 40
1.0
 40
1.0
 40
1.0
 40
1.0
 10
83.4086811135
 20
198.0969211563
 30
0.0
 10
83.4109930217
 20
198.0527192147
 30
0.0
 10
83.4262012429
 20
197.874908047
 30
0.0
 10
83.4650644198
 20
197.6992158881
 30
0.0
 10
83.5062471343
 20
197.5715568647
 30
0.0
  0
SPLINE
  5
3FE
100
AcDbEntity
  8
0
100
AcDbSpline
 62
7
  6
CONTINUOUS
 70
0
 71
3
 72
13
 73
9
 74
0
 42
0.0000001
 43
0.0000001
 44
0.0000000001
 40
0.0
 40
0.0
 40
0.0
 40
0.0
 40
0.1050803916
 40
0.2157992623
 40
0.3330491622
 40
0.4569489501
 40
0.7214155728
 40
1.0
 40
1.0
 40
1.0
 40
1.0
 10
83.5466870238
 20
197.4572737842
 30
0.0
 10
83.6050367056
 20
197.3058767105
 30
0.0
 10
83.7596890568
 20
197.0075181594
 30
0.0
 10
84.0830210471
 20
196.6040689341
 30
0.0
 10
84.493345118
 20
196.244059285
 30
0.0
 10
85.1554834729
 20
195.8254829045
 30
0.0
 10
86.1343021698
 20
195.4674878888
 30
0.0
 10
86.9758030529
 20
195.3725140448
 30
0.0
 10
87.4059586777
 20
195.3725140448
 30
0.0
  0
SPLINE
  5
3FF
100
AcDbEntity
  8
0
100
AcDbSpline
 62
7
  6
CONTINUOUS
 70
0
 71
3
 72
9
 73
5
 74
0
 42
0.0000001
 43
0.0000001
 44
0.0000000001
 40
0.0
 40
0.0
 40
0.0
 40
0.0
 40
0.2424122914
 40
1.0
 40
1.0
 40
1.0
 40
1.0
 10
116.8264643983
 20
145.1577663559
 30
0.0
 10
116.6948518671
 20
145.0998926024
 30
0.0
 10
116.1382938101
 20
144.8927952375
 30
0.0
 10
115.538684564
 20
144.8071031791
 30
0.0
 10
115.0893586777
 20
144.8071031791
 30
0.0
  0
SPLINE
  5
400
100
AcDbEntity
  8
0
100
AcDbSpline
 62
7
  6
CONTINUOUS
 70
0
 71
3
 72
13
 73
9
 74
0
 42
0.0000001
 43
0.0000001
 44
0.0000000001
 40
0.0
 40
0.0
 40
0.0
 40
0.0
 40
0.1034515788
 40
0.2106607524
 40
0.3244872747
 40
0.4464175357
 40
0.7129293771
 40
1.0
 40
1.0
 40
1.0
 40
1.0
 10
111.0894113866
 20
147.1338495847
 30
0.0
 10
111.0894094275
 20
146.9481501096
 30
0.0
 10
111.143295108
 20
146.5680778939
 30
0.0
 10
111.3790893514
 20
146.0287506087
 30
0.0
 10
111.757358472
 20
145.5361812409
 30
0.0
 10
112.4487866403
 20
144.9489920282
 30
0.0
 10
113.5752805197
 20
144.4396013034
 30
0.0
 10
114.5740561118
 20
144.3054226558
 30
0.0
 10
115.0893586777
 20
144.3054226558
 30
0.0
  0
SPLINE
  5
401
100
AcDbEntity
  8
0
100
AcDbSpline
 62
7
  6
CONTINUOUS
 70
0
 71
3
 72
9
 73
5
 74
0
 42
0.0000001
 43
0.0000001
 44
0.0000000001
 40
0.0
 40
0.0
 40
0.0
 40
0.0
 40
0.2481077343
 40
1.0
 40
1.0
 40
1.0
 40
1.0
 10
109.4086811135
 20
159.4111091576
 30
0.0
 10
109.4109930217
 20
159.366907216
 30
0.0
 10
109.4262012429
 20
159.1890960483
 30
0.0
 10
109.4650644198
 20
159.0134038894
 30
0.0
 10
109.5062471343
 20
158.885744866
 30
0.0
  0
SPLINE
  5
402
100
AcDbEntity
  8
0
100
AcDbSpline
 62
7
  6
CONTINUOUS
 70
0
 71
3
 72
13
 73
9
 74
0
 42
0.0000001
 43
0.0000001
 44
0.0000000001
 40
0.0
 40
0.0
 40
0.0
 40
0.0
 40
0.1050796152
 40
0.2157975783
 40
0.3330467831
 40
0.4569462713
 40
0.7214135964
 40
1.0
 40
1.0
 40
1.0
 40
1.0
 10
109.5466263984
 20
158.7716191053
 30
0.0
 10
109.6049661903
 20
158.6202132286
 30
0.0
 10
109.7596027339
 20
158.3218352856
 30
0.0
 10
110.0829230297
 20
157.9183569528
 30
0.0
 10
110.4932456386
 20
157.5583196848
 30
0.0
 10
111.1553956785
 20
157.13970905
 30
0.0
 10
112.1342488078
 20
156.7816838163
 30
0.0
 10
112.9757844741
 20
156.686702046
 30
0.0
 10
113.4059586777
 20
156.686702046
 30
0.0
  0
SPLINE
  5
403
100
AcDbEntity
  8
0
100
AcDbSpline
 62
7
  6
CONTINUOUS
 70
0
 71
3
 72
13
 73
9
 74
0
 42
0.0000001
 43
0.0000001
 44
0.0000000001
 40
0.0
 40
0.0
 40
0.0
 40
0.0
 40
0.1034515788
 40
0.2106607524
 40
0.3244872747
 40
0.4464175357
 40
0.7129293771
 40
1.0
 40
1.0
 40
1.0
 40
1.0
 10
104.4059059689
 20
157.0262746175
 30
0.0
 10
104.405907928
 20
156.8405751423
 30
0.0
 10
104.3520222475
 20
156.4605029266
 30
0.0
 10
104.1162280041
 20
155.9211756414
 30
0.0
 10
103.7379588835
 20
155.4286062736
 30
0.0
 10
103.0465307152
 20
154.8414170609
 30
0.0
 10
101.9200368358
 20
154.3320263361
 30
0.0
 10
100.9212612436
 20
154.1978476886
 30
0.0
 10
100.4059586777
 20
154.1978476886
 30
0.0
  0
SPLINE
  5
404
100
AcDbEntity
  8
0
100
AcDbSpline
 62
7
  6
CONTINUOUS
 70
0
 71
3
 72
13
 73
9
 74
0
 42
0.0000001
 43
0.0000001
 44
0.0000000001
 40
0.0
 40
0.0
 40
0.0
 40
0.0
 40
0.1034515738
 40
0.2106607489
 40
0.3244872766
 40
0.4464175439
 40
0.712929391
 40
1.0
 40
1.0
 40
1.0
 40
1.0
 10
119.0893059689
 20
146.4196716901
 30
0.0
 10
119.089307928
 20
146.2339722078
 30
0.0
 10
119.035422242
 20
145.8538999664
 30
0.0
 10
118.7996279986
 20
145.3145726246
 30
0.0
 10
118.4213588826
 20
144.8220031586
 30
0.0
 10
117.7299307289
 20
144.2348137635
 30
0.0
 10
116.6034368881
 20
143.725422728
 30
0.0
 10
115.6046612636
 20
143.5912437847
 30
0.0
 10
115.0893586777
 20
143.5912436403
 30
0.0
  0
SPLINE
  5
405
100
AcDbEntity
  8
0
100
AcDbSpline
 62
7
  6
CONTINUOUS
 70
0
 71
3
 72
9
 73
5
 74
0
 42
0.0000001
 43
0.0000001
 44
0.0000000001
 40
0.0
 40
0.0
 40
0.0
 40
0.0
 40
0.2424122914
 40
1.0
 40
1.0
 40
1.0
 40
1.0
 10
115.1430643983
 20
156.1179214643
 30
0.0
 10
115.0114518671
 20
156.0600477108
 30
0.0
 10
114.4548938101
 20
155.8529503459
 30
0.0
 10
113.855284564
 20
155.7672582875
 30
0.0
 10
113.4059586777
 20
155.7672582875
 30
0.0
  0
SPLINE
  5
406
100
AcDbEntity
  8
0
100
AcDbSpline
 62
7
  6
CONTINUOUS
 70
0
 71
3
 72
19
 73
15
 74
0
 42
0.0000001
 43
0.0000001
 44
0.0000000001
 40
0.0
 40
0.0
 40
0.0
 40
0.0
 40
0.0517190809
 40
0.105339288
 40
0.1622479039
 40
0.2232156281
 40
0.356475455
 40
0.5
 40
0.643524545
 40
0.7767843719
 40
0.8377520961
 40
0.894660712
 40
0.9482809191
 40
1.0
 40
1.0
 40
1.0
 40
1.0
 10
83.9116419657
 20
198.7935894188
 30
0.0
 10
83.9116419657
 20
198.6313870837
 30
0.0
 10
83.9587829927
 20
198.2993505013
 30
0.0
 10
84.1647021019
 20
197.8281593977
 30
0.0
 10
84.4952856879
 20
197.3978972729
 30
0.0
 10
85.0991676182
 20
196.884873583
 30
0.0
 10
86.0839363587
 20
196.4399453012
 30
0.0
 10
87.4059586777
 20
196.2619895645
 30
0.0
 10
88.7279809968
 20
196.4399453012
 30
0.0
 10
89.7127497373
 20
196.884873583
 30
0.0
 10
90.3166316676
 20
197.3978972729
 30
0.0
 10
90.6472152536
 20
197.8281593977
 30
0.0
 10
90.8531343628
 20
198.2993505013
 30
0.0
 10
90.9002753898
 20
198.6313870837
 30
0.0
 10
90.9002753898
 20
198.7935894188
 30
0.0
  0
SPLINE
  5
407
100
AcDbEntity
  8
0
100
AcDbSpline
 62
7
  6
CONTINUOUS
 70
0
 71
3
 72
13
 73
9
 74
0
 42
0.0000001
 43
0.0000001
 44
0.0000000001
 40
0.0
 40
0.0
 40
0.0
 40
0.0
 40
0.2870685863
 40
0.5535747875
 40
0.6755043683
 40
0.7893334285
 40
0.8965458294
 40
1.0
 40
1.0
 40
1.0
 40
1.0
 10
87.4059586777
 20
193.951389763
 30
0.0
 10
87.9212578573
 20
193.951389763
 30
0.0
 10
88.9200202844
 20
194.0855639431
 30
0.0
 10
90.0465026458
 20
194.5949430142
 30
0.0
 10
90.7379312152
 20
195.182120896
 30
0.0
 10
91.1162180692
 20
195.6746882251
 30
0.0
 10
91.3520247021
 20
196.2140293108
 30
0.0
 10
91.4059040097
 20
196.5941124692
 30
0.0
 10
91.4059059689
 20
196.7798166937
 30
0.0
  0
SPLINE
  5
408
100
AcDbEntity
  8
0
100
AcDbSpline
 62
7
  6
CONTINUOUS
 70
0
 71
3
 72
13
 73
9
 74
0
 42
0.0000001
 43
0.0000001
 44
0.0000000001
 40
0.0
 40
0.0
 40
0.0
 40
0.0
 40
0.1034515788
 40
0.2106607524
 40
0.3244872747
 40
0.4464175357
 40
0.7129293771
 40
1.0
 40
1.0
 40
1.0
 40
1.0
 10
117.4059059689
 20
157.3868980863
 30
0.0
 10
117.405907928
 20
157.2011986112
 30
0.0
 10
117.3520222475
 20
156.8211263955
 30
0.0
 10
117.1162280041
 20
156.2817991103
 30
0.0
 10
116.7379588835
 20
155.7892297425
 30
0.0
 10
116.0465307152
 20
155.2020405298
 30
0.0
 10
114.9200368358
 20
154.692649805
 30
0.0
 10
113.9212612436
 20
154.5584711574
 30
0.0
 10
113.4059586777
 20
154.5584711574
 30
0.0
  0
SPLINE
  5
409
100
AcDbEntity
  8
0
100
AcDbSpline
 62
7
  6
CONTINUOUS
 70
0
 71
3
 72
9
 73
5
 74
0
 42
0.0000001
 43
0.0000001
 44
0.0000000001
 40
0.0
 40
0.0
 40
0.0
 40
0.0
 40
0.3064778142
 40
1.0
 40
1.0
 40
1.0
 40
1.0
 10
107.8760151158
 20
202.4417963307
 30
0.0
 10
107.8762032719
 20
202.4699687396
 30
0.0
 10
107.8768682312
 20
202.5618914109
 30
0.0
 10
107.8776618541
 20
202.6538140634
 30
0.0
 10
107.8785459645
 20
202.7175601047
 30
0.0
  0
SPLINE
  5
40A
100
AcDbEntity
  8
0
100
AcDbSpline
 62
7
  6
CONTINUOUS
 70
0
 71
3
 72
14
 73
10
 74
0
 42
0.0000001
 43
0.0000001
 44
0.0000000001
 40
0.0
 40
0.0
 40
0.0
 40
0.0
 40
0.4355538686
 40
0.6072580758
 40
0.7480666204
 40
0.8578465709
 40
0.9364705211
 40
0.9838312737
 40
1.0
 40
1.0
 40
1.0
 40
1.0
 10
107.8785459645
 20
202.7175601047
 30
0.0
 10
107.8787529804
 20
202.7324863444
 30
0.0
 10
107.8790552167
 20
202.7533217192
 30
0.0
 10
107.879603867
 20
202.7788994331
 30
0.0
 10
107.8798890405
 20
202.7934830241
 30
0.0
 10
107.8804184258
 20
202.8044641116
 30
0.0
 10
107.8803531635
 20
202.8132109823
 30
0.0
 10
107.8813815587
 20
202.8168849807
 30
0.0
 10
107.8808900781
 20
202.8202961823
 30
0.0
 10
107.8814442265
 20
202.8202961823
 30
0.0
  0
SPLINE
  5
40B
100
AcDbEntity
  8
0
100
AcDbSpline
 62
7
  6
CONTINUOUS
 70
0
 71
3
 72
9
 73
5
 74
0
 42
0.0000001
 43
0.0000001
 44
0.0000000001
 40
0.0
 40
0.0
 40
0.0
 40
0.0
 40
0.2564059849
 40
1.0
 40
1.0
 40
1.0
 40
1.0
 10
87.4059586777
 20
194.4530702862
 30
0.0
 10
87.2542535061
 20
194.4530702862
 30
0.0
 10
86.6632459945
 20
194.4820297623
 30
0.0
 10
86.0755200912
 20
194.6254414219
 30
0.0
 10
85.6725880456
 20
194.8020937359
 30
0.0
  0
SPLINE
  5
40C
100
AcDbEntity
  8
0
100
AcDbSpline
 62
7
  6
CONTINUOUS
 70
0
 71
3
 72
19
 73
15
 74
0
 42
0.0000001
 43
0.0000001
 44
0.0000000001
 40
0.0
 40
0.0
 40
0.0
 40
0.0
 40
0.0517190809
 40
0.105339288
 40
0.1622479039
 40
0.2232156281
 40
0.356475455
 40
0.5
 40
0.643524545
 40
0.7767843719
 40
0.8377520961
 40
0.894660712
 40
0.9482809191
 40
1.0
 40
1.0
 40
1.0
 40
1.0
 10
96.9116419657
 20
159.7542240295
 30
0.0
 10
96.9116419657
 20
159.5920216943
 30
0.0
 10
96.9587829927
 20
159.259985112
 30
0.0
 10
97.1647021019
 20
158.7887940084
 30
0.0
 10
97.4952856879
 20
158.3585318836
 30
0.0
 10
98.0991676182
 20
157.8455081937
 30
0.0
 10
99.0839363587
 20
157.4005799119
 30
0.0
 10
100.4059586777
 20
157.2226241752
 30
0.0
 10
101.7279809968
 20
157.4005799119
 30
0.0
 10
102.7127497373
 20
157.8455081937
 30
0.0
 10
103.3166316676
 20
158.3585318836
 30
0.0
 10
103.6472152536
 20
158.7887940084
 30
0.0
 10
103.8531343628
 20
159.259985112
 30
0.0
 10
103.9002753898
 20
159.5920216943
 30
0.0
 10
103.9002753898
 20
159.7542240295
 30
0.0
  0
SPLINE
  5
40D
100
AcDbEntity
  8
0
100
AcDbSpline
 62
7
  6
CONTINUOUS
 70
0
 71
3
 72
13
 73
9
 74
0
 42
0.0000001
 43
0.0000001
 44
0.0000000001
 40
0.0
 40
0.0
 40
0.0
 40
0.0
 40
0.1054743427
 40
0.2140737826
 40
0.3281182888
 40
0.4492129216
 40
0.7128045923
 40
1.0
 40
1.0
 40
1.0
 40
1.0
 10
103.9002753898
 20
159.7542240295
 30
0.0
 10
103.9002753898
 20
159.897839295
 30
0.0
 10
103.8635856293
 20
160.1905005406
 30
0.0
 10
103.702385784
 20
160.6112706545
 30
0.0
 10
103.4410287457
 20
161.0037587028
 30
0.0
 10
102.9587613271
 20
161.4870348965
 30
0.0
 10
102.1516434172
 20
161.9510581938
 30
0.0
 10
101.4155539347
 20
162.1360221632
 30
0.0
 10
101.0276660924
 20
162.1856447902
 30
0.0
  0
SPLINE
  5
40E
100
AcDbEntity
  8
0
100
AcDbSpline
 62
7
  6
CONTINUOUS
 70
0
 71
3
 72
13
 73
9
 74
0
 42
0.0000001
 43
0.0000001
 44
0.0000000001
 40
0.0
 40
0.0
 40
0.0
 40
0.0
 40
0.2871954077
 40
0.5507870784
 40
0.6718817112
 40
0.7859262174
 40
0.8945256573
 40
1.0
 40
1.0
 40
1.0
 40
1.0
 10
99.7842512631
 20
162.1856447902
 30
0.0
 10
99.3963634208
 20
162.1360221632
 30
0.0
 10
98.6602739383
 20
161.9510581938
 30
0.0
 10
97.8531560284
 20
161.4870348965
 30
0.0
 10
97.3708886098
 20
161.0037587028
 30
0.0
 10
97.1095315715
 20
160.6112706545
 30
0.0
 10
96.9483317262
 20
160.1905005406
 30
0.0
 10
96.9116419657
 20
159.897839295
 30
0.0
 10
96.9116419657
 20
159.7542240295
 30
0.0
  0
ELLIPSE
  5
40F
100
AcDbEntity
  8
0
100
AcDbEllipse
 62
7
  6
CONTINUOUS
 10
81.4059586777
 20
199.5607227674
 30
0.0
 11
0.0
 21
3.620168505
 31
0.0
 40
0.8286907076
 41
1.0433474368
 42
1.1099305104
  0
ELLIPSE
  5
410
100
AcDbEntity
  8
0
100
AcDbEllipse
 62
7
  6
CONTINUOUS
 10
77.3886081606
 20
199.8399479702
 30
0.0
 11
0.0
 21
3.0000260977
 31
0.0
 40
0.002493175
 41
-1.2217252196
 42
-0.0000000002
  0
ENDSEC
  0
SECTION
  2
OBJECTS
  0
DICTIONARY
  5
C
100
AcDbDictionary
280
0
281
1
  3
ACAD_GROUP
350
D
  3
ACAD_MLINESTYLE
350
17
  3
ACAD_LAYOUT
350
1A
  3
ACAD_PLOTSETTINGS
350
19
  3
ACAD_PLOTSTYLENAME
350
E
  0
DICTIONARY
  5
D
102
{ACAD_REACTORS
330
C
102
}
100
AcDbDictionary
280
0
281
1
  0
ACDBDICTIONARYWDFLT
  5
E
102
{ACAD_REACTORS
330
C
102
}
100
AcDbDictionary
281
1
  3
Normal
350
F
100
AcDbDictionaryWithDefault
340
F
  0
DICTIONARY
  5
17
102
{ACAD_REACTORS
330
C
102
}
100
AcDbDictionary
280
0
281
1
  3
Standard
350
18
  0
DICTIONARY
  5
19
102
{ACAD_REACTORS
330
C
102
}
100
AcDbDictionary
281
1
  0
DICTIONARY
  5
1A
102
{ACAD_REACTORS
330
C
102
}
100
AcDbDictionary
281
1
  3
Model
350
411
  3
Layout1
350
412
  0
ACDBPLACEHOLDER
  5
F
102
{ACAD_REACTORS
330
E
102
}
  0
MLINESTYLE
  5
18
102
{ACAD_REACTORS
330
17
102
}
100
AcDbMlineStyle
  2
STANDARD
 70
0
  3

 62
256
 51
90.0
 52
90.0
 71
2
 49
0.5
 62
256
  6
BYLAYER
 49
-0.5
 62
256
  6
BYLAYER
  0
LAYOUT
  5
411
102
{ACAD_REACTORS
330
1A
102
}
100
AcDbPlotSettings
  1

  2
none_device
  4

  6

 40
0.0
 41
0.0
 42
0.0
 43
0.0
 44
210.0
 45
297.0
 46
0.0
 47
0.0
 48
0.0
 49
0.0
140
0.0
141
0.0
142
1.0
143
1.0
 70
1024
 72
1
 73
0
 74
0
  7

 75
0
147
1.0
148
0.0
149
0.0
100
AcDbLayout
  1
Model
 70
0
 71
0
 10
0.0
 20
0.0
 11
210.0
 21
297.0
 12
0.0
 22
0.0
 32
0.0
 14
0.0
 24
0.0
 34
0.0
 15
0.0
 25
0.0
 35
0.0
146
0.0
 13
0.0
 23
0.0
 33
0.0
 16
1.0
 26
0.0
 36
0.0
 17
0.0
 27
1.0
 37
0.0
 76
0
330
210
345
0
346
0
  0
LAYOUT
  5
412
102
{ACAD_REACTORS
330
1A
102
}
100
AcDbPlotSettings
  1

  2
none_device
  4

  6

 40
0.0
 41
0.0
 42
0.0
 43
0.0
 44
210.0
 45
297.0
 46
0.0
 47
0.0
 48
0.0
 49
0.0
140
0.0
141
0.0
142
1.0
143
1.0
 70
0
 72
1
 73
0
 74
0
  7

 75
0
147
1.0
148
0.0
149
0.0
100
AcDbLayout
  1
Layout1
 70
0
 71
1
 10
0.0
 20
0.0
 11
210.0
 21
297.0
 12
0.0
 22
0.0
 32
0.0
 14
0.0
 24
0.0
 34
0.0
 15
0.0
 25
0.0
 35
0.0
146
0.0
 13
0.0
 23
0.0
 33
0.0
 16
1.0
 26
0.0
 36
0.0
 17
0.0
 27
1.0
 37
0.0
 76
0
330
211
345
0
346
0
  0
ENDSEC
  0
EOF
