999
DXF file: C:\Users\sesa63760\OneDrive - Schneider Electric\Documents\7-Dev\_Creo\CAD\MCADPP0000311_3D-CAD\drw0001_3.dxf
999
Pro/ENGINEER 2019471 by Parametric Technology Corporation
  0
SECTION
  2
HEADER
  9
$ACADVER
  1
AC1024
  9
$DWGCODEPAGE
  3
ANSI_1252
  9
$EXTMAX
 10
481.7134506072
 20
681.280451573
 30
0.0
  9
$EXTMIN
 10
0.0
 20
0.0
 30
0.0
  9
$LIMMIN
 10
0.0
 20
0.0
  9
$LIMMAX
 10
481.7134506072
 20
681.280451573
  9
$VIEWCTR
 10
240.8567253036
 20
340.6402257865
  9
$VIEWSIZE
 40
681.280451573
  9
$CLAYER
  8
0
  9
$LTSCALE
 40
44.4093923988
  9
$CELTYPE
  6
BYLAYER
  9
$DIMSCALE
 40
1.0
  9
$DIMASZ
 40
5.7346839358
  9
$DIMEXO
 40
1.0
  9
$DIMDLI
 40
30.6828529301
  9
$DIMEXE
 40
1.0
  9
$DIMCEN
 40
7.2669914834
  9
$DIMLFAC
 40
1.0
  9
$DIMBLK
  1
_FILLED
  9
$DIMALT
 70
0
  9
$DIMALTF
 40
0.0393700787
  9
$DIMTXT
 40
8.0285575101
  9
$DIMTOL
 70
1
  9
$DIMLIM
 70
0
  9
$DIMTFAC
 40
1.0
  9
$DIMTP
 40
0.01
  9
$DIMTM
 40
0.01
  9
$DIMGAP
 40
0.625
  9
$DIMDSEP
 70
46
  9
$AUNITS
 70
0
  9
$PDMODE
 70
3
  9
$PDSIZE
 40
0.3125
  9
$HANDSEED
  5
2DA
  9
$TILEMODE
 70
1
  9
$MEASUREMENT
 70
1
  9
$INSUNITS
 70
4
  0
ENDSEC
  0
SECTION
  2
CLASSES
  0
CLASS
  1
ACDBDICTIONARYWDFLT
  2
AcDbDictionaryWithDefault
  3
AutoCAD 2000
 90
0
 91
1
280
0
281
0
  0
CLASS
  1
ACDBPLACEHOLDER
  2
AcDbPlaceHolder
  3
AutoCAD 2000
 90
0
 91
1
280
0
281
0
  0
CLASS
  1
LAYOUT
  2
AcDbLayout
  3
AutoCAD 2000
 90
0
 91
0
280
0
281
0
  0
ENDSEC
  0
SECTION
  2
TABLES
  0
TABLE
  2
VPORT
  5
8
100
AcDbSymbolTable
 70
2
  0
VPORT
  5
1F4
100
AcDbSymbolTableRecord
100
AcDbViewportTableRecord
  2
*ACTIVE
 70
0
 10
0.0
 20
0.0
 11
1.0
 21
1.0
 12
240.8567253036
 22
340.6402257865
 13
0.0
 23
0.0
 14
1.0
 24
1.0
 15
0.0
 25
0.0
 16
0.0
 26
0.0
 36
1.0
 17
0.0
 27
0.0
 37
0.0
 40
681.280451573
 41
0.7070707071
 42
50.0
 43
0.0
 44
0.0
 50
0.0
 51
0.0
 71
0
 72
100
 73
1
 74
1
 75
0
 76
0
 77
0
 78
0
  0
ENDTAB
  0
TABLE
  2
LTYPE
  5
5
100
AcDbSymbolTable
 70
6
  0
LTYPE
  5
14
100
AcDbSymbolTableRecord
100
AcDbLinetypeTableRecord
  2
BYBLOCK
 70
0
  3

 72
65
 73
0
 40
0.0
  0
LTYPE
  5
15
100
AcDbSymbolTableRecord
100
AcDbLinetypeTableRecord
  2
BYLAYER
 70
0
  3

 72
65
 73
0
 40
0.0
  0
LTYPE
  5
16
100
AcDbSymbolTableRecord
100
AcDbLinetypeTableRecord
  2
CONTINUOUS
 70
64
  3
Solid line
 72
65
 73
0
 40
0.0
  0
LTYPE
  5
1F5
100
AcDbSymbolTableRecord
100
AcDbLinetypeTableRecord
  2
CENTER
 70
64
  3
____ _ ____ _ ____ _ ____ _ ____ _ ____ _ ____
 72
65
 73
4
 40
0.6
 49
0.375
 74
0
 49
-0.075
 74
0
 49
0.075
 74
0
 49
-0.075
 74
0
  0
LTYPE
  5
1F6
100
AcDbSymbolTableRecord
100
AcDbLinetypeTableRecord
  2
HIDDEN
 70
64
  3
- - - - - - - - - - - - - - - - - - - -
 72
65
 73
2
 40
0.2
 49
0.1
 74
0
 49
-0.1
 74
0
  0
LTYPE
  5
1F7
100
AcDbSymbolTableRecord
100
AcDbLinetypeTableRecord
  2
PHANTOM
 70
64
  3
_____ _ _ _____ _ _ _____ _ _ _____
 72
65
 73
6
 40
0.8
 49
0.45
 74
0
 49
-0.05
 74
0
 49
0.1
 74
0
 49
-0.05
 74
0
 49
0.1
 74
0
 49
-0.05
 74
0
  0
LTYPE
  5
1F8
100
AcDbSymbolTableRecord
100
AcDbLinetypeTableRecord
  2
DOT
 70
64
  3
. . . . . . . . . . . . . . . . . . . .
 72
65
 73
2
 40
0.2
 49
0.1
 74
0
 49
-0.1
 74
0
  0
LTYPE
  5
1F9
100
AcDbSymbolTableRecord
100
AcDbLinetypeTableRecord
  2
DASHED
 70
64
  3
- - - - - - - - - - - - - - - - - - - -
 72
65
 73
2
 40
0.2
 49
0.1
 74
0
 49
-0.1
 74
0
  0
ENDTAB
  0
TABLE
  2
LAYER
  5
2
100
AcDbSymbolTable
 70
36
  0
LAYER
  5
10
100
AcDbSymbolTableRecord
100
AcDbLayerTableRecord
  2
0
 70
0
 62
7
  6
CONTINUOUS
370
-3
390
F
  0
LAYER
  5
1FA
100
AcDbSymbolTableRecord
100
AcDbLayerTableRecord
  2
DEFAULT_1
 70
0
 62
7
  6
CENTER
370
-3
390
F
  0
LAYER
  5
1FB
100
AcDbSymbolTableRecord
100
AcDbLayerTableRecord
  2
DEFAULT_2
 70
0
 62
8
  6
HIDDEN
370
-3
390
F
  0
LAYER
  5
1FC
100
AcDbSymbolTableRecord
100
AcDbLayerTableRecord
  2
DEFAULT_3
 70
0
 62
7
  6
PHANTOM
370
-3
390
F
  0
LAYER
  5
1FD
100
AcDbSymbolTableRecord
100
AcDbLayerTableRecord
  2
00_COMPONENTS
 70
0
 62
7
  6
CONTINUOUS
370
-3
390
F
  0
LAYER
  5
1FE
100
AcDbSymbolTableRecord
100
AcDbLayerTableRecord
  2
01_1_DEFAULT_DATUMS
 70
0
 62
7
  6
CONTINUOUS
370
-3
390
F
  0
LAYER
  5
1FF
100
AcDbSymbolTableRecord
100
AcDbLayerTableRecord
  2
01_PLANES
 70
0
 62
7
  6
CONTINUOUS
370
-3
390
F
  0
LAYER
  5
200
100
AcDbSymbolTableRecord
100
AcDbLayerTableRecord
  2
02_COORD_SYS
 70
0
 62
7
  6
CONTINUOUS
370
-3
390
F
  0
LAYER
  5
201
100
AcDbSymbolTableRecord
100
AcDbLayerTableRecord
  2
03_AXES
 70
0
 62
7
  6
CONTINUOUS
370
-3
390
F
  0
LAYER
  5
202
100
AcDbSymbolTableRecord
100
AcDbLayerTableRecord
  2
04_POINTS
 70
0
 62
7
  6
CONTINUOUS
370
-3
390
F
  0
LAYER
  5
203
100
AcDbSymbolTableRecord
100
AcDbLayerTableRecord
  2
05_CURVES
 70
0
 62
7
  6
CONTINUOUS
370
-3
390
F
  0
LAYER
  5
204
100
AcDbSymbolTableRecord
100
AcDbLayerTableRecord
  2
06_SURFS
 70
0
 62
7
  6
CONTINUOUS
370
-3
390
F
  0
LAYER
  5
205
100
AcDbSymbolTableRecord
100
AcDbLayerTableRecord
  2
07_COSMETICS
 70
0
 62
7
  6
CONTINUOUS
370
-3
390
F
  0
LAYER
  5
206
100
AcDbSymbolTableRecord
100
AcDbLayerTableRecord
  2
10_NOTES
 70
0
 62
7
  6
CONTINUOUS
370
-3
390
F
  0
LAYER
  5
207
100
AcDbSymbolTableRecord
100
AcDbLayerTableRecord
  2
11_NOTES_PUB
 70
0
 62
7
  6
CONTINUOUS
370
-3
390
F
  0
LAYER
  5
208
100
AcDbSymbolTableRecord
100
AcDbLayerTableRecord
  2
13_REF_GTOL
 70
0
 62
7
  6
CONTINUOUS
370
-3
390
F
  0
LAYER
  5
209
100
AcDbSymbolTableRecord
100
AcDbLayerTableRecord
  2
16_MISC
 70
0
 62
7
  6
CONTINUOUS
370
-3
390
F
  0
LAYER
  5
20A
100
AcDbSymbolTableRecord
100
AcDbLayerTableRecord
  2
17_NO_PRINT
 70
0
 62
7
  6
CONTINUOUS
370
-3
390
F
  0
LAYER
  5
20B
100
AcDbSymbolTableRecord
100
AcDbLayerTableRecord
  2
18_DATUM_CAMS_JOINTS
 70
0
 62
7
  6
CONTINUOUS
370
-3
390
F
  0
LAYER
  5
20C
100
AcDbSymbolTableRecord
100
AcDbLayerTableRecord
  2
19_DATUM_FUNCTIONAL
 70
0
 62
7
  6
CONTINUOUS
370
-3
390
F
  0
LAYER
  5
20D
100
AcDbSymbolTableRecord
100
AcDbLayerTableRecord
  2
20_DATUM_KINEMATIC_SCHEME
 70
0
 62
7
  6
CONTINUOUS
370
-3
390
F
  0
ENDTAB
  0
TABLE
  2
STYLE
  5
3
100
AcDbSymbolTable
 70
1
  0
STYLE
  5
11
100
AcDbSymbolTableRecord
100
AcDbTextStyleTableRecord
  2
STANDARD
 70
0
 40
0.0
 41
0.8
 50
0.0
 71
0
 42
0.2
  3
txt
  4

  0
STYLE
  5
20E
100
AcDbSymbolTableRecord
100
AcDbTextStyleTableRecord
  2
TEXTSTYLE_1
 70
0
 40
0.0
 41
0.8
 50
0.0
 71
0
 42
0.2
  3
gdt
  4

  0
ENDTAB
  0
TABLE
  2
VIEW
  5
6
100
AcDbSymbolTable
 70
0
  0
ENDTAB
  0
TABLE
  2
UCS
  5
7
100
AcDbSymbolTable
 70
0
  0
ENDTAB
  0
TABLE
  2
APPID
  5
9
100
AcDbSymbolTable
 70
1
  0
APPID
  5
20F
100
AcDbSymbolTableRecord
100
AcDbRegAppTableRecord
  2
ACAD
 70
0
  0
ENDTAB
  0
TABLE
  2
BLOCK_RECORD
  5
1
100
AcDbSymbolTable
 70
0
  0
BLOCK_RECORD
  5
210
100
AcDbSymbolTableRecord
100
AcDbBlockTableRecord
  2
*Model_Space
  0
BLOCK_RECORD
  5
211
100
AcDbSymbolTableRecord
100
AcDbBlockTableRecord
  2
*Paper_Space
  0
BLOCK_RECORD
  5
212
100
AcDbSymbolTableRecord
100
AcDbBlockTableRecord
  2
_FILLED
  0
ENDTAB
  0
TABLE
  2
DIMSTYLE
  5
A
100
AcDbSymbolTable
 70
1
100
AcDbDimStyleTable
 71
0
  0
DIMSTYLE
105
213
100
AcDbSymbolTableRecord
100
AcDbDimStyleTableRecord
  2
STANDARD
 70
0
  3

  4

 40
1.0
 41
5.7346839358
 42
1.0
 43
0.38
 44
1.0
 45
0.0
 46
0.0
 47
0.01
 48
0.01
140
8.0285575101
141
0.09
142
0.0
143
25.4
144
1.0
145
0.0
146
1.0
147
0.625
 71
1
 72
0
 73
0
 74
0
 75
0
 76
0
 77
1
 78
8
 79
2
170
0
171
1
172
0
173
0
174
0
175
0
176
0
177
0
178
0
270
2
179
2
271
2
272
2
273
2
274
2
275
0
280
0
281
0
282
0
283
1
284
8
285
0
286
0
287
3
288
0
340
11
278
46
341
212
342
212
343
212
344
212
  0
ENDTAB
  0
ENDSEC
  0
SECTION
  2
BLOCKS
  0
BLOCK
  5
20
100
AcDbEntity
  8
0
100
AcDbBlockBegin
  2
*Model_Space
 70
0
 10
0.0
 20
0.0
 30
0.0
  3
*Model_Space
  1

  0
ENDBLK
  5
21
100
AcDbEntity
  8
0
100
AcDbBlockEnd
  0
BLOCK
  5
1C
100
AcDbEntity
  8
0
100
AcDbBlockBegin
  2
*Paper_Space
 70
0
 10
0.0
 20
0.0
 30
0.0
  3
*Paper_Space
  1

  0
ENDBLK
  5
1D
100
AcDbEntity
  8
0
100
AcDbBlockEnd
  0
BLOCK
  5
214
100
AcDbEntity
  8
0
100
AcDbBlockBegin
  2
_FILLED
 70
64
 10
0.0
 20
0.0
  3
_FILLED
  1

  0
SOLID
  5
215
100
AcDbEntity
  8
0
  6
BYBLOCK
 62
0
100
AcDbTrace
 10
0.0
 20
0.0
 11
-1.0
 21
0.25
 12
-1.0
 22
-0.25
 13
-1.0
 23
-0.25
  0
ENDBLK
  5
216
100
AcDbEntity
  8
0
  6
BYBLOCK
 62
0
100
AcDbBlockEnd
  0
ENDSEC
  0
SECTION
  2
ENTITIES
  0
LINE
  5
217
100
AcDbEntity
  8
0
100
AcDbLine
 62
7
  6
CONTINUOUS
 10
317.377770117
 20
54.6191794101
 11
177.677770117
 21
54.6191794101
  0
LINE
  5
218
100
AcDbEntity
  8
0
100
AcDbLine
 62
7
  6
CONTINUOUS
 10
317.377770117
 20
69.1197315467
 11
177.677770117
 21
69.1197315467
  0
LINE
  5
219
100
AcDbEntity
  8
0
100
AcDbLine
 62
7
  6
CONTINUOUS
 10
309.027770117
 20
69.1895438307
 11
186.027770117
 21
69.1895438307
  0
LINE
  5
21A
100
AcDbEntity
  8
0
100
AcDbLine
 62
7
  6
CONTINUOUS
 10
317.377770117
 20
70.3236126688
 11
309.027770117
 21
70.3236126688
  0
LINE
  5
21B
100
AcDbEntity
  8
0
100
AcDbLine
 62
7
  6
CONTINUOUS
 10
186.027770117
 20
70.3236126688
 11
177.677770117
 21
70.3236126688
  0
LINE
  5
21C
100
AcDbEntity
  8
0
100
AcDbLine
 62
7
  6
CONTINUOUS
 10
309.027770117
 20
104.1908765742
 11
186.027770117
 21
104.1908765742
  0
LINE
  5
21D
100
AcDbEntity
  8
0
100
AcDbLine
 62
7
  6
CONTINUOUS
 10
309.027770117
 20
105.2589095679
 11
265.027770117
 21
105.2589095679
  0
LINE
  5
21E
100
AcDbEntity
  8
0
100
AcDbLine
 62
7
  6
CONTINUOUS
 10
240.027770117
 20
105.2589095679
 11
186.027770117
 21
105.2589095679
  0
LINE
  5
21F
100
AcDbEntity
  8
0
100
AcDbLine
 62
7
  6
CONTINUOUS
 10
243.0771212406
 20
116.0551561753
 11
244.7791096356
 21
116.0700086374
  0
LINE
  5
220
100
AcDbEntity
  8
0
100
AcDbLine
 62
7
  6
CONTINUOUS
 10
263.3926325558
 20
119.2323259751
 11
261.6906441609
 21
119.217473513
  0
LINE
  5
221
100
AcDbEntity
  8
0
100
AcDbLine
 62
7
  6
CONTINUOUS
 10
244.7791096356
 20
119.0698944066
 11
243.0771212406
 21
119.0550419444
  0
LINE
  5
222
100
AcDbEntity
  8
0
100
AcDbLine
 62
7
  6
CONTINUOUS
 10
241.6629076782
 20
119.0673831293
 11
243.3648960732
 21
119.0822355914
  0
LINE
  5
223
100
AcDbEntity
  8
0
100
AcDbLine
 62
7
  6
CONTINUOUS
 10
260.2764305985
 20
119.2298146978
 11
261.9784189935
 21
119.24466716
  0
LINE
  5
224
100
AcDbEntity
  8
0
100
AcDbLine
 62
7
  6
CONTINUOUS
 10
238.1625343027
 20
116.1412422475
 11
240.5695093739
 21
116.1412422475
  0
LINE
  5
225
100
AcDbEntity
  8
0
100
AcDbLine
 62
7
  6
CONTINUOUS
 10
264.4860308601
 20
116.1412422475
 11
266.8930059313
 21
116.1412422475
  0
LINE
  5
226
100
AcDbEntity
  8
0
100
AcDbLine
 62
7
  6
CONTINUOUS
 10
238.1625343027
 20
119.1411280167
 11
240.5695093739
 21
119.1411280167
  0
LINE
  5
227
100
AcDbEntity
  8
0
100
AcDbLine
 62
7
  6
CONTINUOUS
 10
264.4860308601
 20
119.1411280167
 11
266.8930059313
 21
119.1411280167
  0
LINE
  5
228
100
AcDbEntity
  8
0
100
AcDbLine
 62
7
  6
CONTINUOUS
 10
266.8930059313
 20
119.1585810877
 11
264.4860308601
 21
119.1585810877
  0
LINE
  5
229
100
AcDbEntity
  8
0
100
AcDbLine
 62
7
  6
CONTINUOUS
 10
240.5695093739
 20
119.1585810877
 11
238.1625343027
 21
119.1585810877
  0
LINE
  5
22A
100
AcDbEntity
  8
0
100
AcDbLine
 62
7
  6
CONTINUOUS
 10
260.2764305985
 20
116.0700086374
 11
261.9784189935
 21
116.0551561753
  0
LINE
  5
22B
100
AcDbEntity
  8
0
100
AcDbLine
 62
7
  6
CONTINUOUS
 10
261.9784189935
 20
119.0550419444
 11
260.2764305985
 21
119.0698944066
  0
LINE
  5
22C
100
AcDbEntity
  8
0
100
AcDbLine
 62
7
  6
CONTINUOUS
 10
243.3648960732
 20
119.217473513
 11
241.6629076782
 21
119.2323259751
  0
LINE
  5
22D
100
AcDbEntity
  8
0
100
AcDbLine
 62
7
  6
CONTINUOUS
 10
243.0771212406
 20
119.24466716
 11
244.7791096356
 21
119.2298146978
  0
LINE
  5
22E
100
AcDbEntity
  8
0
100
AcDbLine
 62
7
  6
CONTINUOUS
 10
261.6906441609
 20
119.0822355914
 11
263.3926325558
 21
119.0673831293
  0
LINE
  5
22F
100
AcDbEntity
  8
0
100
AcDbLine
 62
7
  6
CONTINUOUS
 10
177.677770117
 20
70.3236126688
 11
177.677770117
 21
54.6191794101
  0
LINE
  5
230
100
AcDbEntity
  8
0
100
AcDbLine
 62
7
  6
CONTINUOUS
 10
186.027770117
 20
69.1895438307
 11
186.027770117
 21
105.2589095679
  0
LINE
  5
231
100
AcDbEntity
  8
0
100
AcDbLine
 62
7
  6
CONTINUOUS
 10
215.032167313
 20
582.8152356934
 11
215.032167313
 21
596.8645158038
  0
LINE
  5
232
100
AcDbEntity
  8
0
100
AcDbLine
 62
7
  6
CONTINUOUS
 10
222.682167313
 20
582.8152356934
 11
222.682167313
 21
581.1625561669
  0
LINE
  5
233
100
AcDbEntity
  8
0
100
AcDbLine
 62
7
  6
CONTINUOUS
 10
225.032167313
 20
596.5039253765
 11
225.032167313
 21
602.925961142
  0
LINE
  5
234
100
AcDbEntity
  8
0
100
AcDbLine
 62
7
  6
CONTINUOUS
 10
228.032167313
 20
581.0183050216
 11
228.032167313
 21
575.5427701593
  0
LINE
  5
235
100
AcDbEntity
  8
0
100
AcDbLine
 62
7
  6
CONTINUOUS
 10
246.3393973643
 20
119.1145793873
 11
246.2352567888
 21
122.0966615918
  0
LINE
  5
236
100
AcDbEntity
  8
0
100
AcDbLine
 62
7
  6
CONTINUOUS
 10
234.527770117
 20
109.6726306461
 11
234.527770117
 21
108.1526885231
  0
LINE
  5
237
100
AcDbEntity
  8
0
100
AcDbLine
 62
7
  6
CONTINUOUS
 10
235.1472526955
 20
128.1505545287
 11
235.1472526955
 21
126.1506306826
  0
LINE
  5
238
100
AcDbEntity
  8
0
100
AcDbLine
 62
7
  6
CONTINUOUS
 10
238.127770117
 20
119.1498545522
 11
238.127770117
 21
109.6726306461
  0
LINE
  5
239
100
AcDbEntity
  8
0
100
AcDbLine
 62
7
  6
CONTINUOUS
 10
238.1625343027
 20
119.1411280167
 11
238.1625343027
 21
116.1412422475
  0
LINE
  5
23A
100
AcDbEntity
  8
0
100
AcDbLine
 62
7
  6
CONTINUOUS
 10
240.027770117
 20
108.0414852415
 11
240.027770117
 21
104.7528179846
  0
LINE
  5
23B
100
AcDbEntity
  8
0
100
AcDbLine
 62
7
  6
CONTINUOUS
 10
240.5695093739
 20
116.1412422475
 11
240.5695093739
 21
119.1411280167
  0
LINE
  5
23C
100
AcDbEntity
  8
0
100
AcDbLine
 62
7
  6
CONTINUOUS
 10
240.6472526955
 20
140.1500976055
 11
240.6472526955
 21
128.1505545287
  0
LINE
  5
23D
100
AcDbEntity
  8
0
100
AcDbLine
 62
7
  6
CONTINUOUS
 10
241.6629076782
 20
119.2323259751
 11
241.6629076782
 21
119.1940757235
  0
LINE
  5
23E
100
AcDbEntity
  8
0
100
AcDbLine
 62
7
  6
CONTINUOUS
 10
241.6629076782
 20
116.0674973601
 11
241.6629076782
 21
119.0673831293
  0
LINE
  5
23F
100
AcDbEntity
  8
0
100
AcDbLine
 62
7
  6
CONTINUOUS
 10
243.0771212406
 20
119.0550419444
 11
243.0771212406
 21
116.0551561753
  0
LINE
  5
240
100
AcDbEntity
  8
0
100
AcDbLine
 62
7
  6
CONTINUOUS
 10
243.6472526955
 20
126.0209978616
 11
243.6472526955
 21
122.1507829904
  0
LINE
  5
241
100
AcDbEntity
  8
0
100
AcDbLine
 62
7
  6
CONTINUOUS
 10
244.7791096356
 20
116.0700086374
 11
244.7791096356
 21
119.0698944066
  0
LINE
  5
242
100
AcDbEntity
  8
0
100
AcDbLine
 62
7
  6
CONTINUOUS
 10
245.2928191295
 20
599.3605728647
 11
245.2928191295
 21
596.3006893801
  0
LINE
  5
243
100
AcDbEntity
  8
0
100
AcDbLine
 62
7
  6
CONTINUOUS
 10
246.7477308883
 20
599.269909126
 11
246.7477308883
 21
596.2100256414
  0
LINE
  5
244
100
AcDbEntity
  8
0
100
AcDbLine
 62
7
  6
CONTINUOUS
 10
251.527770117
 20
116.0246100427
 11
251.527770117
 21
119.0455003653
  0
LINE
  5
245
100
AcDbEntity
  8
0
100
AcDbLine
 62
7
  6
CONTINUOUS
 10
253.527770117
 20
116.0246100427
 11
253.527770117
 21
119.0455003653
  0
LINE
  5
246
100
AcDbEntity
  8
0
100
AcDbLine
 62
7
  6
CONTINUOUS
 10
260.2764305985
 20
119.0698944066
 11
260.2764305985
 21
116.0700086374
  0
LINE
  5
247
100
AcDbEntity
  8
0
100
AcDbLine
 62
7
  6
CONTINUOUS
 10
261.4082875385
 20
126.0209763033
 11
261.4082875385
 21
122.1507829904
  0
LINE
  5
248
100
AcDbEntity
  8
0
100
AcDbLine
 62
7
  6
CONTINUOUS
 10
261.9784189935
 20
116.0551561753
 11
261.9784189935
 21
119.0550419444
  0
LINE
  5
249
100
AcDbEntity
  8
0
100
AcDbLine
 62
7
  6
CONTINUOUS
 10
263.3926325558
 20
119.0673831293
 11
263.3926325558
 21
116.0674973601
  0
LINE
  5
24A
100
AcDbEntity
  8
0
100
AcDbLine
 62
7
  6
CONTINUOUS
 10
263.3926325558
 20
119.1940757235
 11
263.3926325558
 21
119.2323259751
  0
LINE
  5
24B
100
AcDbEntity
  8
0
100
AcDbLine
 62
7
  6
CONTINUOUS
 10
264.4082875385
 20
140.1500976055
 11
264.4082875385
 21
128.1505545287
  0
LINE
  5
24C
100
AcDbEntity
  8
0
100
AcDbLine
 62
7
  6
CONTINUOUS
 10
264.4860308601
 20
119.1411280167
 11
264.4860308601
 21
116.1412422475
  0
LINE
  5
24D
100
AcDbEntity
  8
0
100
AcDbLine
 62
7
  6
CONTINUOUS
 10
265.027770117
 20
108.0414986822
 11
265.027770117
 21
104.7528179846
  0
LINE
  5
24E
100
AcDbEntity
  8
0
100
AcDbLine
 62
7
  6
CONTINUOUS
 10
266.8930059313
 20
116.1412422475
 11
266.8930059313
 21
119.1411280167
  0
LINE
  5
24F
100
AcDbEntity
  8
0
100
AcDbLine
 62
7
  6
CONTINUOUS
 10
266.927770117
 20
119.1498545522
 11
266.927770117
 21
109.6726306461
  0
LINE
  5
250
100
AcDbEntity
  8
0
100
AcDbLine
 62
7
  6
CONTINUOUS
 10
269.9082875385
 20
128.1505545287
 11
269.9082875385
 21
126.1506306826
  0
LINE
  5
251
100
AcDbEntity
  8
0
100
AcDbLine
 62
7
  6
CONTINUOUS
 10
258.7161390009
 20
119.1144686015
 11
258.8202834873
 21
122.0966627957
  0
LINE
  5
252
100
AcDbEntity
  8
0
100
AcDbLine
 62
7
  6
CONTINUOUS
 10
270.527770117
 20
109.6726306461
 11
270.527770117
 21
108.1526885231
  0
LINE
  5
253
100
AcDbEntity
  8
0
100
AcDbLine
 62
7
  6
CONTINUOUS
 10
277.032167313
 20
581.018319048
 11
277.032167313
 21
575.5427701593
  0
LINE
  5
254
100
AcDbEntity
  8
0
100
AcDbLine
 62
7
  6
CONTINUOUS
 10
280.032167313
 20
599.5627086569
 11
280.032167313
 21
602.4543994819
  0
LINE
  5
255
100
AcDbEntity
  8
0
100
AcDbLine
 62
7
  6
CONTINUOUS
 10
282.382167313
 20
582.8152356934
 11
282.382167313
 21
581.1625561669
  0
LINE
  5
256
100
AcDbEntity
  8
0
100
AcDbLine
 62
7
  6
CONTINUOUS
 10
290.032167313
 20
582.8152356934
 11
290.032167313
 21
599.9243992884
  0
LINE
  5
257
100
AcDbEntity
  8
0
100
AcDbLine
 62
7
  6
CONTINUOUS
 10
309.027770117
 20
69.1895438307
 11
309.027770117
 21
105.2589095679
  0
LINE
  5
258
100
AcDbEntity
  8
0
100
AcDbLine
 62
7
  6
CONTINUOUS
 10
317.377770117
 20
54.6191794101
 11
317.377770117
 21
70.3236126688
  0
LINE
  5
259
100
AcDbEntity
  8
0
100
AcDbLine
 62
7
  6
CONTINUOUS
 10
276.3866940593
 20
601.3143181932
 11
265.9000061024
 21
601.2240006356
  0
LINE
  5
25A
100
AcDbEntity
  8
0
100
AcDbLine
 62
7
  6
CONTINUOUS
 10
215.032167313
 20
582.8152356934
 11
290.032167313
 21
582.8152356934
  0
LINE
  5
25B
100
AcDbEntity
  8
0
100
AcDbLine
 62
7
  6
CONTINUOUS
 10
246.7477308883
 20
596.2100256414
 11
215.032167313
 21
596.2100256414
  0
LINE
  5
25C
100
AcDbEntity
  8
0
100
AcDbLine
 62
7
  6
CONTINUOUS
 10
225.032167313
 20
596.8645158038
 11
215.032167313
 21
596.8645158038
  0
LINE
  5
25D
100
AcDbEntity
  8
0
100
AcDbLine
 62
7
  6
CONTINUOUS
 10
246.7477308883
 20
599.269909126
 11
290.032167313
 21
599.269909126
  0
LINE
  5
25E
100
AcDbEntity
  8
0
100
AcDbLine
 62
7
  6
CONTINUOUS
 10
290.032167313
 20
599.9243992884
 11
280.032167313
 21
599.9243992884
  0
LINE
  5
25F
100
AcDbEntity
  8
0
100
AcDbLine
 62
7
  6
CONTINUOUS
 10
284.2896823173
 20
610.555131754
 11
278.5136052029
 21
610.5053847624
  0
LINE
  5
260
100
AcDbEntity
  8
0
100
AcDbLine
 62
7
  6
CONTINUOUS
 10
243.1795558373
 20
610.2010670359
 11
237.4034787229
 21
610.1513200443
  0
LINE
  5
261
100
AcDbEntity
  8
0
100
AcDbLine
 62
7
  6
CONTINUOUS
 10
234.2858224489
 20
627.0142211071
 11
282.636945341
 21
627.430649568
  0
LINE
  5
262
100
AcDbEntity
  8
0
100
AcDbLine
 62
7
  6
CONTINUOUS
 10
282.6841208001
 20
629.8910984159
 11
234.3649896515
 21
629.4749454868
  0
LINE
  5
263
100
AcDbEntity
  8
0
100
AcDbLine
 62
7
  6
CONTINUOUS
 10
270.7507753596
 20
629.9967945696
 11
222.4108282936
 21
629.5804623616
  0
LINE
  5
264
100
AcDbEntity
  8
0
100
AcDbLine
 62
7
  6
CONTINUOUS
 10
250.7712027614
 20
618.0588232931
 11
250.8087658778
 21
618.0588191183
  0
LINE
  5
265
100
AcDbEntity
  8
0
100
AcDbLine
 62
7
  6
CONTINUOUS
 10
258.9561917184
 20
618.1293172579
 11
258.9937548349
 21
618.1293130831
  0
LINE
  5
266
100
AcDbEntity
  8
0
100
AcDbLine
 62
7
  6
CONTINUOUS
 10
267.1411806755
 20
618.1998112226
 11
267.1787437919
 21
618.1998070478
  0
LINE
  5
267
100
AcDbEntity
  8
0
100
AcDbLine
 62
7
  6
CONTINUOUS
 10
250.301961773
 20
626.5633045775
 11
250.2644225664
 21
626.5633085409
  0
LINE
  5
268
100
AcDbEntity
  8
0
100
AcDbLine
 62
7
  6
CONTINUOUS
 10
258.48695073
 20
626.6337985423
 11
258.4494115235
 21
626.6338025057
  0
LINE
  5
269
100
AcDbEntity
  8
0
100
AcDbLine
 62
7
  6
CONTINUOUS
 10
266.6719396871
 20
626.7042925071
 11
266.6344004806
 21
626.7042964704
  0
ARC
  5
26A
100
AcDbEntity
  8
0
100
AcDbCircle
 62
7
  6
CONTINUOUS
 10
244.9149715883
 20
2647.8898279873
 40
2018.4424539774
100
AcDbArc
 50
269.5090943917
 51
269.7005254274
  0
ARC
  5
26B
100
AcDbEntity
  8
0
100
AcDbCircle
 62
7
  6
CONTINUOUS
 10
260.1811573351
 20
-1383.9737730961
 40
2013.998302941
100
AcDbArc
 50
89.5089156596
 51
89.6993059612
  0
ARC
  5
26C
100
AcDbEntity
  8
0
100
AcDbCircle
 62
7
  6
CONTINUOUS
 10
244.9943640682
 20
2615.9391658689
 40
2005.8022095905
100
AcDbArc
 50
269.5037327743
 51
269.7831656934
  0
ARC
  5
26D
100
AcDbEntity
  8
0
100
AcDbCircle
 62
7
  6
CONTINUOUS
 10
252.6305629147
 20
1933.952625119
 40
1807.9536690608
100
AcDbArc
 50
269.996742398
 51
270.2793503243
  0
ARC
  5
26E
100
AcDbEntity
  8
0
100
AcDbCircle
 62
7
  6
CONTINUOUS
 10
252.1061390558
 20
1801.6067580168
 40
1675.6078520837
100
AcDbArc
 50
269.7094504605
 51
270.0144172639
  0
ARC
  5
26F
100
AcDbEntity
  8
0
100
AcDbCircle
 62
7
  6
CONTINUOUS
 10
253.3607224752
 20
1098.7869971892
 40
979.7415110648
100
AcDbArc
 50
270.0097690307
 51
270.4044374704
  0
ARC
  5
270
100
AcDbEntity
  8
0
100
AcDbCircle
 62
7
  6
CONTINUOUS
 10
251.6948177588
 20
1095.7871114156
 40
979.7415110604
100
AcDbArc
 50
269.5955625296
 51
269.9902309693
  0
ARC
  5
271
100
AcDbEntity
  8
0
100
AcDbCircle
 62
7
  6
CONTINUOUS
 10
236.0693510799
 20
1605.661543392
 40
976.1766397483
100
AcDbArc
 50
269.1982995548
 51
269.5041451538
  0
ARC
  5
272
100
AcDbEntity
  8
0
100
AcDbCircle
 62
7
  6
CONTINUOUS
 10
269.0219691148
 20
-343.4251417346
 40
973.4121212156
100
AcDbArc
 50
89.1958089323
 51
89.5043253272
  0
ARC
  5
273
100
AcDbEntity
  8
0
100
AcDbCircle
 62
7
  6
CONTINUOUS
 10
254.784380364
 20
-634.1860447706
 40
753.4358764449
100
AcDbArc
 50
89.5823478867
 51
89.6972857008
  0
ARC
  5
274
100
AcDbEntity
  8
0
100
AcDbCircle
 62
7
  6
CONTINUOUS
 10
250.0141321831
 20
-593.3001638136
 40
712.5492093453
100
AcDbArc
 50
90.2994166842
 51
90.4209497282
  0
ARC
  5
275
100
AcDbEntity
  8
0
100
AcDbCircle
 62
7
  6
CONTINUOUS
 10
257.4293193718
 20
-483.0860346094
 40
602.3478800505
100
AcDbArc
 50
89.4327559368
 51
89.5672821382
  0
ARC
  5
276
100
AcDbEntity
  8
0
100
AcDbCircle
 62
7
  6
CONTINUOUS
 10
247.6262208622
 20
721.3857437127
 40
602.3478800494
100
AcDbArc
 50
269.4327559368
 51
269.5672821382
  0
ARC
  5
277
100
AcDbEntity
  8
0
100
AcDbCircle
 62
7
  6
CONTINUOUS
 10
257.7830625528
 20
680.8492466066
 40
561.8098694467
100
AcDbArc
 50
270.4278644161
 51
270.5720975089
  0
ARC
  5
278
100
AcDbEntity
  8
0
100
AcDbCircle
 62
7
  6
CONTINUOUS
 10
247.2724776809
 20
-442.5495374647
 40
561.8098694091
100
AcDbArc
 50
90.4278644161
 51
90.5720975089
  0
ARC
  5
279
100
AcDbEntity
  8
0
100
AcDbCircle
 62
7
  6
CONTINUOUS
 10
259.9533377363
 20
309.2523073132
 40
190.1780071729
100
AcDbArc
 50
270.5234133633
 51
271.0390982377
  0
SPLINE
  5
27A
100
AcDbEntity
  8
0
100
AcDbSpline
 62
7
  6
CONTINUOUS
 70
0
 71
3
 72
13
 73
9
 74
0
 42
0.0000001
 43
0.0000001
 44
0.0000000001
 40
0.0
 40
0.0
 40
0.0
 40
0.0
 40
0.3877354573
 40
0.6880158321
 40
0.8030565928
 40
0.8937255634
 40
0.9595001173
 40
1.0
 40
1.0
 40
1.0
 40
1.0
 10
261.6906441609
 20
119.217473513
 30
0.0
 10
262.0520274195
 20
119.213744319
 30
0.0
 10
262.6932712021
 20
119.2061990676
 30
0.0
 10
263.441702988
 20
119.1941252005
 30
0.0
 10
263.9131974574
 20
119.183227693
 30
0.0
 10
264.1661529855
 20
119.1758334378
 30
0.0
 10
264.34953714
 20
119.1681996909
 30
0.0
 10
264.4484853947
 20
119.1624991142
 30
0.0
 10
264.4860308601
 20
119.1585810877
 30
0.0
  0
SPLINE
  5
27B
100
AcDbEntity
  8
0
100
AcDbSpline
 62
7
  6
CONTINUOUS
 70
0
 71
3
 72
10
 73
6
 74
0
 42
0.0000001
 43
0.0000001
 44
0.0000000001
 40
0.0
 40
0.0
 40
0.0
 40
0.0
 40
0.7263729359
 40
0.9153375598
 40
1.0
 40
1.0
 40
1.0
 40
1.0
 10
266.8930059313
 20
119.1585810877
 30
0.0
 10
266.9017482311
 20
119.157485164
 30
0.0
 10
266.9133261067
 20
119.1557767301
 30
0.0
 10
266.924157222
 20
119.1529505787
 30
0.0
 10
266.9277702375
 20
119.1508814866
 30
0.0
 10
266.9277702375
 20
119.1498545522
 30
0.0
  0
SPLINE
  5
27C
100
AcDbEntity
  8
0
100
AcDbSpline
 62
7
  6
CONTINUOUS
 70
0
 71
3
 72
13
 73
9
 74
0
 42
0.0000001
 43
0.0000001
 44
0.0000000001
 40
0.0
 40
0.0
 40
0.0
 40
0.0
 40
0.0404998827
 40
0.1062744366
 40
0.1969434072
 40
0.3119841679
 40
0.6122645427
 40
1.0
 40
1.0
 40
1.0
 40
1.0
 10
240.5695093739
 20
119.1585810877
 30
0.0
 10
240.6070548394
 20
119.1624991142
 30
0.0
 10
240.7060030941
 20
119.1681996909
 30
0.0
 10
240.8893872486
 20
119.1758334378
 30
0.0
 10
241.1423427766
 20
119.183227693
 30
0.0
 10
241.6138372461
 20
119.1941252005
 30
0.0
 10
242.362269032
 20
119.2061990676
 30
0.0
 10
243.0035128146
 20
119.213744319
 30
0.0
 10
243.3648960732
 20
119.217473513
 30
0.0
  0
SPLINE
  5
27D
100
AcDbEntity
  8
0
100
AcDbSpline
 62
7
  6
CONTINUOUS
 70
0
 71
3
 72
29
 73
25
 74
0
 42
0.0000001
 43
0.0000001
 44
0.0000000001
 40
0.0
 40
0.0
 40
0.0
 40
0.0
 40
0.0003823176
 40
0.0013824188
 40
0.0030263096
 40
0.0053168375
 40
0.0082539227
 40
0.0118366689
 40
0.0209288315
 40
0.032560651
 40
0.0466953113
 40
0.0632893286
 40
0.0822838789
 40
0.1036177626
 40
0.127222549
 40
0.1809159742
 40
0.2426566561
 40
0.3116262777
 40
0.3869106576
 40
0.4675150064
 40
0.5523714962
 40
0.6403582339
 40
0.8210240435
 40
1.0
 40
1.0
 40
1.0
 40
1.0
 10
245.0627691932
 20
119.1498545522
 30
0.0
 10
245.0627691932
 20
119.1486481579
 30
0.0
 10
245.068690547
 20
119.1473751192
 30
0.0
 10
245.0765466872
 20
119.1456597099
 30
0.0
 10
245.0928897992
 20
119.1439617913
 30
0.0
 10
245.1141192523
 20
119.1421416022
 30
0.0
 10
245.1420083799
 20
119.1403329709
 30
0.0
 10
245.1911316697
 20
119.1376850114
 30
0.0
 10
245.2678147047
 20
119.1345497337
 30
0.0
 10
245.3777340979
 20
119.1310085331
 30
0.0
 10
245.5113636749
 20
119.1275102543
 30
0.0
 10
245.6682242453
 20
119.1240659925
 30
0.0
 10
245.8478111613
 20
119.1206957559
 30
0.0
 10
246.0495241885
 20
119.1174136799
 30
0.0
 10
246.360724228
 20
119.1129821124
 30
0.0
 10
246.7994290717
 20
119.1078654305
 30
0.0
 10
247.3812862135
 20
119.1024712936
 30
0.0
 10
248.0312803743
 20
119.0976771362
 30
0.0
 10
248.7408039997
 20
119.0935506207
 30
0.0
 10
249.5004626335
 20
119.0901523372
 30
0.0
 10
250.3002065434
 20
119.0875293559
 30
0.0
 10
251.4156937601
 20
119.0850951449
 30
0.0
 10
252.8281759702
 20
119.0842062331
 30
0.0
 10
253.9630172436
 20
119.085721988
 30
0.0
 10
254.5277701205
 20
119.0870924748
 30
0.0
  0
SPLINE
  5
27E
100
AcDbEntity
  8
0
100
AcDbSpline
 62
7
  6
CONTINUOUS
 70
0
 71
3
 72
26
 73
22
 74
0
 42
0.0000001
 43
0.0000001
 44
0.0000000001
 40
0.0
 40
0.0
 40
0.0
 40
0.0
 40
0.207970929
 40
0.4008332046
 40
0.5735093661
 40
0.6508320296
 40
0.7214542741
 40
0.7849050235
 40
0.8407741966
 40
0.8886848024
 40
0.9283306027
 40
0.9449665299
 40
0.9594424154
 40
0.9717365199
 40
0.9818273651
 40
0.9896965126
 40
0.9953367216
 40
0.9973208384
 40
0.9987492749
 40
0.9996285552
 40
1.0
 40
1.0
 40
1.0
 40
1.0
 10
254.5277701205
 20
119.0870924748
 30
0.0
 10
254.9067259616
 20
119.0880120877
 30
0.0
 10
255.6371061711
 20
119.0903212965
 30
0.0
 10
256.6821219615
 20
119.0953960467
 30
0.0
 10
257.4890689569
 20
119.1009352819
 30
0.0
 10
258.0732698525
 20
119.1061390951
 30
0.0
 10
258.4584462807
 20
119.1101756265
 30
0.0
 10
258.8045255474
 20
119.1144624818
 30
0.0
 10
259.1092141429
 20
119.1189625346
 30
0.0
 10
259.3705170965
 20
119.1236458411
 30
0.0
 10
259.5603276318
 20
119.1278608213
 30
0.0
 10
259.6892098972
 20
119.1314038987
 30
0.0
 10
259.7682656167
 20
119.1339268682
 30
0.0
 10
259.8353759435
 20
119.1364627883
 30
0.0
 10
259.8904704994
 20
119.139003647
 30
0.0
 10
259.9333391944
 20
119.1415204886
 30
0.0
 10
259.9616143353
 20
119.1437819589
 30
0.0
 10
259.9778314832
 20
119.1456575579
 30
0.0
 10
259.9858368336
 20
119.1469855261
 30
0.0
 10
259.9900674631
 20
119.1479843217
 30
0.0
 10
259.9927710409
 20
119.1491777192
 30
0.0
 10
259.9927710409
 20
119.1498545522
 30
0.0
  0
SPLINE
  5
27F
100
AcDbEntity
  8
0
100
AcDbSpline
 62
7
  6
CONTINUOUS
 70
0
 71
3
 72
29
 73
25
 74
0
 42
0.0000001
 43
0.0000001
 44
0.0000000001
 40
0.0
 40
0.0
 40
0.0
 40
0.0
 40
0.000369313
 40
0.0012970392
 40
0.0028166487
 40
0.004933143
 40
0.0076465769
 40
0.0109558029
 40
0.0193551932
 40
0.0301157847
 40
0.0432107687
 40
0.0586086719
 40
0.0762749692
 40
0.0961649225
 40
0.1182314471
 40
0.1686785834
 40
0.2271305579
 40
0.2930238239
 40
0.3657249068
 40
0.4445346393
 40
0.5286922605
 40
0.6173891294
 40
0.8049421525
 40
1.0
 40
1.0
 40
1.0
 40
1.0
 10
234.5277949697
 20
108.1526885231
 30
0.0
 10
234.5277950224
 20
108.1504722142
 30
0.0
 10
234.5377980715
 20
108.1473573939
 30
0.0
 10
234.5520446692
 20
108.1442153082
 30
0.0
 10
234.5804928235
 20
108.1404933299
 30
0.0
 10
234.6178566323
 20
108.1368453529
 30
0.0
 10
234.6667773544
 20
108.1330811908
 30
0.0
 10
234.7530527194
 20
108.1276362614
 30
0.0
 10
234.8878109373
 20
108.1211340254
 30
0.0
 10
235.0812105824
 20
108.1137873807
 30
0.0
 10
235.3166763241
 20
108.1064861903
 30
0.0
 10
235.5935879721
 20
108.0992565256
 30
0.0
 10
235.9112966631
 20
108.0921357918
 30
0.0
 10
236.2690345201
 20
108.0851427886
 30
0.0
 10
236.8234822652
 20
108.0755905834
 30
0.0
 10
237.6093500893
 20
108.0643591083
 30
0.0
 10
238.6582383586
 20
108.0521769452
 30
0.0
 10
239.8406932171
 20
108.0409120862
 30
0.0
 10
241.1453317063
 20
108.0306818497
 30
0.0
 10
242.5595884674
 20
108.0215966991
 30
0.0
 10
244.0698473235
 20
108.0137477868
 30
0.0
 10
246.2326949949
 20
108.0048761996
 30
0.0
 10
249.0610834958
 20
107.99754897
 30
0.0
 10
251.3571954898
 20
107.9956108841
 30
0.0
 10
252.527770117
 20
107.9956108841
 30
0.0
  0
SPLINE
  5
280
100
AcDbEntity
  8
0
100
AcDbSpline
 62
7
  6
CONTINUOUS
 70
0
 71
3
 72
23
 73
19
 74
0
 42
0.0000001
 43
0.0000001
 44
0.0000000001
 40
0.0
 40
0.0
 40
0.0
 40
0.0
 40
0.0013399563
 40
0.0044920491
 40
0.0096121933
 40
0.0167279183
 40
0.0258457394
 40
0.0369646161
 40
0.0651917686
 40
0.1013758041
 40
0.1454724229
 40
0.1974072543
 40
0.2570945417
 40
0.3244473772
 40
0.3993600441
 40
0.5713551619
 40
0.771999214
 40
1.0
 40
1.0
 40
1.0
 40
1.0
 10
234.5277949697
 20
109.6726306461
 30
0.0
 10
234.5277950074
 20
109.6742196889
 30
0.0
 10
234.5340535767
 20
109.6770773779
 30
0.0
 10
234.5439607129
 20
109.6794357431
 30
0.0
 10
234.5626162572
 20
109.6825951978
 30
0.0
 10
234.5874851275
 20
109.6855171869
 30
0.0
 10
234.61988723
 20
109.688608429
 30
0.0
 10
234.6771381391
 20
109.6930452842
 30
0.0
 10
234.7665895876
 20
109.6983734944
 30
0.0
 10
234.8951131092
 20
109.7044051855
 30
0.0
 10
235.0517976268
 20
109.7104258259
 30
0.0
 10
235.2363648035
 20
109.7164169127
 30
0.0
 10
235.4485277515
 20
109.7223561379
 30
0.0
 10
235.6879500251
 20
109.7282287484
 30
0.0
 10
236.0605414546
 20
109.7363292378
 30
0.0
 10
236.591202669
 20
109.7460048232
 30
0.0
 10
237.3034163589
 20
109.7567405277
 30
0.0
 10
237.8117024882
 20
109.7631692865
 30
0.0
 10
238.082068071
 20
109.7663429376
 30
0.0
  0
SPLINE
  5
281
100
AcDbEntity
  8
0
100
AcDbSpline
 62
7
  6
CONTINUOUS
 70
0
 71
3
 72
10
 73
6
 74
0
 42
0.0000001
 43
0.0000001
 44
0.0000000001
 40
0.0
 40
0.0
 40
0.0
 40
0.0
 40
0.0846624403
 40
0.2736270641
 40
1.0
 40
1.0
 40
1.0
 40
1.0
 10
238.1277699965
 20
119.1498545522
 30
0.0
 10
238.1277699965
 20
119.1508814866
 30
0.0
 10
238.131383012
 20
119.1529505787
 30
0.0
 10
238.1422141273
 20
119.1557767301
 30
0.0
 10
238.153792003
 20
119.157485164
 30
0.0
 10
238.1625343027
 20
119.1585810877
 30
0.0
  0
SPLINE
  5
282
100
AcDbEntity
  8
0
100
AcDbSpline
 62
7
  6
CONTINUOUS
 70
0
 71
3
 72
23
 73
19
 74
0
 42
0.0000001
 43
0.0000001
 44
0.0000000001
 40
0.0
 40
0.0
 40
0.0
 40
0.0
 40
0.2279996568
 40
0.42864337
 40
0.6006385868
 40
0.6755514553
 40
0.7429045142
 40
0.8025920018
 40
0.8545270435
 40
0.8986239201
 40
0.9348081065
 40
0.9630353012
 40
0.9741542031
 40
0.983272076
 40
0.990387884
 40
0.9955080563
 40
0.9986601191
 40
1.0
 40
1.0
 40
1.0
 40
1.0
 10
266.9728824413
 20
109.7663498641
 30
0.0
 10
267.2432915083
 20
109.7631760667
 30
0.0
 10
267.751660165
 20
109.7567469679
 30
0.0
 10
268.4639903133
 20
109.7460106311
 30
0.0
 10
268.9947394681
 20
109.736334385
 30
0.0
 10
269.367393301
 20
109.7282333098
 30
0.0
 10
269.6068560188
 20
109.722360253
 30
0.0
 10
269.8190549041
 20
109.7164205583
 30
0.0
 10
270.0036534858
 20
109.7104289816
 30
0.0
 10
270.1603647325
 20
109.7044078576
 30
0.0
 10
270.288910116
 20
109.6983756705
 30
0.0
 10
270.3783766828
 20
109.6930469979
 30
0.0
 10
270.4356372426
 20
109.688609769
 30
0.0
 10
270.4680449499
 20
109.6855182527
 30
0.0
 10
270.4929181135
 20
109.68259605
 30
0.0
 10
270.5115770092
 20
109.6794363139
 30
0.0
 10
270.5214855498
 20
109.6770778072
 30
0.0
 10
270.5277453022
 20
109.674219863
 30
0.0
 10
270.5277452644
 20
109.6726306462
 30
0.0
  0
SPLINE
  5
283
100
AcDbEntity
  8
0
100
AcDbSpline
 62
7
  6
CONTINUOUS
 70
0
 71
3
 72
29
 73
25
 74
0
 42
0.0000001
 43
0.0000001
 44
0.0000000001
 40
0.0
 40
0.0
 40
0.0
 40
0.0
 40
0.1950570724
 40
0.3826095132
 40
0.4713062149
 40
0.5554638452
 40
0.6342737492
 40
0.7069750795
 40
0.7728685685
 40
0.8313207485
 40
0.8817680856
 40
0.9038346902
 40
0.9237247324
 40
0.9413911135
 40
0.9567890808
 40
0.9698841163
 40
0.9806447627
 40
0.9890441737
 40
0.9923534002
 40
0.995066837
 40
0.9971833436
 40
0.9987029688
 40
0.9996306944
 40
1.0
 40
1.0
 40
1.0
 40
1.0
 10
252.527770117
 20
107.9956108841
 30
0.0
 10
253.6983400942
 20
107.9956108841
 30
0.0
 10
255.9944439457
 20
107.9975489571
 30
0.0
 10
258.8228233015
 20
108.0048761256
 30
0.0
 10
260.9856665333
 20
108.0137476587
 30
0.0
 10
262.4959254724
 20
108.021596549
 30
0.0
 10
263.9101848044
 20
108.0306816777
 30
0.0
 10
265.2148271477
 20
108.0409119055
 30
0.0
 10
266.3972860642
 20
108.0521767766
 30
0.0
 10
267.4461781118
 20
108.0643589561
 30
0.0
 10
268.232048856
 20
108.0755904335
 30
0.0
 10
268.7864988203
 20
108.085142665
 30
0.0
 10
269.1442381944
 20
108.0921356808
 30
0.0
 10
269.4619483067
 20
108.0992564285
 30
0.0
 10
269.7388611511
 20
108.1064861123
 30
0.0
 10
269.9743279164
 20
108.1137873333
 30
0.0
 10
270.1677283238
 20
108.1211339783
 30
0.0
 10
270.3024870025
 20
108.1276362331
 30
0.0
 10
270.3887625061
 20
108.1330811779
 30
0.0
 10
270.4376833332
 20
108.1368453624
 30
0.0
 10
270.4750472944
 20
108.1404933207
 30
0.0
 10
270.5034956946
 20
108.1442153392
 30
0.0
 10
270.5177422235
 20
108.1473572954
 30
0.0
 10
270.5277453171
 20
108.1504722584
 30
0.0
 10
270.5277452644
 20
108.152688523
 30
0.0
  0
SPLINE
  5
284
100
AcDbEntity
  8
0
100
AcDbSpline
 62
7
  6
CONTINUOUS
 70
0
 71
3
 72
10
 73
6
 74
0
 42
0.0000001
 43
0.0000001
 44
0.0000000001
 40
0.0
 40
0.0
 40
0.0
 40
0.0
 40
0.0846624402
 40
0.2736270641
 40
1.0
 40
1.0
 40
1.0
 40
1.0
 10
266.9277702375
 20
119.1498545522
 30
0.0
 10
266.9277702375
 20
119.1488276178
 30
0.0
 10
266.924157222
 20
119.1467585257
 30
0.0
 10
266.9133261067
 20
119.1439323743
 30
0.0
 10
266.9017482311
 20
119.1422239404
 30
0.0
 10
266.8930059313
 20
119.1411280167
 30
0.0
  0
SPLINE
  5
285
100
AcDbEntity
  8
0
100
AcDbSpline
 62
7
  6
CONTINUOUS
 70
0
 71
3
 72
11
 73
7
 74
0
 42
0.0000001
 43
0.0000001
 44
0.0000000001
 40
0.0
 40
0.0
 40
0.0
 40
0.0
 40
0.1245294488
 40
0.3338725231
 40
0.6264400234
 40
1.0
 40
1.0
 40
1.0
 40
1.0
 10
264.4860308601
 20
119.1411280167
 30
0.0
 10
264.4412534062
 20
119.1364553019
 30
0.0
 10
264.3206367429
 20
119.1301176478
 30
0.0
 10
264.0943725796
 20
119.1213795932
 30
0.0
 10
263.777949409
 20
119.1130958731
 30
0.0
 10
263.5371851381
 20
119.1080997662
 30
0.0
 10
263.4021572015
 20
119.10557435
 30
0.0
  0
SPLINE
  5
286
100
AcDbEntity
  8
0
100
AcDbSpline
 62
7
  6
CONTINUOUS
 70
0
 71
3
 72
9
 73
5
 74
0
 42
0.0000001
 43
0.0000001
 44
0.0000000001
 40
0.0
 40
0.0
 40
0.0
 40
0.0
 40
0.2883031058
 40
1.0
 40
1.0
 40
1.0
 40
1.0
 10
243.3648960732
 20
119.0822355914
 30
0.0
 10
243.2004111399
 20
119.0839329479
 30
0.0
 10
242.629888398
 20
119.0902294845
 30
0.0
 10
242.0593765041
 20
119.0979810881
 30
0.0
 10
241.6533830325
 20
119.10557435
 30
0.0
  0
SPLINE
  5
287
100
AcDbEntity
  8
0
100
AcDbSpline
 62
7
  6
CONTINUOUS
 70
0
 71
3
 72
11
 73
7
 74
0
 42
0.0000001
 43
0.0000001
 44
0.0000000001
 40
0.0
 40
0.0
 40
0.0
 40
0.0
 40
0.3735599766
 40
0.6661274769
 40
0.8754705512
 40
1.0
 40
1.0
 40
1.0
 40
1.0
 10
241.6533830325
 20
119.10557435
 30
0.0
 10
241.518355096
 20
119.1080997662
 30
0.0
 10
241.277590825
 20
119.1130958731
 30
0.0
 10
240.9611676544
 20
119.1213795932
 30
0.0
 10
240.7349034912
 20
119.1301176478
 30
0.0
 10
240.6142868278
 20
119.1364553019
 30
0.0
 10
240.5695093739
 20
119.1411280167
 30
0.0
  0
SPLINE
  5
288
100
AcDbEntity
  8
0
100
AcDbSpline
 62
7
  6
CONTINUOUS
 70
0
 71
3
 72
19
 73
15
 74
0
 42
0.0000001
 43
0.0000001
 44
0.0000000001
 40
0.0
 40
0.0
 40
0.0
 40
0.0
 40
0.00445869
 40
0.0166511683
 40
0.0367789541
 40
0.0648531043
 40
0.1008606251
 40
0.1447596239
 40
0.1964836338
 40
0.2559640897
 40
0.3979091773
 40
0.5698569394
 40
0.7708967798
 40
1.0
 40
1.0
 40
1.0
 40
1.0
 10
259.9927710409
 20
119.1498545522
 30
0.0
 10
259.9927710409
 20
119.1516669278
 30
0.0
 10
259.9830424673
 20
119.1526517416
 30
0.0
 10
259.9711092622
 20
119.155345334
 30
0.0
 10
259.9450386878
 20
119.1571678841
 30
0.0
 10
259.911592284
 20
119.159585803
 30
0.0
 10
259.8674819917
 20
119.1617948712
 30
0.0
 10
259.8141238936
 20
119.1640916199
 30
0.0
 10
259.751083736
 20
119.1663499669
 30
0.0
 10
259.6482467553
 20
119.1695458627
 30
0.0
 10
259.4965154647
 20
119.1733604229
 30
0.0
 10
259.2872514932
 20
119.177630991
 30
0.0
 10
259.0425460862
 20
119.1817747398
 30
0.0
 10
258.8677188952
 20
119.1842773142
 30
0.0
 10
258.7746009278
 20
119.1855193804
 30
0.0
  0
SPLINE
  5
289
100
AcDbEntity
  8
0
100
AcDbSpline
 62
7
  6
CONTINUOUS
 70
0
 71
3
 72
9
 73
5
 74
0
 42
0.0000001
 43
0.0000001
 44
0.0000000001
 40
0.0
 40
0.0
 40
0.0
 40
0.0
 40
0.2719704885
 40
1.0
 40
1.0
 40
1.0
 40
1.0
 10
251.527770117
 20
116.0246100427
 30
0.0
 10
250.7616554667
 20
116.025075439
 30
0.0
 10
247.9447552499
 20
116.028859331
 30
0.0
 10
245.1278514979
 20
116.0395897893
 30
0.0
 10
243.0771212406
 20
116.0551561753
 30
0.0
  0
SPLINE
  5
28A
100
AcDbEntity
  8
0
100
AcDbSpline
 62
7
  6
CONTINUOUS
 70
0
 71
3
 72
10
 73
6
 74
0
 42
0.0000001
 43
0.0000001
 44
0.0000000001
 40
0.0
 40
0.0
 40
0.0
 40
0.0
 40
0.7263729359
 40
0.9153375598
 40
1.0
 40
1.0
 40
1.0
 40
1.0
 10
238.1625343027
 20
119.1411280167
 30
0.0
 10
238.153792003
 20
119.1422239404
 30
0.0
 10
238.1422141273
 20
119.1439323743
 30
0.0
 10
238.131383012
 20
119.1467585257
 30
0.0
 10
238.1277699965
 20
119.1488276178
 30
0.0
 10
238.1277699965
 20
119.1498545522
 30
0.0
  0
SPLINE
  5
28B
100
AcDbEntity
  8
0
100
AcDbSpline
 62
7
  6
CONTINUOUS
 70
0
 71
3
 72
29
 73
25
 74
0
 42
0.0000001
 43
0.0000001
 44
0.0000000001
 40
0.0
 40
0.0
 40
0.0
 40
0.0
 40
0.1950570724
 40
0.3826095132
 40
0.4713062149
 40
0.5554638452
 40
0.6342737492
 40
0.7069750795
 40
0.7728685685
 40
0.8313207485
 40
0.8817680856
 40
0.9038346902
 40
0.9237247324
 40
0.9413911135
 40
0.9567890808
 40
0.9698841163
 40
0.9806447627
 40
0.9890441737
 40
0.9923534002
 40
0.995066837
 40
0.9971833436
 40
0.9987029688
 40
0.9996306944
 40
1.0
 40
1.0
 40
1.0
 40
1.0
 10
252.527770117
 20
109.5155530071
 30
0.0
 10
251.3572001398
 20
109.5155530071
 30
0.0
 10
249.0610962883
 20
109.5174910801
 30
0.0
 10
246.2327169325
 20
109.5248182487
 30
0.0
 10
244.0698737007
 20
109.5336897818
 30
0.0
 10
242.5596147616
 20
109.541538672
 30
0.0
 10
241.1453554297
 20
109.5506238008
 30
0.0
 10
239.8407130863
 20
109.5608540285
 30
0.0
 10
238.6582541699
 20
109.5721188997
 30
0.0
 10
237.6093621223
 20
109.5843010791
 30
0.0
 10
236.823491378
 20
109.5955325566
 30
0.0
 10
236.2690414137
 20
109.605084788
 30
0.0
 10
235.9113020396
 20
109.6120778038
 30
0.0
 10
235.5935919274
 20
109.6191985516
 30
0.0
 10
235.316679083
 20
109.6264282353
 30
0.0
 10
235.0812123177
 20
109.6337294564
 30
0.0
 10
234.8878119102
 20
109.6410761014
 30
0.0
 10
234.7530532316
 20
109.6475783561
 30
0.0
 10
234.6667777279
 20
109.6530233009
 30
0.0
 10
234.6178569008
 20
109.6567874855
 30
0.0
 10
234.5804929396
 20
109.6604354438
 30
0.0
 10
234.5520445394
 20
109.6641574622
 30
0.0
 10
234.5377980105
 20
109.6672994185
 30
0.0
 10
234.527794917
 20
109.6704143814
 30
0.0
 10
234.5277949697
 20
109.6726306461
 30
0.0
  0
SPLINE
  5
28C
100
AcDbEntity
  8
0
100
AcDbSpline
 62
7
  6
CONTINUOUS
 70
0
 71
3
 72
29
 73
25
 74
0
 42
0.0000001
 43
0.0000001
 44
0.0000000001
 40
0.0
 40
0.0
 40
0.0
 40
0.0
 40
0.1950577417
 40
0.3826090153
 40
0.4713063177
 40
0.5554640847
 40
0.6342733449
 40
0.7069744589
 40
0.7728686483
 40
0.8313205256
 40
0.8817667916
 40
0.9038345943
 40
0.923724278
 40
0.9413895214
 40
0.9567890508
 40
0.9698832671
 40
0.980643113
 40
0.9890442417
 40
0.9923531867
 40
0.995065671
 40
0.9971815022
 40
0.998701518
 40
0.9996302291
 40
1.0
 40
1.0
 40
1.0
 40
1.0
 10
252.527770117
 20
109.5469685349
 30
0.0
 10
253.4642299607
 20
109.5469685349
 30
0.0
 10
255.3011119235
 20
109.548518935
 30
0.0
 10
257.5638174676
 20
109.5543808693
 30
0.0
 10
259.2940911875
 20
109.5614780221
 30
0.0
 10
260.5022996254
 20
109.5677569568
 30
0.0
 10
261.6337044
 20
109.5750252869
 30
0.0
 10
262.6774182301
 20
109.5832095447
 30
0.0
 10
263.6233868914
 20
109.5922211895
 30
0.0
 10
264.4624978807
 20
109.6019667819
 30
0.0
 10
265.0911940542
 20
109.6109528025
 30
0.0
 10
265.5347532346
 20
109.6185937859
 30
0.0
 10
265.8209435034
 20
109.6241880989
 30
0.0
 10
266.0751120628
 20
109.6298857683
 30
0.0
 10
266.296640623
 20
109.6356681603
 30
0.0
 10
266.4850139065
 20
109.6415093584
 30
0.0
 10
266.6397346919
 20
109.6473883774
 30
0.0
 10
266.7475449766
 20
109.6525879708
 30
0.0
 10
266.8165675875
 20
109.6569444093
 30
0.0
 10
266.855695314
 20
109.6599557567
 30
0.0
 10
266.8855797467
 20
109.6628759754
 30
0.0
 10
266.9083440929
 20
109.6658517347
 30
0.0
 10
266.9197446296
 20
109.6683687158
 30
0.0
 10
266.9277621796
 20
109.6708553996
 30
0.0
 10
266.9277621032
 20
109.6726306461
 30
0.0
  0
SPLINE
  5
28D
100
AcDbEntity
  8
0
100
AcDbSpline
 62
7
  6
CONTINUOUS
 70
0
 71
3
 72
11
 73
7
 74
0
 42
0.0000001
 43
0.0000001
 44
0.0000000001
 40
0.0
 40
0.0
 40
0.0
 40
0.0
 40
0.3735599766
 40
0.6661274769
 40
0.8754705512
 40
1.0
 40
1.0
 40
1.0
 40
1.0
 10
263.4021572015
 20
116.1056885808
 30
0.0
 10
263.5371851381
 20
116.108213997
 30
0.0
 10
263.777949409
 20
116.1132101039
 30
0.0
 10
264.0943725796
 20
116.121493824
 30
0.0
 10
264.3206367429
 20
116.1302318786
 30
0.0
 10
264.4412534062
 20
116.1365695327
 30
0.0
 10
264.4860308601
 20
116.1412422475
 30
0.0
  0
SPLINE
  5
28E
100
AcDbEntity
  8
0
100
AcDbSpline
 62
7
  6
CONTINUOUS
 70
0
 71
3
 72
14
 73
10
 74
0
 42
0.0000001
 43
0.0000001
 44
0.0000000001
 40
0.0
 40
0.0
 40
0.0
 40
0.0
 40
0.036548734
 40
0.0995832076
 40
0.1887132497
 40
0.3033779142
 40
0.4428143554
 40
0.6061280804
 40
1.0
 40
1.0
 40
1.0
 40
1.0
 10
266.8930059313
 20
116.1412422475
 30
0.0
 10
266.8506785707
 20
116.1359361429
 30
0.0
 10
266.7345259353
 20
116.1291102812
 30
0.0
 10
266.5145486885
 20
116.1193896839
 30
0.0
 10
266.2032054182
 20
116.1102622782
 30
0.0
 10
265.8027182686
 20
116.1009111352
 30
0.0
 10
265.3155998176
 20
116.091910825
 30
0.0
 10
264.5026185134
 20
116.0795036314
 30
0.0
 10
263.8523255742
 20
116.0721091804
 30
0.0
 10
263.3926325558
 20
116.0674973601
 30
0.0
  0
SPLINE
  5
28F
100
AcDbEntity
  8
0
100
AcDbSpline
 62
7
  6
CONTINUOUS
 70
0
 71
3
 72
9
 73
5
 74
0
 42
0.0000001
 43
0.0000001
 44
0.0000000001
 40
0.0
 40
0.0
 40
0.0
 40
0.0
 40
0.2711487455
 40
1.0
 40
1.0
 40
1.0
 40
1.0
 10
253.527770117
 20
116.0456145961
 30
0.0
 10
254.1377380961
 20
116.04605972
 30
0.0
 10
256.3873050828
 20
116.0492803414
 30
0.0
 10
258.6368731697
 20
116.0579092493
 30
0.0
 10
260.2764305985
 20
116.0700086374
 30
0.0
  0
SPLINE
  5
290
100
AcDbEntity
  8
0
100
AcDbSpline
 62
7
  6
CONTINUOUS
 70
0
 71
3
 72
9
 73
5
 74
0
 42
0.0000001
 43
0.0000001
 44
0.0000000001
 40
0.0
 40
0.0
 40
0.0
 40
0.0
 40
0.2214409286
 40
1.0
 40
1.0
 40
1.0
 40
1.0
 10
261.9784189935
 20
116.0551561753
 30
0.0
 10
261.3546590063
 20
116.0504214284
 30
0.0
 10
258.5378079844
 20
116.0327327216
 30
0.0
 10
255.7208962939
 20
116.0259423142
 30
0.0
 10
253.527770117
 20
116.0246100427
 30
0.0
  0
SPLINE
  5
291
100
AcDbEntity
  8
0
100
AcDbSpline
 62
7
  6
CONTINUOUS
 70
0
 71
3
 72
11
 73
7
 74
0
 42
0.0000001
 43
0.0000001
 44
0.0000000001
 40
0.0
 40
0.0
 40
0.0
 40
0.0
 40
0.1245294488
 40
0.3338725231
 40
0.6264400234
 40
1.0
 40
1.0
 40
1.0
 40
1.0
 10
240.5695093739
 20
116.1412422475
 30
0.0
 10
240.6142868278
 20
116.1365695327
 30
0.0
 10
240.7349034912
 20
116.1302318786
 30
0.0
 10
240.9611676544
 20
116.121493824
 30
0.0
 10
241.277590825
 20
116.1132101039
 30
0.0
 10
241.518355096
 20
116.108213997
 30
0.0
 10
241.6533830325
 20
116.1056885808
 30
0.0
  0
SPLINE
  5
292
100
AcDbEntity
  8
0
100
AcDbSpline
 62
7
  6
CONTINUOUS
 70
0
 71
3
 72
14
 73
10
 74
0
 42
0.0000001
 43
0.0000001
 44
0.0000000001
 40
0.0
 40
0.0
 40
0.0
 40
0.0
 40
0.3938719196
 40
0.5571856446
 40
0.6966220858
 40
0.8112867503
 40
0.9004167924
 40
0.963451266
 40
1.0
 40
1.0
 40
1.0
 40
1.0
 10
241.6629076782
 20
116.0674973601
 30
0.0
 10
241.2032146599
 20
116.0721091804
 30
0.0
 10
240.5529217206
 20
116.0795036314
 30
0.0
 10
239.7399404165
 20
116.091910825
 30
0.0
 10
239.2528219654
 20
116.1009111352
 30
0.0
 10
238.8523348158
 20
116.1102622782
 30
0.0
 10
238.5409915456
 20
116.1193896839
 30
0.0
 10
238.3210142988
 20
116.1291102812
 30
0.0
 10
238.2048616633
 20
116.1359361429
 30
0.0
 10
238.1625343027
 20
116.1412422475
 30
0.0
  0
LINE
  5
293
100
AcDbEntity
  8
0
100
AcDbLine
 62
7
  6
CONTINUOUS
 10
253.527770117
 20
119.0244958119
 11
252.527770117
 21
119.024192441
  0
SPLINE
  5
294
100
AcDbEntity
  8
0
100
AcDbSpline
 62
7
  6
CONTINUOUS
 70
0
 71
3
 72
29
 73
25
 74
0
 42
0.0000001
 43
0.0000001
 44
0.0000000001
 40
0.0
 40
0.0
 40
0.0
 40
0.0
 40
0.000369313
 40
0.0012970392
 40
0.0028166487
 40
0.004933143
 40
0.0076465769
 40
0.0109558029
 40
0.0193551932
 40
0.0301157847
 40
0.0432107687
 40
0.0586086719
 40
0.0762749692
 40
0.0961649225
 40
0.1182314471
 40
0.1686785834
 40
0.2271305579
 40
0.2930238239
 40
0.3657249068
 40
0.4445346393
 40
0.5286922605
 40
0.6173891294
 40
0.8049421525
 40
1.0
 40
1.0
 40
1.0
 40
1.0
 10
270.5277452644
 20
109.6726306462
 30
0.0
 10
270.5277452117
 20
109.6704143373
 30
0.0
 10
270.5177421625
 20
109.667299517
 30
0.0
 10
270.5034955648
 20
109.6641574313
 30
0.0
 10
270.4750474106
 20
109.6604354529
 30
0.0
 10
270.4376836018
 20
109.6567874759
 30
0.0
 10
270.3887628796
 20
109.6530233139
 30
0.0
 10
270.3024875147
 20
109.6475783845
 30
0.0
 10
270.1677292968
 20
109.6410761484
 30
0.0
 10
269.9743296516
 20
109.6337295037
 30
0.0
 10
269.7388639099
 20
109.6264283134
 30
0.0
 10
269.4619522619
 20
109.6191986487
 30
0.0
 10
269.144243571
 20
109.6120779149
 30
0.0
 10
268.7865057139
 20
109.6050849116
 30
0.0
 10
268.2320579688
 20
109.5955327064
 30
0.0
 10
267.4461901447
 20
109.5843012313
 30
0.0
 10
266.3973018754
 20
109.5721190682
 30
0.0
 10
265.214847017
 20
109.5608542093
 30
0.0
 10
263.9102085277
 20
109.5506239728
 30
0.0
 10
262.4959517666
 20
109.5415388221
 30
0.0
 10
260.9856929105
 20
109.5336899098
 30
0.0
 10
258.8228452392
 20
109.5248183227
 30
0.0
 10
255.9944567383
 20
109.517491093
 30
0.0
 10
253.6983447443
 20
109.5155530071
 30
0.0
 10
252.527770117
 20
109.5155530071
 30
0.0
  0
LINE
  5
295
100
AcDbEntity
  8
0
100
AcDbLine
 62
7
  6
CONTINUOUS
 10
252.527770117
 20
119.024192441
 11
251.527770117
 21
119.0244958119
  0
SPLINE
  5
296
100
AcDbEntity
  8
0
100
AcDbSpline
 62
7
  6
CONTINUOUS
 70
0
 71
3
 72
29
 73
25
 74
0
 42
0.0000001
 43
0.0000001
 44
0.0000000001
 40
0.0
 40
0.0
 40
0.0
 40
0.0
 40
0.0003697785
 40
0.0012984855
 40
0.0028184903
 40
0.00493431
 40
0.0076467887
 40
0.0109557403
 40
0.0193568501
 40
0.0301166495
 40
0.0432108532
 40
0.0586103455
 40
0.0762755311
 40
0.0961651981
 40
0.118232954
 40
0.1686791129
 40
0.2271307785
 40
0.2930246981
 40
0.3657255237
 40
0.4445345175
 40
0.5286922509
 40
0.6173897328
 40
0.8049415794
 40
1.0
 40
1.0
 40
1.0
 40
1.0
 10
238.1277781309
 20
109.6726306461
 30
0.0
 10
238.1277782074
 20
109.6708553629
 30
0.0
 10
238.135795554
 20
109.6683688138
 30
0.0
 10
238.14719627
 20
109.6658516921
 30
0.0
 10
238.1699603619
 20
109.6628760024
 30
0.0
 10
238.199844713
 20
109.6599557539
 30
0.0
 10
238.238972369
 20
109.6569444208
 30
0.0
 10
238.3079949049
 20
109.6525880054
 30
0.0
 10
238.4158049001
 20
109.6473884106
 30
0.0
 10
238.5705253134
 20
109.6415093825
 30
0.0
 10
238.7588981343
 20
109.6356682141
 30
0.0
 10
238.9804261779
 20
109.6298858224
 30
0.0
 10
239.2345942003
 20
109.6241881451
 30
0.0
 10
239.5207838871
 20
109.6185938538
 30
0.0
 10
239.9643422476
 20
109.6109528635
 30
0.0
 10
240.5930366653
 20
109.601966867
 30
0.0
 10
241.4321448266
 20
109.5922212766
 30
0.0
 10
242.3781097902
 20
109.5832096533
 30
0.0
 10
243.4218196597
 20
109.575025416
 30
0.0
 10
244.5532216078
 20
109.567757063
 30
0.0
 10
245.7614294647
 20
109.5614781156
 30
0.0
 10
247.4917066332
 20
109.5543809296
 30
0.0
 10
249.7544190453
 20
109.5485189421
 30
0.0
 10
251.5913070156
 20
109.5469685349
 30
0.0
 10
252.527770117
 20
109.5469685349
 30
0.0
  0
SPLINE
  5
297
100
AcDbEntity
  8
0
100
AcDbSpline
 62
7
  6
CONTINUOUS
 70
0
 71
3
 72
9
 73
5
 74
0
 42
0.0000001
 43
0.0000001
 44
0.0000000001
 40
0.0
 40
0.0
 40
0.0
 40
0.0
 40
0.2711487455
 40
1.0
 40
1.0
 40
1.0
 40
1.0
 10
251.527770117
 20
119.0455003653
 30
0.0
 10
250.9178021379
 20
119.0459454892
 30
0.0
 10
248.6682351512
 20
119.0491661106
 30
0.0
 10
246.4186670643
 20
119.0577950185
 30
0.0
 10
244.7791096356
 20
119.0698944066
 30
0.0
  0
SPLINE
  5
298
100
AcDbEntity
  8
0
100
AcDbSpline
 62
7
  6
CONTINUOUS
 70
0
 71
3
 72
19
 73
15
 74
0
 42
0.0000001
 43
0.0000001
 44
0.0000000001
 40
0.0
 40
0.0
 40
0.0
 40
0.0
 40
0.2291031957
 40
0.4301430325
 40
0.602090794
 40
0.7440358926
 40
0.8035163523
 40
0.8552403652
 40
0.8991393677
 40
0.9351468936
 40
0.9632210471
 40
0.9833488342
 40
0.9955413122
 40
1.0
 40
1.0
 40
1.0
 40
1.0
 10
246.2809461017
 20
119.185519471
 30
0.0
 10
246.1878276252
 20
119.1842774026
 30
0.0
 10
246.0129994713
 20
119.1817748231
 30
0.0
 10
245.7682927121
 20
119.1776310655
 30
0.0
 10
245.5590275715
 20
119.1733604869
 30
0.0
 10
245.4072954292
 20
119.1695459173
 30
0.0
 10
245.3044578679
 20
119.1663500129
 30
0.0
 10
245.2414173545
 20
119.1640916599
 30
0.0
 10
245.1880589541
 20
119.1617949046
 30
0.0
 10
245.1439484102
 20
119.1595858312
 30
0.0
 10
245.1105018169
 20
119.1571679036
 30
0.0
 10
245.0844310923
 20
119.155345353
 30
0.0
 10
245.0724978249
 20
119.152651745
 30
0.0
 10
245.0627691932
 20
119.151666937
 30
0.0
 10
245.0627691932
 20
119.1498545522
 30
0.0
  0
SPLINE
  5
299
100
AcDbEntity
  8
0
100
AcDbSpline
 62
7
  6
CONTINUOUS
 70
0
 71
3
 72
26
 73
22
 74
0
 42
0.0000001
 43
0.0000001
 44
0.0000000001
 40
0.0
 40
0.0
 40
0.0
 40
0.0
 40
0.2179332564
 40
0.4147436363
 40
0.5041916422
 40
0.5871597284
 40
0.6633096258
 40
0.732318
 40
0.79390447
 40
0.8478083314
 40
0.8938093171
 40
0.9317160404
 40
0.9475826246
 40
0.9613714735
 40
0.9730685013
 40
0.9826601443
 40
0.9901379176
 40
0.9955005247
 40
0.9987546638
 40
0.999606469
 40
1.0
 40
1.0
 40
1.0
 40
1.0
 10
261.4453560294
 20
126.0204447281
 30
0.0
 10
262.0603859305
 20
126.0236527989
 30
0.0
 10
263.230830634
 20
126.0306065473
 30
0.0
 10
264.6536888975
 20
126.0416004559
 30
0.0
 10
265.6956513321
 20
126.0514752471
 30
0.0
 10
266.3970988286
 20
126.0590485233
 30
0.0
 10
267.0408548022
 20
126.066988743
 30
0.0
 10
267.6242592149
 20
126.0752627647
 30
0.0
 10
268.1448706581
 20
126.0838284136
 30
0.0
 10
268.6005372159
 20
126.0926399432
 30
0.0
 10
268.9893583861
 20
126.10165386
 30
0.0
 10
269.2708213972
 20
126.1096656389
 30
0.0
 10
269.4613793694
 20
126.1163438822
 30
0.0
 10
269.5779766959
 20
126.1210683334
 30
0.0
 10
269.6768878481
 20
126.1258138124
 30
0.0
 10
269.7578530855
 20
126.1305120063
 30
0.0
 10
269.8212013984
 20
126.1352639324
 30
0.0
 10
269.8659211158
 20
126.1396599042
 30
0.0
 10
269.893185316
 20
126.1440011001
 30
0.0
 10
269.904619785
 20
126.1471761787
 30
0.0
 10
269.9082778918
 20
126.149520083
 30
0.0
 10
269.9082778659
 20
126.1506306826
 30
0.0
  0
SPLINE
  5
29A
100
AcDbEntity
  8
0
100
AcDbSpline
 62
7
  6
CONTINUOUS
 70
0
 71
3
 72
26
 73
22
 74
0
 42
0.0000001
 43
0.0000001
 44
0.0000000001
 40
0.0
 40
0.0
 40
0.0
 40
0.0
 40
0.000382266
 40
0.0012414712
 40
0.0045468192
 40
0.0100016827
 40
0.0176097402
 40
0.0273678684
 40
0.0392654695
 40
0.0532855217
 40
0.0694104183
 40
0.1079011681
 40
0.1545466095
 40
0.2091124513
 40
0.2713316153
 40
0.3408869033
 40
0.417439294
 40
0.5005988904
 40
0.589958345
 40
0.785443992
 40
1.0
 40
1.0
 40
1.0
 40
1.0
 10
240.647262288
 20
140.1500976055
 30
0.0
 10
240.6472617936
 20
140.1509671046
 30
0.0
 10
240.650368081
 20
140.1526962514
 30
0.0
 10
240.6596022728
 20
140.1550716743
 30
0.0
 10
240.6820998698
 20
140.1583132875
 30
0.0
 10
240.7187085644
 20
140.1616057343
 30
0.0
 10
240.7707091785
 20
140.1651585358
 30
0.0
 10
240.8370993866
 20
140.1686702463
 30
0.0
 10
240.918200079
 20
140.1722127141
 30
0.0
 10
241.013755379
 20
140.1757353381
 30
0.0
 10
241.1697992166
 20
140.1807055855
 30
0.0
 10
241.4000493799
 20
140.1866505077
 30
0.0
 10
241.7177464709
 20
140.1933102893
 30
0.0
 10
242.0894280287
 20
140.1997842457
 30
0.0
 10
242.5132306343
 20
140.2060341278
 30
0.0
 10
242.9870517008
 20
140.2120218732
 30
0.0
 10
243.5085104821
 20
140.217710995
 30
0.0
 10
244.075021267
 20
140.2230735912
 30
0.0
 10
244.9120538531
 20
140.2299526561
 30
0.0
 10
246.0479641922
 20
140.2373983215
 30
0.0
 10
246.9806313697
 20
140.2418993637
 30
0.0
 10
247.4686547113
 20
140.2439034731
 30
0.0
  0
SPLINE
  5
29B
100
AcDbEntity
  8
0
100
AcDbSpline
 62
7
  6
CONTINUOUS
 70
0
 71
3
 72
9
 73
5
 74
0
 42
0.0000001
 43
0.0000001
 44
0.0000000001
 40
0.0
 40
0.0
 40
0.0
 40
0.0
 40
0.5420436547
 40
1.0
 40
1.0
 40
1.0
 40
1.0
 10
252.527770117
 20
122.0732868398
 30
0.0
 10
253.6709304559
 20
122.0732868398
 30
0.0
 10
255.7799124558
 20
122.0767805093
 30
0.0
 10
257.8888767099
 20
122.087845975
 30
0.0
 10
258.8546605235
 20
122.0964020308
 30
0.0
  0
SPLINE
  5
29C
100
AcDbEntity
  8
0
100
AcDbSpline
 62
7
  6
CONTINUOUS
 70
0
 71
3
 72
21
 73
17
 74
0
 42
0.0000001
 43
0.0000001
 44
0.0000000001
 40
0.0
 40
0.0
 40
0.0
 40
0.0
 40
0.2250552322
 40
0.4246067903
 40
0.5967534827
 40
0.7398923481
 40
0.8001404491
 40
0.8526575865
 40
0.8973157826
 40
0.9340003981
 40
0.9626406434
 40
0.9831782487
 40
0.9903939453
 40
0.9955739167
 40
0.9987372283
 40
1.0
 40
1.0
 40
1.0
 40
1.0
 10
258.8546605235
 20
122.0964020308
 30
0.0
 10
259.0463460976
 20
122.0981002084
 30
0.0
 10
259.4079925496
 20
122.1015961612
 30
0.0
 10
259.9162490399
 20
122.1075722917
 30
0.0
 10
260.3547207003
 20
122.1139242825
 30
0.0
 10
260.6745356276
 20
122.1197317226
 30
0.0
 10
260.8924463799
 20
122.1246664598
 30
0.0
 10
261.0264935363
 20
122.1282018478
 30
0.0
 10
261.1404360873
 20
122.1317732795
 30
0.0
 10
261.2340997251
 20
122.1353592865
 30
0.0
 10
261.3070143516
 20
122.1389378665
 30
0.0
 10
261.3552257254
 20
122.1421182607
 30
0.0
 10
261.3827772811
 20
122.1448221006
 30
0.0
 10
261.396528309
 20
122.146646905
 30
0.0
 10
261.4034353293
 20
122.1481729613
 30
0.0
 10
261.4082618571
 20
122.1497074116
 30
0.0
 10
261.4082616284
 20
122.1507829903
 30
0.0
  0
SPLINE
  5
29D
100
AcDbEntity
  8
0
100
AcDbSpline
 62
7
  6
CONTINUOUS
 70
0
 71
3
 72
23
 73
19
 74
0
 42
0.0000001
 43
0.0000001
 44
0.0000000001
 40
0.0
 40
0.0
 40
0.0
 40
0.0
 40
0.2242904153
 40
0.4235444941
 40
0.5957282746
 40
0.6711102812
 40
0.7390857725
 40
0.7994808816
 40
0.8521487911
 40
0.8969469582
 40
0.9337657913
 40
0.9625188195
 40
0.97384508
 40
0.9831294222
 40
0.990370865
 40
0.9955717974
 40
0.9987464806
 40
1.0
 40
1.0
 40
1.0
 40
1.0
 10
264.5179058547
 20
128.2603558291
 30
0.0
 10
264.9211404154
 20
128.2570025143
 30
0.0
 10
265.6825939357
 20
128.2500719613
 30
0.0
 10
266.7535794403
 20
128.2381298869
 30
0.0
 10
267.5568357534
 20
128.227070538
 30
0.0
 10
268.1240649808
 20
128.2176375566
 30
0.0
 10
268.4903234845
 20
128.2107192333
 30
0.0
 10
268.8157353525
 20
128.2036629357
 30
0.0
 10
269.0994579381
 20
128.1964934836
 30
0.0
 10
269.3407908813
 20
128.1892451638
 30
0.0
 10
269.5390589403
 20
128.1819424555
 30
0.0
 10
269.6772396346
 20
128.1754824694
 30
0.0
 10
269.7657154119
 20
128.170063947
 30
0.0
 10
269.8158853123
 20
128.1663250978
 30
0.0
 10
269.8541765951
 20
128.1626785079
 30
0.0
 10
269.8834045315
 20
128.1590119591
 30
0.0
 10
269.8979240025
 20
128.1558228834
 30
0.0
 10
269.9082779185
 20
128.1528082131
 30
0.0
 10
269.9082778659
 20
128.1505545287
 30
0.0
  0
SPLINE
  5
29E
100
AcDbEntity
  8
0
100
AcDbSpline
 62
7
  6
CONTINUOUS
 70
0
 71
3
 72
26
 73
22
 74
0
 42
0.0000001
 43
0.0000001
 44
0.0000000001
 40
0.0
 40
0.0
 40
0.0
 40
0.0
 40
0.2145570627
 40
0.4100437095
 40
0.4994036244
 40
0.5825634162
 40
0.6591159735
 40
0.7286712369
 40
0.7908900855
 40
0.8454558423
 40
0.8921005176
 40
0.9305911916
 40
0.9467156683
 40
0.9607352171
 40
0.9726325707
 40
0.9823908955
 40
0.989998785
 40
0.9954532452
 40
0.9987583332
 40
0.9996175768
 40
1.0
 40
1.0
 40
1.0
 40
1.0
 10
257.5874182125
 20
140.243901295
 30
0.0
 10
258.0754058239
 20
140.2418970745
 30
0.0
 10
259.0080048054
 20
140.2373958671
 30
0.0
 10
260.1438321148
 20
140.2299501067
 30
0.0
 10
260.9808030674
 20
140.2230710789
 30
0.0
 10
261.5472714592
 20
140.2177085124
 30
0.0
 10
262.0686902638
 20
140.212019477
 30
0.0
 10
262.5424739139
 20
140.2060318802
 30
0.0
 10
262.966242436
 20
140.1997820754
 30
0.0
 10
263.3378922998
 20
140.1933084502
 30
0.0
 10
263.6555624496
 20
140.1866486973
 30
0.0
 10
263.8857917553
 20
140.1807041877
 30
0.0
 10
264.041821116
 20
140.1757340929
 30
0.0
 10
264.1373662917
 20
140.1722115715
 30
0.0
 10
264.2184593443
 20
140.1686692307
 30
0.0
 10
264.2848439568
 20
140.1651577185
 30
0.0
 10
264.3368394206
 20
140.1616055145
 30
0.0
 10
264.3734438941
 20
140.158312254
 30
0.0
 10
264.3959373202
 20
140.1550722889
 30
0.0
 10
264.4051714856
 20
140.1526952758
 30
0.0
 10
264.4082774516
 20
140.1509673944
 30
0.0
 10
264.4082779461
 20
140.1500976055
 30
0.0
  0
SPLINE
  5
29F
100
AcDbEntity
  8
0
100
AcDbSpline
 62
7
  6
CONTINUOUS
 70
0
 71
3
 72
23
 73
19
 74
0
 42
0.0000001
 43
0.0000001
 44
0.0000000001
 40
0.0
 40
0.0
 40
0.0
 40
0.0
 40
0.0012535413
 40
0.0044282191
 40
0.0096291328
 40
0.0168705572
 40
0.0261548948
 40
0.0374811719
 40
0.0662341416
 40
0.1030528769
 40
0.1478510391
 40
0.2005188553
 40
0.2609138827
 40
0.328889428
 40
0.4042713997
 40
0.5764553017
 40
0.7757094394
 40
1.0
 40
1.0
 40
1.0
 40
1.0
 10
235.1472623681
 20
128.1505545287
 30
0.0
 10
235.1472624207
 20
128.1528081567
 30
0.0
 10
235.1576156912
 20
128.1558227343
 30
0.0
 10
235.1721347399
 20
128.1590117911
 30
0.0
 10
235.2013612223
 20
128.1626782427
 30
0.0
 10
235.239650846
 20
128.1663247635
 30
0.0
 10
235.2898185739
 20
128.1700635274
 30
0.0
 10
235.3782905055
 20
128.175481913
 30
0.0
 10
235.5164650538
 20
128.1819417738
 30
0.0
 10
235.714724381
 20
128.1892443357
 30
0.0
 10
235.9560466949
 20
128.1964924826
 30
0.0
 10
236.2397568769
 20
128.2036618061
 30
0.0
 10
236.5651546733
 20
128.2107179777
 30
0.0
 10
236.9313974728
 20
128.2176361601
 30
0.0
 10
237.4986028057
 20
128.227069009
 30
0.0
 10
238.3018251881
 20
128.2381281762
 30
0.0
 10
239.3727656904
 20
128.2500701256
 30
0.0
 10
240.1341871665
 20
128.2570006217
 30
0.0
 10
240.5374048248
 20
128.2603539206
 30
0.0
  0
SPLINE
  5
2A0
100
AcDbEntity
  8
0
100
AcDbSpline
 62
7
  6
CONTINUOUS
 70
0
 71
3
 72
26
 73
22
 74
0
 42
0.0000001
 43
0.0000001
 44
0.0000000001
 40
0.0
 40
0.0
 40
0.0
 40
0.0
 40
0.0003935477
 40
0.0012453519
 40
0.0044994524
 40
0.0098619912
 40
0.017339686
 40
0.026931243
 40
0.0386281305
 40
0.0524168037
 40
0.0682832046
 40
0.1061895705
 40
0.1521900863
 40
0.2060935647
 40
0.2676796052
 40
0.3366876595
 40
0.4128372595
 40
0.4958051603
 40
0.5852531281
 40
0.7820642295
 40
1.0
 40
1.0
 40
1.0
 40
1.0
 10
235.1472623681
 20
126.1506306826
 30
0.0
 10
235.147262394
 20
126.1495201792
 30
0.0
 10
235.1509198912
 20
126.1471764778
 30
0.0
 10
235.1623529228
 20
126.1440015241
 30
0.0
 10
235.1896130925
 20
126.1396607026
 30
0.0
 10
235.2343265785
 20
126.1352649873
 30
0.0
 10
235.2976659898
 20
126.1305134151
 30
0.0
 10
235.3786199098
 20
126.1258155531
 30
0.0
 10
235.4775171321
 20
126.1210703941
 30
0.0
 10
235.5940979806
 20
126.1163462593
 30
0.0
 10
235.7846293046
 20
126.1096684569
 30
0.0
 10
236.0660530995
 20
126.1016572155
 30
0.0
 10
236.4548206228
 20
126.0926438201
 30
0.0
 10
236.9104247014
 20
126.0838328218
 30
0.0
 10
237.4309657016
 20
126.0752675986
 30
0.0
 10
238.0142918058
 20
126.0669939812
 30
0.0
 10
238.6579623654
 20
126.0590540727
 30
0.0
 10
239.3593177938
 20
126.0514810496
 30
0.0
 10
240.4011470563
 20
126.0416064767
 30
0.0
 10
241.8238305731
 20
126.0306126004
 30
0.0
 10
242.99413324
 20
126.0236586688
 30
0.0
 10
243.6090908027
 20
126.020450441
 30
0.0
  0
SPLINE
  5
2A1
100
AcDbEntity
  8
0
100
AcDbSpline
 62
7
  6
CONTINUOUS
 70
0
 71
3
 72
21
 73
17
 74
0
 42
0.0000001
 43
0.0000001
 44
0.0000000001
 40
0.0
 40
0.0
 40
0.0
 40
0.0
 40
0.001263021
 40
0.0044265072
 40
0.0096063554
 40
0.0168216599
 40
0.0373595805
 40
0.0660007547
 40
0.1026856034
 40
0.1473436576
 40
0.1998614452
 40
0.2601100089
 40
0.4032484956
 40
0.5753949577
 40
0.7749456011
 40
1.0
 40
1.0
 40
1.0
 40
1.0
 10
243.6472786057
 20
122.1507829904
 30
0.0
 10
243.6472788345
 20
122.1497071711
 30
0.0
 10
243.6521055627
 20
122.1481733278
 30
0.0
 10
243.6590134102
 20
122.146646649
 30
0.0
 10
243.6727642341
 20
122.1448220799
 30
0.0
 10
243.7003164943
 20
122.1421178221
 30
0.0
 10
243.7485297721
 20
122.1389376724
 30
0.0
 10
243.8214476277
 20
122.1353589879
 30
0.0
 10
243.9151145809
 20
122.1317729203
 30
0.0
 10
244.0290607698
 20
122.1282013735
 30
0.0
 10
244.1631122824
 20
122.1246660068
 30
0.0
 10
244.3810293988
 20
122.1197312334
 30
0.0
 10
244.7008526199
 20
122.1139237078
 30
0.0
 10
245.1393345261
 20
122.1075717284
 30
0.0
 10
245.6476027103
 20
122.1015955572
 30
0.0
 10
246.0092571933
 20
122.0980996148
 30
0.0
 10
246.2009471033
 20
122.0964014341
 30
0.0
  0
SPLINE
  5
2A2
100
AcDbEntity
  8
0
100
AcDbSpline
 62
7
  6
CONTINUOUS
 70
0
 71
3
 72
9
 73
5
 74
0
 42
0.0000001
 43
0.0000001
 44
0.0000000001
 40
0.0
 40
0.0
 40
0.0
 40
0.0
 40
0.4579535495
 40
1.0
 40
1.0
 40
1.0
 40
1.0
 10
246.2009471033
 20
122.0964014341
 30
0.0
 10
247.1667147348
 20
122.0878457
 30
0.0
 10
249.2756565239
 20
122.0767804524
 30
0.0
 10
251.384616059
 20
122.0732868398
 30
0.0
 10
252.527770117
 20
122.0732868398
 30
0.0
  0
SPLINE
  5
2A3
100
AcDbEntity
  8
0
100
AcDbSpline
 62
7
  6
CONTINUOUS
 70
0
 71
3
 72
29
 73
25
 74
0
 42
0.0000001
 43
0.0000001
 44
0.0000000001
 40
0.0
 40
0.0
 40
0.0
 40
0.0
 40
0.1950573715
 40
0.3826055235
 40
0.4713042479
 40
0.5554611349
 40
0.634269677
 40
0.7069736536
 40
0.7728673002
 40
0.8313198271
 40
0.8817677335
 40
0.903834618
 40
0.9237238639
 40
0.9413903225
 40
0.9567892692
 40
0.9698828344
 40
0.9806433482
 40
0.9890443668
 40
0.9923529139
 40
0.9950652366
 40
0.9971810808
 40
0.9987012204
 40
0.9996301002
 40
1.0
 40
1.0
 40
1.0
 40
1.0
 10
252.527770117
 20
128.0468787717
 30
0.0
 10
253.3003814487
 20
128.0468787717
 30
0.0
 10
254.8158608059
 20
128.0481576849
 30
0.0
 10
256.6826654477
 20
128.052994554
 30
0.0
 10
258.1101928143
 20
128.0588492731
 30
0.0
 10
259.107007205
 20
128.0640297889
 30
0.0
 10
260.0404615363
 20
128.0700267309
 30
0.0
 10
260.9015690523
 20
128.076778318
 30
0.0
 10
261.6820387204
 20
128.0842139684
 30
0.0
 10
262.3743421572
 20
128.0922545137
 30
0.0
 10
262.8930443842
 20
128.0996677818
 30
0.0
 10
263.2589976609
 20
128.1059722891
 30
0.0
 10
263.4951142827
 20
128.110588188
 30
0.0
 10
263.7048132031
 20
128.1152882781
 30
0.0
 10
263.8875820954
 20
128.1200592137
 30
0.0
 10
264.0429945163
 20
128.1248788694
 30
0.0
 10
264.170644344
 20
128.1297287485
 30
0.0
 10
264.2595923022
 20
128.1340183793
 30
0.0
 10
264.3165357817
 20
128.1376130267
 30
0.0
 10
264.3488152965
 20
128.140097357
 30
0.0
 10
264.3734711081
 20
128.1425069443
 30
0.0
 10
264.3922533837
 20
128.1449613601
 30
0.0
 10
264.4016613561
 20
128.1470392121
 30
0.0
 10
264.4082771131
 20
128.1490893768
 30
0.0
 10
264.4082779461
 20
128.1505545287
 30
0.0
  0
SPLINE
  5
2A4
100
AcDbEntity
  8
0
100
AcDbSpline
 62
7
  6
CONTINUOUS
 70
0
 71
3
 72
29
 73
25
 74
0
 42
0.0000001
 43
0.0000001
 44
0.0000000001
 40
0.0
 40
0.0
 40
0.0
 40
0.0
 40
0.1950573715
 40
0.3826055235
 40
0.4713042479
 40
0.5554611349
 40
0.634269677
 40
0.7069736536
 40
0.7728673002
 40
0.8313198271
 40
0.8817677335
 40
0.903834618
 40
0.9237238639
 40
0.9413903225
 40
0.9567892692
 40
0.9698828344
 40
0.9806433482
 40
0.9890443668
 40
0.9923529139
 40
0.9950652366
 40
0.9971810808
 40
0.9987012204
 40
0.9996301002
 40
1.0
 40
1.0
 40
1.0
 40
1.0
 10
252.527770117
 20
140.0464218485
 30
0.0
 10
251.7551587853
 20
140.0464218485
 30
0.0
 10
250.2396794281
 20
140.0477007616
 30
0.0
 10
248.3728747864
 20
140.0525376307
 30
0.0
 10
246.9453474197
 20
140.0583923499
 30
0.0
 10
245.948533029
 20
140.0635728656
 30
0.0
 10
245.0150786977
 20
140.0695698077
 30
0.0
 10
244.1539711817
 20
140.0763213947
 30
0.0
 10
243.3735015136
 20
140.0837570452
 30
0.0
 10
242.6811980768
 20
140.0917975904
 30
0.0
 10
242.1624958499
 20
140.0992108586
 30
0.0
 10
241.7965425731
 20
140.1055153658
 30
0.0
 10
241.5604259513
 20
140.1101312647
 30
0.0
 10
241.350727031
 20
140.1148313548
 30
0.0
 10
241.1679581387
 20
140.1196022904
 30
0.0
 10
241.0125457178
 20
140.1244219462
 30
0.0
 10
240.8848958901
 20
140.1292718253
 30
0.0
 10
240.7959479319
 20
140.133561456
 30
0.0
 10
240.7390044523
 20
140.1371561035
 30
0.0
 10
240.7067249376
 20
140.1396404338
 30
0.0
 10
240.682069126
 20
140.1420500211
 30
0.0
 10
240.6632868504
 20
140.1445044369
 30
0.0
 10
240.653878878
 20
140.1465822889
 30
0.0
 10
240.647263121
 20
140.1486324535
 30
0.0
 10
240.647262288
 20
140.1500976055
 30
0.0
  0
SPLINE
  5
2A5
100
AcDbEntity
  8
0
100
AcDbSpline
 62
7
  6
CONTINUOUS
 70
0
 71
3
 72
29
 73
25
 74
0
 42
0.0000001
 43
0.0000001
 44
0.0000000001
 40
0.0
 40
0.0
 40
0.0
 40
0.0
 40
0.0003697798
 40
0.0012986757
 40
0.0028189225
 40
0.0049348936
 40
0.0076472901
 40
0.0109557853
 40
0.0193566006
 40
0.0301172887
 40
0.0432109194
 40
0.0586095769
 40
0.0762760174
 40
0.0961652282
 40
0.1182317512
 40
0.1686792011
 40
0.2271309069
 40
0.2930237698
 40
0.3657268788
 40
0.4445347262
 40
0.5286911366
 40
0.6173897803
 40
0.80493902
 40
1.0
 40
1.0
 40
1.0
 40
1.0
 10
240.647262288
 20
128.1505545287
 30
0.0
 10
240.6472614552
 20
128.1490898517
 30
0.0
 10
240.6538789446
 20
128.1470380465
 30
0.0
 10
240.6632847788
 20
128.1449618876
 30
0.0
 10
240.6820693268
 20
128.1425066544
 30
0.0
 10
240.7067258131
 20
128.14009746
 30
0.0
 10
240.7390061265
 20
128.1376129931
 30
0.0
 10
240.7959487888
 20
128.1340183505
 30
0.0
 10
240.884896485
 20
128.1297285432
 30
0.0
 10
241.012546441
 20
128.1248788777
 30
0.0
 10
241.1679586799
 20
128.1200592354
 30
0.0
 10
241.3507266124
 20
128.1152881894
 30
0.0
 10
241.5604241853
 20
128.1105882068
 30
0.0
 10
241.7965391708
 20
128.1059723762
 30
0.0
 10
242.1624890771
 20
128.0996678116
 30
0.0
 10
242.6811848273
 20
128.092254723
 30
0.0
 10
243.3734801171
 20
128.0842141578
 30
0.0
 10
244.1539400132
 20
128.0767786007
 30
0.0
 10
245.0150382591
 20
128.0700270082
 30
0.0
 10
245.9484845389
 20
128.0640300785
 30
0.0
 10
246.9452939965
 20
128.0588495183
 30
0.0
 10
248.3728235012
 20
128.0529947241
 30
0.0
 10
250.2396464733
 20
128.0481577168
 30
0.0
 10
251.7551444716
 20
128.0468787717
 30
0.0
 10
252.527770117
 20
128.0468787717
 30
0.0
  0
SPLINE
  5
2A6
100
AcDbEntity
  8
0
100
AcDbSpline
 62
7
  6
CONTINUOUS
 70
0
 71
3
 72
29
 73
25
 74
0
 42
0.0000001
 43
0.0000001
 44
0.0000000001
 40
0.0
 40
0.0
 40
0.0
 40
0.0
 40
0.0003697758
 40
0.001298481
 40
0.0028184844
 40
0.0049343024
 40
0.0076467783
 40
0.0109557248
 40
0.0193568223
 40
0.0301166097
 40
0.043210804
 40
0.0586102872
 40
0.0762754642
 40
0.0961651258
 40
0.1182328764
 40
0.1686790415
 40
0.2271307428
 40
0.2930247135
 40
0.3657255939
 40
0.4445346385
 40
0.5286923754
 40
0.6173898029
 40
0.8049415123
 40
1.0
 40
1.0
 40
1.0
 40
1.0
 10
269.9082778659
 20
128.1505545287
 30
0.0
 10
269.908277816
 20
128.1484118125
 30
0.0
 10
269.8986010175
 20
128.1454105542
 30
0.0
 10
269.8848406576
 20
128.1423724848
 30
0.0
 10
269.8573648454
 20
128.1387808665
 30
0.0
 10
269.8212950663
 20
128.1352561971
 30
0.0
 10
269.7740688037
 20
128.1316215762
 30
0.0
 10
269.6907600767
 20
128.1263634723
 30
0.0
 10
269.5606356967
 20
128.1200876648
 30
0.0
 10
269.3738913903
 20
128.1129917968
 30
0.0
 10
269.1465292688
 20
128.1059416239
 30
0.0
 10
268.8791494243
 20
128.0989623906
 30
0.0
 10
268.5723737428
 20
128.0920854045
 30
0.0
 10
268.2269485186
 20
128.0853332045
 30
0.0
 10
267.6915823076
 20
128.0761106749
 30
0.0
 10
266.9327602703
 20
128.0652647482
 30
0.0
 10
265.9199726461
 20
128.0535020028
 30
0.0
 10
264.7782106777
 20
128.0426251426
 30
0.0
 10
263.5184724371
 20
128.0327469212
 30
0.0
 10
262.1528918554
 20
128.0239741617
 30
0.0
 10
260.6946086802
 20
128.0163955968
 30
0.0
 10
258.606199181
 20
128.0078294384
 30
0.0
 10
255.8751504215
 20
128.0007541379
 30
0.0
 10
253.6580630929
 20
127.9988828265
 30
0.0
 10
252.527770117
 20
127.9988828265
 30
0.0
  0
SPLINE
  5
2A7
100
AcDbEntity
  8
0
100
AcDbSpline
 62
7
  6
CONTINUOUS
 70
0
 71
3
 72
29
 73
25
 74
0
 42
0.0000001
 43
0.0000001
 44
0.0000000001
 40
0.0
 40
0.0
 40
0.0
 40
0.0
 40
0.0003697798
 40
0.0012986757
 40
0.0028189225
 40
0.0049348936
 40
0.0076472901
 40
0.0109557853
 40
0.0193566006
 40
0.0301172887
 40
0.0432109194
 40
0.0586095769
 40
0.0762760174
 40
0.0961652282
 40
0.1182317512
 40
0.1686792011
 40
0.2271309069
 40
0.2930237698
 40
0.3657268788
 40
0.4445347262
 40
0.5286911366
 40
0.6173897803
 40
0.80493902
 40
1.0
 40
1.0
 40
1.0
 40
1.0
 10
264.4082779461
 20
140.1500976055
 30
0.0
 10
264.4082787788
 20
140.1486329285
 30
0.0
 10
264.4016612895
 20
140.1465811233
 30
0.0
 10
264.3922554552
 20
140.1445049644
 30
0.0
 10
264.3734709073
 20
140.1420497312
 30
0.0
 10
264.348814421
 20
140.1396405367
 30
0.0
 10
264.3165341075
 20
140.1371560699
 30
0.0
 10
264.2595914453
 20
140.1335614273
 30
0.0
 10
264.170643749
 20
140.1292716199
 30
0.0
 10
264.0429937931
 20
140.1244219544
 30
0.0
 10
263.8875815541
 20
140.1196023122
 30
0.0
 10
263.7048136216
 20
140.1148312661
 30
0.0
 10
263.4951160488
 20
140.1101312836
 30
0.0
 10
263.2590010632
 20
140.105515453
 30
0.0
 10
262.893051157
 20
140.0992108884
 30
0.0
 10
262.3743554067
 20
140.0917977998
 30
0.0
 10
261.6820601169
 20
140.0837572346
 30
0.0
 10
260.9016002209
 20
140.0763216775
 30
0.0
 10
260.040501975
 20
140.069570085
 30
0.0
 10
259.1070556952
 20
140.0635731553
 30
0.0
 10
258.1102462375
 20
140.058392595
 30
0.0
 10
256.6827167329
 20
140.0525378009
 30
0.0
 10
254.8158937607
 20
140.0477007936
 30
0.0
 10
253.3003957624
 20
140.0464218485
 30
0.0
 10
252.527770117
 20
140.0464218485
 30
0.0
  0
SPLINE
  5
2A8
100
AcDbEntity
  8
0
100
AcDbSpline
 62
7
  6
CONTINUOUS
 70
0
 71
3
 72
29
 73
25
 74
0
 42
0.0000001
 43
0.0000001
 44
0.0000000001
 40
0.0
 40
0.0
 40
0.0
 40
0.0
 40
0.1950577828
 40
0.3826089048
 40
0.4713061508
 40
0.5554639178
 40
0.6342732202
 40
0.7069743796
 40
0.7728686145
 40
0.8313205302
 40
0.8817668174
 40
0.9038346254
 40
0.9237243166
 40
0.9413895572
 40
0.9567890869
 40
0.9698833036
 40
0.9806431354
 40
0.9890442561
 40
0.9923532015
 40
0.9950656825
 40
0.9971815086
 40
0.9987015196
 40
0.999630228
 40
1.0
 40
1.0
 40
1.0
 40
1.0
 10
252.527770117
 20
127.9988828265
 30
0.0
 10
251.3974812244
 20
127.9988828265
 30
0.0
 10
249.1804013821
 20
128.0007541287
 30
0.0
 10
246.4493611604
 20
128.007829364
 30
0.0
 10
244.3609559405
 20
128.0163954807
 30
0.0
 10
242.9026721479
 20
128.0239740286
 30
0.0
 10
241.5370882796
 20
128.0327467592
 30
0.0
 10
240.2773453969
 20
128.0426250022
 30
0.0
 10
239.1355790377
 20
128.0535018853
 30
0.0
 10
238.122787932
 20
128.065264632
 30
0.0
 10
237.3639636122
 20
128.076110587
 30
0.0
 10
236.8285961886
 20
128.0853331109
 30
0.0
 10
236.4831700917
 20
128.0920853363
 30
0.0
 10
236.1763935995
 20
128.0989623183
 30
0.0
 10
235.9090129871
 20
128.105941555
 30
0.0
 10
235.6816502087
 20
128.1129917599
 30
0.0
 10
235.4949053823
 20
128.1200876258
 30
0.0
 10
235.3647806121
 20
128.1263634348
 30
0.0
 10
235.2814717351
 20
128.1316215613
 30
0.0
 10
235.2342453888
 20
128.1352561938
 30
0.0
 10
235.198175525
 20
128.1387808464
 30
0.0
 10
235.1706995178
 20
128.1423725102
 30
0.0
 10
235.1569392636
 20
128.145410491
 30
0.0
 10
235.1472623182
 20
128.1484118346
 30
0.0
 10
235.1472623681
 20
128.1505545287
 30
0.0
  0
SPLINE
  5
2A9
100
AcDbEntity
  8
0
100
AcDbSpline
 62
7
  6
CONTINUOUS
 70
0
 71
3
 72
30
 73
26
 74
0
 42
0.0000001
 43
0.0000001
 44
0.0000000001
 40
0.0
 40
0.0
 40
0.0
 40
0.0
 40
0.1796448518
 40
0.3606093342
 40
0.448627606
 40
0.5334574111
 40
0.6139878378
 40
0.6891648574
 40
0.7580047144
 40
0.8196063113
 40
0.8731630157
 40
0.8967006361
 40
0.9179738559
 40
0.9369123082
 40
0.9534534715
 40
0.9675453254
 40
0.9791394187
 40
0.9839886731
 40
0.9882010128
 40
0.9917727456
 40
0.9947006798
 40
0.9969836628
 40
0.99862189
 40
0.9996185106
 40
1.0
 40
1.0
 40
1.0
 40
1.0
 10
245.2928191295
 20
599.3605728647
 30
0.0
 10
247.406947245
 20
599.3556464157
 30
0.0
 10
251.6507449328
 20
599.3503319342
 30
0.0
 10
256.9303798357
 20
599.3540325129
 30
0.0
 10
261.0941804294
 20
599.3634032349
 30
0.0
 10
264.0760259164
 20
599.3733838622
 30
0.0
 10
266.9067379243
 20
599.3862376909
 30
0.0
 10
269.5492572677
 20
599.4017884076
 30
0.0
 10
271.9689934265
 20
599.4198115364
 30
0.0
 10
274.134265501
 20
599.4400552123
 30
0.0
 10
275.7663856631
 20
599.4592307929
 30
0.0
 10
276.9238965206
 20
599.4758310826
 30
0.0
 10
277.674024507
 20
599.4881154763
 30
0.0
 10
278.3417959441
 20
599.5007271161
 30
0.0
 10
278.925034811
 20
599.5136112202
 30
0.0
 10
279.4218023654
 20
599.5267105783
 30
0.0
 10
279.7809875476
 20
599.5383055503
 30
0.0
 10
280.0238537218
 20
599.5479370273
 30
0.0
 10
280.1724403598
 20
599.5547401043
 30
0.0
 10
280.2981244219
 20
599.5615601713
 30
0.0
 10
280.4018089379
 20
599.5683210956
 30
0.0
 10
280.4807312066
 20
599.5751165794
 30
0.0
 10
280.5414545366
 20
599.581483983
 30
0.0
 10
280.5706851676
 20
599.5878624992
 30
0.0
 10
280.5926575463
 20
599.5926646847
 30
0.0
 10
280.5926575463
 20
599.5971542072
 30
0.0
  0
SPLINE
  5
2AA
100
AcDbEntity
  8
0
100
AcDbSpline
 62
7
  6
CONTINUOUS
 70
0
 71
3
 72
29
 73
25
 74
0
 42
0.0000001
 43
0.0000001
 44
0.0000000001
 40
0.0
 40
0.0
 40
0.0
 40
0.0
 40
0.0003692624
 40
0.0012968472
 40
0.0028162453
 40
0.0049327097
 40
0.0076463459
 40
0.0109558286
 40
0.0193551809
 40
0.0301150186
 40
0.0432107834
 40
0.0586086376
 40
0.0762738801
 40
0.0961649295
 40
0.1182312545
 40
0.1686786898
 40
0.2271292744
 40
0.2930232914
 40
0.3657250799
 40
0.4445333013
 40
0.5286911928
 40
0.6173897489
 40
0.8049405745
 40
1.0
 40
1.0
 40
1.0
 40
1.0
 10
228.0322157556
 20
575.5427701593
 30
0.0
 10
228.0322155983
 20
575.5397539317
 30
0.0
 10
228.0458282586
 20
575.5355134772
 30
0.0
 10
228.0652169066
 20
575.5312374354
 30
0.0
 10
228.1039344242
 20
575.526170666
 30
0.0
 10
228.1547904555
 20
575.5212057524
 30
0.0
 10
228.2213804955
 20
575.5160824498
 30
0.0
 10
228.3388142532
 20
575.5086717478
 30
0.0
 10
228.5222306615
 20
575.4998213938
 30
0.0
 10
228.7854687855
 20
575.4898205551
 30
0.0
 10
229.1059635067
 20
575.4798843553
 30
0.0
 10
229.4828681582
 20
575.4700437246
 30
0.0
 10
229.9153046496
 20
575.4603504546
 30
0.0
 10
230.4022240761
 20
575.4508336991
 30
0.0
 10
231.1568983714
 20
575.4378310008
 30
0.0
 10
232.2265406545
 20
575.4225448779
 30
0.0
 10
233.6541905082
 20
575.4059621736
 30
0.0
 10
235.2636425744
 20
575.3906302014
 30
0.0
 10
237.0393990459
 20
575.3767061923
 30
0.0
 10
238.9643541435
 20
575.3643392926
 30
0.0
 10
241.0199867095
 20
575.3536564001
 30
0.0
 10
243.9638590401
 20
575.3415818126
 30
0.0
 10
247.8136165405
 20
575.3316076987
 30
0.0
 10
250.9388732158
 20
575.3289700396
 30
0.0
 10
252.532167313
 20
575.3289700396
 30
0.0
  0
SPLINE
  5
2AB
100
AcDbEntity
  8
0
100
AcDbSpline
 62
7
  6
CONTINUOUS
 70
0
 71
3
 72
28
 73
24
 74
0
 42
0.0000001
 43
0.0000001
 44
0.0000000001
 40
0.0
 40
0.0
 40
0.0
 40
0.0
 40
0.0003710131
 40
0.0012515528
 40
0.0026826377
 40
0.0046707932
 40
0.0103234998
 40
0.0182113684
 40
0.0283241872
 40
0.0406434803
 40
0.0551498335
 40
0.0718220942
 40
0.0906305493
 40
0.1115424342
 40
0.1595404158
 40
0.215492766
 40
0.2790292169
 40
0.3497193889
 40
0.4270945652
 40
0.5106349839
 40
0.599781751
 40
0.7924614367
 40
1.0
 40
1.0
 40
1.0
 40
1.0
 10
224.4716770798
 20
596.5372707226
 30
0.0
 10
224.4716770798
 20
596.5346950585
 30
0.0
 10
224.482020558
 20
596.530186642
 30
0.0
 10
224.4981429347
 20
596.5263953137
 30
0.0
 10
224.528717442
 20
596.5213683514
 30
0.0
 10
224.5906325002
 20
596.5142594269
 30
0.0
 10
224.698613711
 20
596.5056944006
 30
0.0
 10
224.8623088477
 20
596.4961633308
 30
0.0
 10
225.0726748251
 20
596.4865401424
 30
0.0
 10
225.328898929
 20
596.4769355114
 30
0.0
 10
225.6307337685
 20
596.4673834154
 30
0.0
 10
225.9776242823
 20
596.4579221171
 30
0.0
 10
226.3690056742
 20
596.4485713108
 30
0.0
 10
226.9778314715
 20
596.4356822483
 30
0.0
 10
227.8445220548
 20
596.4203157002
 30
0.0
 10
229.0071328916
 20
596.4032959655
 30
0.0
 10
230.3273039294
 20
596.3871166697
 30
0.0
 10
231.7962173096
 20
596.3718906513
 30
0.0
 10
233.4040196662
 20
596.3577400705
 30
0.0
 10
235.1399658729
 20
596.3447615842
 30
0.0
 10
237.6763821722
 20
596.3287326955
 30
0.0
 10
241.073637925
 20
596.3125741414
 30
0.0
 10
243.8520394071
 20
596.3040467584
 30
0.0
 10
245.2928191295
 20
596.3006893801
 30
0.0
  0
SPLINE
  5
2AC
100
AcDbEntity
  8
0
100
AcDbSpline
 62
7
  6
CONTINUOUS
 70
0
 71
3
 72
21
 73
17
 74
0
 42
0.0000001
 43
0.0000001
 44
0.0000000001
 40
0.0
 40
0.0
 40
0.0
 40
0.0
 40
0.0013804911
 40
0.0045410295
 40
0.0096523021
 40
0.0167432903
 40
0.0368907753
 40
0.0649995754
 40
0.1010489408
 40
0.1449848684
 40
0.1967467363
 40
0.256272624
 40
0.398284645
 40
0.5702253398
 40
0.7711700912
 40
1.0
 40
1.0
 40
1.0
 40
1.0
 10
222.6821839251
 20
581.1625561669
 30
0.0
 10
222.6821840335
 20
581.1602051874
 30
0.0
 10
222.6909347597
 20
581.1556994786
 30
0.0
 10
222.7053641773
 20
581.1521063256
 30
0.0
 10
222.7319374988
 20
581.1472106903
 30
0.0
 10
222.7861138191
 20
581.1403820307
 30
0.0
 10
222.8803972081
 20
581.1320998204
 30
0.0
 10
223.0235011818
 20
581.1229042542
 30
0.0
 10
223.2074238257
 20
581.1135952908
 30
0.0
 10
223.4315735524
 20
581.104294723
 30
0.0
 10
223.6957671193
 20
581.0950237666
 30
0.0
 10
224.1269373937
 20
581.0819744097
 30
0.0
 10
224.7627880047
 20
581.0663868368
 30
0.0
 10
225.6394874363
 20
581.0489717717
 30
0.0
 10
226.6640731872
 20
581.0321048185
 30
0.0
 10
227.395910346
 20
581.0219326515
 30
0.0
 10
227.7855756124
 20
581.0168916529
 30
0.0
  0
SPLINE
  5
2AD
100
AcDbEntity
  8
0
100
AcDbSpline
 62
7
  6
CONTINUOUS
 70
0
 71
3
 72
10
 73
6
 74
0
 42
0.0000001
 43
0.0000001
 44
0.0000000001
 40
0.0
 40
0.0
 40
0.0
 40
0.0
 40
0.192889618
 40
0.4337219684
 40
1.0
 40
1.0
 40
1.0
 40
1.0
 10
227.7855756124
 20
581.0168916529
 30
0.0
 10
229.3765874387
 20
580.9963091453
 30
0.0
 10
232.9542183076
 20
580.9627836242
 30
0.0
 10
241.2030737567
 20
580.9144668238
 30
0.0
 10
247.8609442429
 20
580.9020690823
 30
0.0
 10
252.532167313
 20
580.9020690823
 30
0.0
  0
SPLINE
  5
2AE
100
AcDbEntity
  8
0
100
AcDbSpline
 62
7
  6
CONTINUOUS
 70
0
 71
3
 72
10
 73
6
 74
0
 42
0.0000001
 43
0.0000001
 44
0.0000000001
 40
0.0
 40
0.0
 40
0.0
 40
0.0
 40
0.5662833929
 40
0.8071153127
 40
1.0
 40
1.0
 40
1.0
 40
1.0
 10
252.532167313
 20
580.9020690823
 30
0.0
 10
257.2035757241
 20
580.9020690823
 30
0.0
 10
263.8616880171
 20
580.9144675929
 30
0.0
 10
272.110792641
 20
580.9627884455
 30
0.0
 10
275.6884873468
 20
580.9963167118
 30
0.0
 10
277.2795065396
 20
581.0169013111
 30
0.0
  0
SPLINE
  5
2AF
100
AcDbEntity
  8
0
100
AcDbSpline
 62
7
  6
CONTINUOUS
 70
0
 71
3
 72
21
 73
17
 74
0
 42
0.0000001
 43
0.0000001
 44
0.0000000001
 40
0.0
 40
0.0
 40
0.0
 40
0.0
 40
0.2288306239
 40
0.4297757343
 40
0.6017162407
 40
0.7437281284
 40
0.8032537441
 40
0.8550155233
 40
0.8989514115
 40
0.935000623
 40
0.9631092156
 40
0.9832566767
 40
0.9903476817
 40
0.9954589691
 40
0.9986195079
 40
1.0
 40
1.0
 40
1.0
 40
1.0
 10
277.2795065396
 20
581.0169013111
 30
0.0
 10
277.6691160074
 20
581.0219420766
 30
0.0
 10
278.4008479102
 20
581.0321137597
 30
0.0
 10
279.4252852438
 20
581.0489797201
 30
0.0
 10
280.3018564434
 20
581.0663937659
 30
0.0
 10
280.9376129871
 20
581.0819802402
 30
0.0
 10
281.3687193057
 20
581.0950287544
 30
0.0
 10
281.6328735136
 20
581.1042990466
 30
0.0
 10
281.8569899386
 20
581.113598923
 30
0.0
 10
282.0408849548
 20
581.1229072091
 30
0.0
 10
282.1839672953
 20
581.1321021231
 30
0.0
 10
282.2782364619
 20
581.140383763
 30
0.0
 10
282.3324048267
 20
581.1472118101
 30
0.0
 10
282.3589742323
 20
581.1521072128
 30
0.0
 10
282.3734015525
 20
581.1556998243
 30
0.0
 10
282.3821508093
 20
581.1602055296
 30
0.0
 10
282.3821507009
 20
581.1625561669
 30
0.0
  0
SPLINE
  5
2B0
100
AcDbEntity
  8
0
100
AcDbSpline
 62
7
  6
CONTINUOUS
 70
0
 71
3
 72
29
 73
25
 74
0
 42
0.0000001
 43
0.0000001
 44
0.0000000001
 40
0.0
 40
0.0
 40
0.0
 40
0.0
 40
0.1950588074
 40
0.3826089498
 40
0.4713072535
 40
0.5554651589
 40
0.6342736319
 40
0.7069757462
 40
0.7728701608
 40
0.8313209764
 40
0.8817685129
 40
0.9038349061
 40
0.9237259978
 40
0.9413912224
 40
0.9567891353
 40
0.9698849443
 40
0.9806447538
 40
0.9890441546
 40
0.992353665
 40
0.995067311
 40
0.9971837521
 40
0.9987031289
 40
0.9996307207
 40
1.0
 40
1.0
 40
1.0
 40
1.0
 10
252.532167313
 20
575.3289700396
 30
0.0
 10
254.1254563559
 20
575.3289700396
 30
0.0
 10
257.250702391
 20
575.3316076907
 30
0.0
 10
261.1004471874
 20
575.3415816971
 30
0.0
 10
264.0443119792
 20
575.3536562412
 30
0.0
 10
266.0999446449
 20
575.3643390679
 30
0.0
 10
268.0249045653
 20
575.3767059489
 30
0.0
 10
269.8006689945
 20
575.3906300121
 30
0.0
 10
271.4101288524
 20
575.4059619882
 30
0.0
 10
272.8377846628
 20
575.4225447384
 30
0.0
 10
273.9074302123
 20
575.4378309184
 30
0.0
 10
274.6621062343
 20
575.4508336089
 30
0.0
 10
275.1490264158
 20
575.4603503428
 30
0.0
 10
275.5814635829
 20
575.4700436757
 30
0.0
 10
275.958368928
 20
575.4798842875
 30
0.0
 10
276.2788642591
 20
575.4898204373
 30
0.0
 10
276.5421029099
 20
575.4998213947
 30
0.0
 10
276.725519702
 20
575.5086717094
 30
0.0
 10
276.8429541769
 20
575.5160824156
 30
0.0
 10
276.9095443041
 20
575.5212056581
 30
0.0
 10
276.9604001399
 20
575.5261706903
 30
0.0
 10
276.9991171259
 20
575.5312373237
 30
0.0
 10
277.0185061093
 20
575.535513759
 30
0.0
 10
277.0321187132
 20
575.5397537935
 30
0.0
 10
277.0321188705
 20
575.5427701593
 30
0.0
  0
SPLINE
  5
2B1
100
AcDbEntity
  8
0
100
AcDbSpline
 62
7
  6
CONTINUOUS
 70
0
 71
3
 72
13
 73
9
 74
0
 42
0.0000001
 43
0.0000001
 44
0.0000000001
 40
0.0
 40
0.0
 40
0.0
 40
0.0
 40
0.0216161188
 40
0.070365199
 40
0.1490286335
 40
0.2580903159
 40
0.5678657669
 40
1.0
 40
1.0
 40
1.0
 40
1.0
 10
280.5926575463
 20
599.5971542072
 30
0.0
 10
280.5926575463
 20
599.5992336605
 30
0.0
 10
280.5851625327
 20
599.6033428359
 30
0.0
 10
280.5725146891
 20
599.6065811326
 30
0.0
 10
280.5494895844
 20
599.6110132856
 30
0.0
 10
280.5024257161
 20
599.6171794612
 30
0.0
 10
280.420579618
 20
599.6246725675
 30
0.0
 10
280.3494744373
 20
599.6294228072
 30
0.0
 10
280.3079801138
 20
599.6319459899
 30
0.0
  0
SPLINE
  5
2B2
100
AcDbEntity
  8
0
100
AcDbSpline
 62
7
  6
CONTINUOUS
 70
0
 71
3
 72
13
 73
9
 74
0
 42
0.0000001
 43
0.0000001
 44
0.0000000001
 40
0.0
 40
0.0
 40
0.0
 40
0.0
 40
0.4318451805
 40
0.7414606437
 40
0.8505007531
 40
0.9291944374
 40
0.9780570126
 40
1.0
 40
1.0
 40
1.0
 40
1.0
 10
224.7387032159
 20
596.5709712474
 30
0.0
 10
224.6997802667
 20
596.5685258854
 30
0.0
 10
224.6330724651
 20
596.5639231331
 30
0.0
 10
224.5563173629
 20
596.5566625784
 30
0.0
 10
224.5121494691
 20
596.5506921962
 30
0.0
 10
224.4905854213
 20
596.5463947415
 30
0.0
 10
224.47862796
 20
596.5432589657
 30
0.0
 10
224.4716770798
 20
596.5392523812
 30
0.0
 10
224.4716770798
 20
596.5372707226
 30
0.0
  0
SPLINE
  5
2B3
100
AcDbEntity
  8
0
100
AcDbSpline
 62
7
  6
CONTINUOUS
 70
0
 71
3
 72
9
 73
5
 74
0
 42
0.0000001
 43
0.0000001
 44
0.0000000001
 40
0.0
 40
0.0
 40
0.0
 40
0.0
 40
0.2800149462
 40
1.0
 40
1.0
 40
1.0
 40
1.0
 10
246.7477308883
 20
599.269909126
 30
0.0
 10
246.6118616415
 20
599.2771800361
 30
0.0
 10
246.1266925425
 20
599.3040615819
 30
0.0
 10
245.6417045555
 20
599.3345843127
 30
0.0
 10
245.2928191295
 20
599.3605728647
 30
0.0
  0
SPLINE
  5
2B4
100
AcDbEntity
  8
0
100
AcDbSpline
 62
7
  6
CONTINUOUS
 70
0
 71
3
 72
9
 73
5
 74
0
 42
0.0000001
 43
0.0000001
 44
0.0000000001
 40
0.0
 40
0.0
 40
0.0
 40
0.0
 40
0.2199628159
 40
1.0
 40
1.0
 40
1.0
 40
1.0
 10
245.2928191295
 20
596.3006893801
 30
0.0
 10
245.3994073726
 20
596.2927495985
 30
0.0
 10
245.8841182997
 20
596.2584919481
 30
0.0
 10
246.3692395486
 20
596.230280236
 30
0.0
 10
246.7477308883
 20
596.2100256414
 30
0.0
  0
SPLINE
  5
2B5
100
AcDbEntity
  8
0
100
AcDbSpline
 62
7
  6
CONTINUOUS
 70
0
 71
3
 72
11
 73
7
 74
0
 42
0.0000001
 43
0.0000001
 44
0.0000000001
 40
0.0
 40
0.0
 40
0.0
 40
0.0
 40
0.2343121717
 40
0.4896717324
 40
0.7506655725
 40
1.0
 40
1.0
 40
1.0
 40
1.0
 10
256.815165184
 20
625.8501666392
 30
0.0
 10
257.1692616964
 20
625.4480488389
 30
0.0
 10
257.718795231
 20
624.4322007465
 30
0.0
 10
257.9495211485
 20
622.698581583
 30
0.0
 10
257.5976046077
 20
620.9524701178
 30
0.0
 10
256.9961084089
 20
619.920249844
 30
0.0
 10
256.6214539175
 20
619.4904730225
 30
0.0
  0
SPLINE
  5
2B6
100
AcDbEntity
  8
0
100
AcDbSpline
 62
7
  6
CONTINUOUS
 70
0
 71
3
 72
11
 73
7
 74
0
 42
0.0000001
 43
0.0000001
 44
0.0000000001
 40
0.0
 40
0.0
 40
0.0
 40
0.0
 40
0.2343121717
 40
0.4896717324
 40
0.7506655725
 40
1.0
 40
1.0
 40
1.0
 40
1.0
 10
248.6301762269
 20
625.7796726745
 30
0.0
 10
248.9842727393
 20
625.3775548741
 30
0.0
 10
249.5338062739
 20
624.3617067817
 30
0.0
 10
249.7645321914
 20
622.6280876183
 30
0.0
 10
249.4126156506
 20
620.881976153
 30
0.0
 10
248.8111194518
 20
619.8497558792
 30
0.0
 10
248.4364649604
 20
619.4199790577
 30
0.0
  0
SPLINE
  5
2B7
100
AcDbEntity
  8
0
100
AcDbSpline
 62
7
  6
CONTINUOUS
 70
0
 71
3
 72
11
 73
7
 74
0
 42
0.0000001
 43
0.0000001
 44
0.0000000001
 40
0.0
 40
0.0
 40
0.0
 40
0.0
 40
0.2577069283
 40
0.5130508682
 40
0.7623518766
 40
1.0
 40
1.0
 40
1.0
 40
1.0
 10
222.4867084601
 20
626.4523565613
 30
0.0
 10
222.5207396559
 20
625.0536989395
 30
0.0
 10
222.4984597327
 20
622.2660064168
 30
0.0
 10
222.1845647196
 20
618.1362632851
 30
0.0
 10
221.6248966167
 20
614.1428783774
 30
0.0
 10
221.0893709938
 20
611.5517226793
 30
0.0
 10
220.7841459974
 20
610.2981732376
 30
0.0
  0
SPLINE
  5
2B8
100
AcDbEntity
  8
0
100
AcDbSpline
 62
7
  6
CONTINUOUS
 70
0
 71
3
 72
13
 73
9
 74
0
 42
0.0000001
 43
0.0000001
 44
0.0000000001
 40
0.0
 40
0.0
 40
0.0
 40
0.0
 40
0.3327040762
 40
0.6216570314
 40
0.7438273685
 40
0.8482272439
 40
0.9335910747
 40
1.0
 40
1.0
 40
1.0
 40
1.0
 10
226.5324849481
 20
610.217378561
 30
0.0
 10
226.3707091439
 20
609.4071909316
 30
0.0
 10
226.0480954722
 20
607.8973602907
 30
0.0
 10
225.6261532796
 20
606.0990668503
 30
0.0
 10
225.3380327435
 20
604.8517860189
 30
0.0
 10
225.1759623013
 20
604.0941496267
 30
0.0
 10
225.067165185
 20
603.4673697605
 30
0.0
 10
225.0321694259
 20
603.0908772846
 30
0.0
 10
225.0321712434
 20
602.9259685541
 30
0.0
  0
SPLINE
  5
2B9
100
AcDbEntity
  8
0
100
AcDbSpline
 62
7
  6
CONTINUOUS
 70
0
 71
3
 72
11
 73
7
 74
0
 42
0.0000001
 43
0.0000001
 44
0.0000000001
 40
0.0
 40
0.0
 40
0.0
 40
0.0
 40
0.2411706106
 40
0.4913724239
 40
0.7450602168
 40
1.0
 40
1.0
 40
1.0
 40
1.0
 10
249.2001218127
 20
626.234418072
 30
0.0
 10
249.5638289087
 20
626.0665561791
 30
0.0
 10
250.264673161
 20
625.6314630837
 30
0.0
 10
251.144494414
 20
624.7437145232
 30
0.0
 10
251.7666662635
 20
623.6264282835
 30
0.0
 10
251.9199623586
 20
622.7750754771
 30
0.0
 10
251.9199623586
 20
622.3516302377
 30
0.0
  0
SPLINE
  5
2BA
100
AcDbEntity
  8
0
100
AcDbSpline
 62
7
  6
CONTINUOUS
 70
0
 71
3
 72
11
 73
7
 74
0
 42
0.0000001
 43
0.0000001
 44
0.0000000001
 40
0.0
 40
0.0
 40
0.0
 40
0.0
 40
0.2411706106
 40
0.4913724239
 40
0.7450602168
 40
1.0
 40
1.0
 40
1.0
 40
1.0
 10
257.3851107698
 20
626.3049120368
 30
0.0
 10
257.7488178658
 20
626.1370501439
 30
0.0
 10
258.4496621181
 20
625.7019570485
 30
0.0
 10
259.329483371
 20
624.8142084879
 30
0.0
 10
259.9516552206
 20
623.6969222483
 30
0.0
 10
260.1049513157
 20
622.8455694419
 30
0.0
 10
260.1049513157
 20
622.4221242025
 30
0.0
  0
SPLINE
  5
2BB
100
AcDbEntity
  8
0
100
AcDbSpline
 62
7
  6
CONTINUOUS
 70
0
 71
3
 72
11
 73
7
 74
0
 42
0.0000001
 43
0.0000001
 44
0.0000000001
 40
0.0
 40
0.0
 40
0.0
 40
0.0
 40
0.239970439
 40
0.4896269012
 40
0.7440104993
 40
1.0
 40
1.0
 40
1.0
 40
1.0
 10
284.2896823173
 20
610.555131754
 30
0.0
 10
283.9940123031
 20
611.8818663127
 30
0.0
 10
283.478643525
 20
614.6090852317
 30
0.0
 10
282.9410440854
 20
618.7912238379
 30
0.0
 10
282.6376781393
 20
623.088051725
 30
0.0
 10
282.6090954678
 20
625.9808979741
 30
0.0
 10
282.636945341
 20
627.430649568
 30
0.0
  0
SPLINE
  5
2BC
100
AcDbEntity
  8
0
100
AcDbSpline
 62
7
  6
CONTINUOUS
 70
0
 71
3
 72
11
 73
7
 74
0
 42
0.0000001
 43
0.0000001
 44
0.0000000001
 40
0.0
 40
0.0
 40
0.0
 40
0.0
 40
0.2411706106
 40
0.4913724239
 40
0.7450602168
 40
1.0
 40
1.0
 40
1.0
 40
1.0
 10
265.5700997269
 20
626.3754060015
 30
0.0
 10
265.9338068228
 20
626.2075441087
 30
0.0
 10
266.6346510752
 20
625.7724510132
 30
0.0
 10
267.5144723281
 20
624.8847024527
 30
0.0
 10
268.1366441776
 20
623.767416213
 30
0.0
 10
268.2899402727
 20
622.9160634067
 30
0.0
 10
268.2899402727
 20
622.4926181672
 30
0.0
  0
SPLINE
  5
2BD
100
AcDbEntity
  8
0
100
AcDbSpline
 62
7
  6
CONTINUOUS
 70
0
 71
3
 72
13
 73
9
 74
0
 42
0.0000001
 43
0.0000001
 44
0.0000000001
 40
0.0
 40
0.0
 40
0.0
 40
0.0
 40
0.3258229105
 40
0.6135848598
 40
0.7370250825
 40
0.843483766
 40
0.9312456177
 40
1.0
 40
1.0
 40
1.0
 40
1.0
 10
278.5136052029
 20
610.5053847624
 30
0.0
 10
278.6722467127
 20
609.6292534362
 30
0.0
 10
278.9922522999
 20
607.98312188
 30
0.0
 10
279.4158415102
 20
606.0140526932
 30
0.0
 10
279.7110646467
 20
604.6306272268
 30
0.0
 10
279.8802025252
 20
603.7790256296
 30
0.0
 10
279.9950423028
 20
603.0696184409
 30
0.0
 10
280.0321638519
 20
602.642294076
 30
0.0
 10
280.0321630059
 20
602.4544085807
 30
0.0
  0
SPLINE
  5
2BE
100
AcDbEntity
  8
0
100
AcDbSpline
 62
7
  6
CONTINUOUS
 70
0
 71
3
 72
19
 73
15
 74
0
 42
0.0000001
 43
0.0000001
 44
0.0000000001
 40
0.0
 40
0.0
 40
0.0
 40
0.0
 40
0.0512457474
 40
0.1045254904
 40
0.1609769302
 40
0.2211302536
 40
0.3514691364
 40
0.4914382248
 40
0.6333793338
 40
0.7690843488
 40
0.832563894
 40
0.8921703166
 40
0.9477938701
 40
1.0
 40
1.0
 40
1.0
 40
1.0
 10
266.6344004806
 20
626.7042964704
 30
0.0
 10
266.4354523963
 20
626.7025830119
 30
0.0
 10
266.0282181208
 20
626.6415891856
 30
0.0
 10
265.4503758941
 20
626.3873327663
 30
0.0
 10
264.9222741156
 20
625.9826297942
 30
0.0
 10
264.2979000212
 20
625.2473055068
 30
0.0
 10
263.7701547858
 20
624.0454040206
 30
0.0
 10
263.6267732672
 20
622.4260831913
 30
0.0
 10
263.9745971347
 20
620.818219819
 30
0.0
 10
264.6387343042
 20
619.6437261957
 30
0.0
 10
265.3426293598
 20
618.9201638326
 30
0.0
 10
265.9146529307
 20
618.5191253403
 30
0.0
 10
266.5188368953
 20
618.2651136012
 30
0.0
 10
266.938442513
 20
618.2016296711
 30
0.0
 10
267.1411184138
 20
618.1998140952
 30
0.0
  0
SPLINE
  5
2BF
100
AcDbEntity
  8
0
100
AcDbSpline
 62
7
  6
CONTINUOUS
 70
0
 71
3
 72
19
 73
15
 74
0
 42
0.0000001
 43
0.0000001
 44
0.0000000001
 40
0.0
 40
0.0
 40
0.0
 40
0.0
 40
0.0512457474
 40
0.1045254904
 40
0.1609769302
 40
0.2211302536
 40
0.3514691364
 40
0.4914382248
 40
0.6333793338
 40
0.7690843488
 40
0.832563894
 40
0.8921703166
 40
0.9477938701
 40
1.0
 40
1.0
 40
1.0
 40
1.0
 10
258.4494115235
 20
626.6338025057
 30
0.0
 10
258.2504634392
 20
626.6320890471
 30
0.0
 10
257.8432291638
 20
626.5710952208
 30
0.0
 10
257.265386937
 20
626.3168388015
 30
0.0
 10
256.7372851585
 20
625.9121358294
 30
0.0
 10
256.1129110641
 20
625.176811542
 30
0.0
 10
255.5851658287
 20
623.9749100558
 30
0.0
 10
255.4417843101
 20
622.3555892265
 30
0.0
 10
255.7896081777
 20
620.7477258543
 30
0.0
 10
256.4537453471
 20
619.5732322309
 30
0.0
 10
257.1576404027
 20
618.8496698678
 30
0.0
 10
257.7296639736
 20
618.4486313756
 30
0.0
 10
258.3338479382
 20
618.1946196364
 30
0.0
 10
258.7534535559
 20
618.1311357063
 30
0.0
 10
258.9561294567
 20
618.1293201304
 30
0.0
  0
SPLINE
  5
2C0
100
AcDbEntity
  8
0
100
AcDbSpline
 62
7
  6
CONTINUOUS
 70
0
 71
3
 72
19
 73
15
 74
0
 42
0.0000001
 43
0.0000001
 44
0.0000000001
 40
0.0
 40
0.0
 40
0.0
 40
0.0
 40
0.0512457474
 40
0.1045254904
 40
0.1609769302
 40
0.2211302536
 40
0.3514691364
 40
0.4914382248
 40
0.6333793338
 40
0.7690843488
 40
0.832563894
 40
0.8921703166
 40
0.9477938701
 40
1.0
 40
1.0
 40
1.0
 40
1.0
 10
250.2644225664
 20
626.5633085409
 30
0.0
 10
250.0654744821
 20
626.5615950824
 30
0.0
 10
249.6582402067
 20
626.500601256
 30
0.0
 10
249.0803979799
 20
626.2463448367
 30
0.0
 10
248.5522962014
 20
625.8416418647
 30
0.0
 10
247.927922107
 20
625.1063175773
 30
0.0
 10
247.4001768716
 20
623.9044160911
 30
0.0
 10
247.256795353
 20
622.2850952617
 30
0.0
 10
247.6046192206
 20
620.6772318895
 30
0.0
 10
248.26875639
 20
619.5027382662
 30
0.0
 10
248.9726514456
 20
618.779175903
 30
0.0
 10
249.5446750165
 20
618.3781374108
 30
0.0
 10
250.1488589811
 20
618.1241256716
 30
0.0
 10
250.5684645988
 20
618.0606417416
 30
0.0
 10
250.7711404996
 20
618.0588261656
 30
0.0
  0
SPLINE
  5
2C1
100
AcDbEntity
  8
0
100
AcDbSpline
 62
7
  6
CONTINUOUS
 70
0
 71
3
 72
9
 73
5
 74
0
 42
0.0000001
 43
0.0000001
 44
0.0000000001
 40
0.0
 40
0.0
 40
0.0
 40
0.0
 40
0.2024700754
 40
1.0
 40
1.0
 40
1.0
 40
1.0
 10
220.7841459974
 20
610.2981732376
 30
0.0
 10
221.2455437976
 20
610.2894968089
 30
0.0
 10
223.5244855441
 20
610.2518550749
 30
0.0
 10
225.8036344867
 20
610.2282670371
 30
0.0
 10
227.6213313567
 20
610.2121949847
 30
0.0
  0
SPLINE
  5
2C2
100
AcDbEntity
  8
0
100
AcDbSpline
 62
7
  6
CONTINUOUS
 70
0
 71
3
 72
11
 73
7
 74
0
 42
0.0000001
 43
0.0000001
 44
0.0000000001
 40
0.0
 40
0.0
 40
0.0
 40
0.0
 40
0.2540864582
 40
0.5072764336
 40
0.7574472502
 40
1.0
 40
1.0
 40
1.0
 40
1.0
 10
268.2899402727
 20
622.4926181672
 30
0.0
 10
268.2899402727
 20
622.0837013269
 30
0.0
 10
268.1471797315
 20
621.2614104468
 30
0.0
 10
267.5647493058
 20
620.171493452
 30
0.0
 10
266.7331062852
 20
619.2900182249
 30
0.0
 10
266.0668146488
 20
618.8460939081
 30
0.0
 10
265.7193784127
 20
618.6681471724
 30
0.0
  0
SPLINE
  5
2C3
100
AcDbEntity
  8
0
100
AcDbSpline
 62
7
  6
CONTINUOUS
 70
0
 71
3
 72
11
 73
7
 74
0
 42
0.0000001
 43
0.0000001
 44
0.0000000001
 40
0.0
 40
0.0
 40
0.0
 40
0.0
 40
0.2540864582
 40
0.5072764336
 40
0.7574472502
 40
1.0
 40
1.0
 40
1.0
 40
1.0
 10
260.1049513157
 20
622.4221242025
 30
0.0
 10
260.1049513157
 20
622.0132073621
 30
0.0
 10
259.9621907744
 20
621.190916482
 30
0.0
 10
259.3797603488
 20
620.1009994872
 30
0.0
 10
258.5481173281
 20
619.2195242601
 30
0.0
 10
257.8818256917
 20
618.7755999433
 30
0.0
 10
257.5343894556
 20
618.5976532076
 30
0.0
  0
SPLINE
  5
2C4
100
AcDbEntity
  8
0
100
AcDbSpline
 62
7
  6
CONTINUOUS
 70
0
 71
3
 72
11
 73
7
 74
0
 42
0.0000001
 43
0.0000001
 44
0.0000000001
 40
0.0
 40
0.0
 40
0.0
 40
0.0
 40
0.2540864582
 40
0.5072764336
 40
0.7574472502
 40
1.0
 40
1.0
 40
1.0
 40
1.0
 10
251.9199623586
 20
622.3516302377
 30
0.0
 10
251.9199623586
 20
621.9427133974
 30
0.0
 10
251.7772018173
 20
621.1204225172
 30
0.0
 10
251.1947713917
 20
620.0305055224
 30
0.0
 10
250.3631283711
 20
619.1490302954
 30
0.0
 10
249.6968367347
 20
618.7051059786
 30
0.0
 10
249.3494004985
 20
618.5271592428
 30
0.0
  0
SPLINE
  5
2C5
100
AcDbEntity
  8
0
100
AcDbSpline
 62
7
  6
CONTINUOUS
 70
0
 71
3
 72
10
 73
6
 74
0
 42
0.0000001
 43
0.0000001
 44
0.0000000001
 40
0.0
 40
0.0
 40
0.0
 40
0.0
 40
0.537234656
 40
0.7806320886
 40
1.0
 40
1.0
 40
1.0
 40
1.0
 10
259.194146714
 20
622.5730430571
 30
0.0
 10
259.194146714
 20
623.0570049314
 30
0.0
 10
259.1664055931
 20
623.7612208402
 30
0.0
 10
259.0549347645
 20
624.655545841
 30
0.0
 10
258.9720026134
 20
625.0648568277
 30
0.0
 10
258.9216117
 20
625.2559392763
 30
0.0
  0
SPLINE
  5
2C6
100
AcDbEntity
  8
0
100
AcDbSpline
 62
7
  6
CONTINUOUS
 70
0
 71
3
 72
10
 73
6
 74
0
 42
0.0000001
 43
0.0000001
 44
0.0000000001
 40
0.0
 40
0.0
 40
0.0
 40
0.0
 40
0.537234656
 40
0.7806320886
 40
1.0
 40
1.0
 40
1.0
 40
1.0
 10
251.0091577569
 20
622.5025490923
 30
0.0
 10
251.0091577569
 20
622.9865109667
 30
0.0
 10
250.981416636
 20
623.6907268754
 30
0.0
 10
250.8699458074
 20
624.5850518763
 30
0.0
 10
250.7870136563
 20
624.9943628629
 30
0.0
 10
250.7366227429
 20
625.1854453115
 30
0.0
  0
SPLINE
  5
2C7
100
AcDbEntity
  8
0
100
AcDbSpline
 62
7
  6
CONTINUOUS
 70
0
 71
3
 72
19
 73
15
 74
0
 42
0.0000001
 43
0.0000001
 44
0.0000000001
 40
0.0
 40
0.0
 40
0.0
 40
0.0
 40
0.0518426887
 40
0.1038741981
 40
0.1582243802
 40
0.2164655356
 40
0.3460904929
 40
0.4898511179
 40
0.6363393245
 40
0.7727691359
 40
0.8349190147
 40
0.8927806011
 40
0.9472703971
 40
1.0
 40
1.0
 40
1.0
 40
1.0
 10
267.1787437919
 20
618.1998070478
 30
0.0
 10
267.3733482386
 20
618.2014830964
 30
0.0
 10
267.7653574892
 20
618.2591724173
 30
0.0
 10
268.3103643032
 20
618.5141328168
 30
0.0
 10
268.7842299522
 20
618.9212894715
 30
0.0
 10
269.3214472196
 20
619.6631164743
 30
0.0
 10
269.7331477083
 20
620.8649641026
 30
0.0
 10
269.8258961835
 20
622.4527168974
 30
0.0
 10
269.5438328225
 20
624.0438828416
 30
0.0
 10
268.9908851393
 20
625.2401010812
 30
0.0
 10
268.3667244817
 20
625.9802944117
 30
0.0
 10
267.8457996878
 20
626.3867122692
 30
0.0
 10
267.2739632542
 20
626.6421138131
 30
0.0
 10
266.8699052783
 20
626.702515399
 30
0.0
 10
266.6719721904
 20
626.7042897831
 30
0.0
  0
SPLINE
  5
2C8
100
AcDbEntity
  8
0
100
AcDbSpline
 62
7
  6
CONTINUOUS
 70
0
 71
3
 72
19
 73
15
 74
0
 42
0.0000001
 43
0.0000001
 44
0.0000000001
 40
0.0
 40
0.0
 40
0.0
 40
0.0
 40
0.0518426887
 40
0.1038741981
 40
0.1582243802
 40
0.2164655356
 40
0.3460904929
 40
0.4898511179
 40
0.6363393245
 40
0.7727691359
 40
0.8349190147
 40
0.8927806011
 40
0.9472703971
 40
1.0
 40
1.0
 40
1.0
 40
1.0
 10
258.9937548349
 20
618.1293130831
 30
0.0
 10
259.1883592816
 20
618.1309891316
 30
0.0
 10
259.5803685321
 20
618.1886784525
 30
0.0
 10
260.1253753461
 20
618.443638852
 30
0.0
 10
260.5992409951
 20
618.8507955067
 30
0.0
 10
261.1364582625
 20
619.5926225095
 30
0.0
 10
261.5481587512
 20
620.7944701378
 30
0.0
 10
261.6409072264
 20
622.3822229327
 30
0.0
 10
261.3588438654
 20
623.9733888768
 30
0.0
 10
260.8058961822
 20
625.1696071165
 30
0.0
 10
260.1817355246
 20
625.9098004469
 30
0.0
 10
259.6608107307
 20
626.3162183045
 30
0.0
 10
259.0889742971
 20
626.5716198483
 30
0.0
 10
258.6849163212
 20
626.6320214342
 30
0.0
 10
258.4869832333
 20
626.6337958183
 30
0.0
  0
SPLINE
  5
2C9
100
AcDbEntity
  8
0
100
AcDbSpline
 62
7
  6
CONTINUOUS
 70
0
 71
3
 72
19
 73
15
 74
0
 42
0.0000001
 43
0.0000001
 44
0.0000000001
 40
0.0
 40
0.0
 40
0.0
 40
0.0
 40
0.0518426887
 40
0.1038741981
 40
0.1582243802
 40
0.2164655356
 40
0.3460904929
 40
0.4898511179
 40
0.6363393245
 40
0.7727691359
 40
0.8349190147
 40
0.8927806011
 40
0.9472703971
 40
1.0
 40
1.0
 40
1.0
 40
1.0
 10
250.8087658778
 20
618.0588191183
 30
0.0
 10
251.0033703245
 20
618.0604951669
 30
0.0
 10
251.395379575
 20
618.1181844877
 30
0.0
 10
251.9403863891
 20
618.3731448872
 30
0.0
 10
252.414252038
 20
618.7803015419
 30
0.0
 10
252.9514693054
 20
619.5221285448
 30
0.0
 10
253.3631697941
 20
620.723976173
 30
0.0
 10
253.4559182693
 20
622.3117289679
 30
0.0
 10
253.1738549084
 20
623.902894912
 30
0.0
 10
252.6209072251
 20
625.0991131517
 30
0.0
 10
251.9967465675
 20
625.8393064821
 30
0.0
 10
251.4758217736
 20
626.2457243397
 30
0.0
 10
250.9039853401
 20
626.5011258835
 30
0.0
 10
250.4999273641
 20
626.5615274694
 30
0.0
 10
250.3019942762
 20
626.5633018535
 30
0.0
  0
SPLINE
  5
2CA
100
AcDbEntity
  8
0
100
AcDbSpline
 62
7
  6
CONTINUOUS
 70
0
 71
3
 72
19
 73
15
 74
0
 42
0.0000001
 43
0.0000001
 44
0.0000000001
 40
0.0
 40
0.0
 40
0.0
 40
0.0
 40
0.1265781464
 40
0.2531935911
 40
0.3168249607
 40
0.3806891037
 40
0.4447665521
 40
0.508949214
 40
0.5730538808
 40
0.6368525454
 40
0.7001074496
 40
0.7625783648
 40
0.8842324406
 40
1.0
 40
1.0
 40
1.0
 40
1.0
 10
243.1795558373
 20
610.2010670359
 30
0.0
 10
243.6897615607
 20
609.2220139944
 30
0.0
 10
244.8551668962
 20
607.3331451959
 30
0.0
 10
246.7420903076
 20
605.2828871176
 30
0.0
 10
248.5080549695
 20
603.9355461869
 30
0.0
 10
249.9527852924
 20
603.0877866723
 30
0.0
 10
251.4922382163
 20
602.4164530454
 30
0.0
 10
253.0976702856
 20
601.9187209331
 30
0.0
 10
254.7403148527
 20
601.5780476427
 30
0.0
 10
256.3964186398
 20
601.3734135384
 30
0.0
 10
258.0466897453
 20
601.2684481876
 30
0.0
 10
260.2036710707
 20
601.2065292239
 30
0.0
 10
262.8195964007
 20
601.2040516897
 30
0.0
 10
264.890300181
 20
601.2174219948
 30
0.0
 10
265.9000061022
 20
601.2240006356
 30
0.0
  0
SPLINE
  5
2CB
100
AcDbEntity
  8
0
100
AcDbSpline
 62
7
  6
CONTINUOUS
 70
0
 71
3
 72
10
 73
6
 74
0
 42
0.0000001
 43
0.0000001
 44
0.0000000001
 40
0.0
 40
0.0
 40
0.0
 40
0.0
 40
0.2135599511
 40
0.4553058906
 40
1.0
 40
1.0
 40
1.0
 40
1.0
 10
250.6460438817
 20
619.4947971128
 30
0.0
 10
250.7152385516
 20
619.6998227649
 30
0.0
 10
250.827096522
 20
620.1489645269
 30
0.0
 10
250.9742680143
 20
621.1521272399
 30
0.0
 10
251.0091577569
 20
621.9506439592
 30
0.0
 10
251.0091577569
 20
622.5025490923
 30
0.0
  0
SPLINE
  5
2CC
100
AcDbEntity
  8
0
100
AcDbSpline
 62
7
  6
CONTINUOUS
 70
0
 71
3
 72
19
 73
15
 74
0
 42
0.0000001
 43
0.0000001
 44
0.0000000001
 40
0.0
 40
0.0
 40
0.0
 40
0.0
 40
0.0601671122
 40
0.1107317687
 40
0.1538848079
 40
0.192603186
 40
0.230505693
 40
0.2709378026
 40
0.3160168484
 40
0.3668324586
 40
0.4872031114
 40
0.6331377208
 40
0.8042995689
 40
1.0
 40
1.0
 40
1.0
 40
1.0
 10
280.0321630059
 20
602.4544085807
 30
0.0
 10
280.0321626161
 20
602.3678395323
 30
0.0
 10
280.0254977629
 20
602.2082823039
 30
0.0
 10
279.9863161003
 20
601.9894248727
 30
0.0
 10
279.9166371698
 20
601.8103190932
 30
0.0
 10
279.8137536074
 20
601.6692474074
 30
0.0
 10
279.6785441978
 20
601.5655358809
 30
0.0
 10
279.5155646368
 20
601.4923529941
 30
0.0
 10
279.3257374894
 20
601.4410472145
 30
0.0
 10
279.0185198277
 20
601.3898220203
 30
0.0
 10
278.5628257398
 20
601.3568962107
 30
0.0
 10
277.9338070462
 20
601.3368983284
 30
0.0
 10
277.1960376903
 20
601.324503945
 30
0.0
 10
276.6682485309
 20
601.317780226
 30
0.0
 10
276.3866940594
 20
601.3143181932
 30
0.0
  0
SPLINE
  5
2CD
100
AcDbEntity
  8
0
100
AcDbSpline
 62
7
  6
CONTINUOUS
 70
0
 71
3
 72
10
 73
6
 74
0
 42
0.0000001
 43
0.0000001
 44
0.0000000001
 40
0.0
 40
0.0
 40
0.0
 40
0.0
 40
0.2135599511
 40
0.4553058906
 40
1.0
 40
1.0
 40
1.0
 40
1.0
 10
258.8310328388
 20
619.5652910775
 30
0.0
 10
258.9002275087
 20
619.7703167297
 30
0.0
 10
259.0120854791
 20
620.2194584917
 30
0.0
 10
259.1592569714
 20
621.2226212046
 30
0.0
 10
259.194146714
 20
622.021137924
 30
0.0
 10
259.194146714
 20
622.5730430571
 30
0.0
  0
SPLINE
  5
2CE
100
AcDbEntity
  8
0
100
AcDbSpline
 62
7
  6
CONTINUOUS
 70
0
 71
3
 72
11
 73
7
 74
0
 42
0.0000001
 43
0.0000001
 44
0.0000000001
 40
0.0
 40
0.0
 40
0.0
 40
0.0
 40
0.2515509
 40
0.5025973077
 40
0.7523098724
 40
1.0
 40
1.0
 40
1.0
 40
1.0
 10
234.2858224489
 20
627.0142211071
 30
0.0
 10
234.2392473577
 20
625.5648974367
 30
0.0
 10
234.2865711263
 20
622.6624066039
 30
0.0
 10
234.8026081652
 20
618.348688055
 30
0.0
 10
235.7746877367
 20
614.1363409629
 30
0.0
 10
236.7865370853
 20
611.4389700145
 30
0.0
 10
237.4034787229
 20
610.1513200443
 30
0.0
  0
SPLINE
  5
2CF
100
AcDbEntity
  8
0
100
AcDbSpline
 62
7
  6
CONTINUOUS
 70
0
 71
3
 72
35
 73
31
 74
0
 42
0.0000001
 43
0.0000001
 44
0.0000000001
 40
0.0
 40
0.0
 40
0.0
 40
0.0
 40
0.0006416371
 40
0.0024637024
 40
0.0054767133
 40
0.0096750089
 40
0.0215966682
 40
0.0381366302
 40
0.0591146815
 40
0.0843331224
 40
0.1135641146
 40
0.1465077967
 40
0.222260137
 40
0.3086810142
 40
0.4024613785
 40
0.4999861814
 40
0.597510769
 40
0.691292448
 40
0.7777174587
 40
0.8534758821
 40
0.8864238576
 40
0.9156584724
 40
0.9408793349
 40
0.9618601021
 40
0.9784019731
 40
0.9903244344
 40
0.9945229869
 40
0.9975361709
 40
0.9993583337
 40
1.0
 40
1.0
 40
1.0
 40
1.0
 10
178.277770117
 20
69.1795083148
 30
0.0
 10
178.277770117
 20
69.1777969842
 30
0.0
 10
178.2876948644
 20
69.1779911223
 30
0.0
 10
178.299001887
 20
69.1752000369
 30
0.0
 10
178.3248500896
 20
69.1743546423
 30
0.0
 10
178.3747333268
 20
69.1714424539
 30
0.0
 10
178.4626046111
 20
69.1689801491
 30
0.0
 10
178.5940467382
 20
69.1657166713
 30
0.0
 10
178.7614938557
 20
69.1627732929
 30
0.0
 10
178.9625965869
 20
69.1598725679
 30
0.0
 10
179.1956873323
 20
69.1571758247
 30
0.0
 10
179.5635332451
 20
69.1536685276
 30
0.0
 10
180.0839281062
 20
69.1500658566
 30
0.0
 10
180.7665817564
 20
69.1469528443
 30
0.0
 10
181.5073120424
 20
69.1450332903
 30
0.0
 10
182.277658964
 20
69.1443837594
 30
0.0
 10
183.0480093921
 20
69.1450330402
 30
0.0
 10
183.7887536365
 20
69.1469520502
 30
0.0
 10
184.4714380435
 20
69.1500648534
 30
0.0
 10
184.9918716052
 20
69.1536676397
 30
0.0
 10
185.3597548566
 20
69.1571748606
 30
0.0
 10
185.592873179
 20
69.1598715939
 30
0.0
 10
185.7939992651
 20
69.1627726382
 30
0.0
 10
185.9614652008
 20
69.1657161325
 30
0.0
 10
186.0929217465
 20
69.1689797904
 30
0.0
 10
186.180801026
 20
69.1714422983
 30
0.0
 10
186.230687459
 20
69.1743546262
 30
0.0
 10
186.2565372066
 20
69.1751999466
 30
0.0
 10
186.2678448023
 20
69.1779912205
 30
0.0
 10
186.277770117
 20
69.1777969063
 30
0.0
 10
186.277770117
 20
69.1795083148
 30
0.0
  0
SPLINE
  5
2D0
100
AcDbEntity
  8
0
100
AcDbSpline
 62
7
  6
CONTINUOUS
 70
0
 71
3
 72
35
 73
31
 74
0
 42
0.0000001
 43
0.0000001
 44
0.0000000001
 40
0.0
 40
0.0
 40
0.0
 40
0.0
 40
0.0006416371
 40
0.0024637024
 40
0.0054767133
 40
0.0096750089
 40
0.0215966682
 40
0.0381366302
 40
0.0591146815
 40
0.0843331224
 40
0.1135641146
 40
0.1465077967
 40
0.222260137
 40
0.3086810142
 40
0.4024613785
 40
0.4999861814
 40
0.597510769
 40
0.691292448
 40
0.7777174587
 40
0.8534758821
 40
0.8864238576
 40
0.9156584724
 40
0.9408793349
 40
0.9618601021
 40
0.9784019731
 40
0.9903244344
 40
0.9945229869
 40
0.9975361709
 40
0.9993583337
 40
1.0
 40
1.0
 40
1.0
 40
1.0
 10
308.777770117
 20
69.1795083148
 30
0.0
 10
308.777770117
 20
69.1777969842
 30
0.0
 10
308.7876948644
 20
69.1779911223
 30
0.0
 10
308.799001887
 20
69.1752000369
 30
0.0
 10
308.8248500896
 20
69.1743546423
 30
0.0
 10
308.8747333268
 20
69.1714424539
 30
0.0
 10
308.9626046111
 20
69.1689801491
 30
0.0
 10
309.0940467382
 20
69.1657166713
 30
0.0
 10
309.2614938557
 20
69.1627732929
 30
0.0
 10
309.4625965869
 20
69.1598725679
 30
0.0
 10
309.6956873323
 20
69.1571758247
 30
0.0
 10
310.0635332451
 20
69.1536685276
 30
0.0
 10
310.5839281062
 20
69.1500658566
 30
0.0
 10
311.2665817564
 20
69.1469528443
 30
0.0
 10
312.0073120424
 20
69.1450332903
 30
0.0
 10
312.777658964
 20
69.1443837594
 30
0.0
 10
313.5480093921
 20
69.1450330402
 30
0.0
 10
314.2887536365
 20
69.1469520502
 30
0.0
 10
314.9714380435
 20
69.1500648534
 30
0.0
 10
315.4918716052
 20
69.1536676397
 30
0.0
 10
315.8597548566
 20
69.1571748606
 30
0.0
 10
316.092873179
 20
69.1598715939
 30
0.0
 10
316.2939992651
 20
69.1627726382
 30
0.0
 10
316.4614652008
 20
69.1657161325
 30
0.0
 10
316.5929217465
 20
69.1689797904
 30
0.0
 10
316.680801026
 20
69.1714422983
 30
0.0
 10
316.730687459
 20
69.1743546262
 30
0.0
 10
316.7565372066
 20
69.1751999466
 30
0.0
 10
316.7678448023
 20
69.1779912205
 30
0.0
 10
316.777770117
 20
69.1777969063
 30
0.0
 10
316.777770117
 20
69.1795083148
 30
0.0
  0
SPLINE
  5
2D1
100
AcDbEntity
  8
0
100
AcDbSpline
 62
7
  6
CONTINUOUS
 70
0
 71
3
 72
26
 73
22
 74
0
 42
0.0000001
 43
0.0000001
 44
0.0000000001
 40
0.0
 40
0.0
 40
0.0
 40
0.0
 40
0.0903608075
 40
0.2279417384
 40
0.3962468424
 40
0.4856816201
 40
0.575063171
 40
0.6616832148
 40
0.7429259875
 40
0.8163374887
 40
0.8796861191
 40
0.906985002
 40
0.931074461
 40
0.9517709935
 40
0.9689326341
 40
0.9824201761
 40
0.9921226233
 40
0.9955375966
 40
0.9979881435
 40
0.9994711621
 40
1.0
 40
1.0
 40
1.0
 40
1.0
 10
186.027770117
 20
69.1916551382
 30
0.0
 10
185.7943776598
 20
69.1971421903
 30
0.0
 10
185.2054817078
 20
69.203923836
 30
0.0
 10
184.1817681104
 20
69.2110264946
 30
0.0
 10
183.1604118745
 20
69.2139242315
 30
0.0
 10
182.2635866943
 20
69.2145900122
 30
0.0
 10
181.5778027791
 20
69.2140510268
 30
0.0
 10
180.9131857327
 20
69.2125032056
 30
0.0
 10
180.2898316354
 20
69.2099964803
 30
0.0
 10
179.7266085112
 20
69.2066125908
 30
0.0
 10
179.3027555574
 20
69.2030134449
 30
0.0
 10
179.0063443153
 20
69.199667444
 30
0.0
 10
178.8201088201
 20
69.1971483721
 30
0.0
 10
178.6601217125
 20
69.194488541
 30
0.0
 10
178.5273799989
 20
69.1918016623
 30
0.0
 10
178.423454905
 20
69.1889055293
 30
0.0
 10
178.3541527123
 20
69.1866181026
 30
0.0
 10
178.3148108231
 20
69.1841400937
 30
0.0
 10
178.2945141427
 20
69.1832014969
 30
0.0
 10
178.2854953673
 20
69.1810547891
 30
0.0
 10
178.277770117
 20
69.180874625
 30
0.0
 10
178.277770117
 20
69.1795083148
 30
0.0
  0
SPLINE
  5
2D2
100
AcDbEntity
  8
0
100
AcDbSpline
 62
7
  6
CONTINUOUS
 70
0
 71
3
 72
41
 73
37
 74
0
 42
0.0000001
 43
0.0000001
 44
0.0000000001
 40
0.0
 40
0.0
 40
0.0
 40
0.0
 40
0.0006402204
 40
0.0024590586
 40
0.0054694457
 40
0.0096680418
 40
0.0150488183
 40
0.0215979072
 40
0.0292972823
 40
0.0381287825
 40
0.0591093433
 40
0.0843326576
 40
0.1135588718
 40
0.146505513
 40
0.1828560875
 40
0.2222620183
 40
0.3086914139
 40
0.4024713563
 40
0.4999980056
 40
0.5975243152
 40
0.691303461
 40
0.7777323687
 40
0.8171386204
 40
0.8534894904
 40
0.8864370753
 40
0.9156639904
 40
0.9408883594
 40
0.9618696227
 40
0.9707014685
 40
0.9784012252
 40
0.984950635
 40
0.9903315853
 40
0.9945303104
 40
0.9975408186
 40
0.9993597462
 40
1.0
 40
1.0
 40
1.0
 40
1.0
 10
240.027770117
 20
104.7528179846
 30
0.0
 10
240.027770117
 20
104.747481881
 30
0.0
 10
240.0587106746
 20
104.7480447067
 30
0.0
 10
240.0940051115
 20
104.7393500688
 30
0.0
 10
240.174767987
 20
104.7367110525
 30
0.0
 10
240.2770845525
 20
104.7306095445
 30
0.0
 10
240.412385633
 20
104.7259087958
 30
0.0
 10
240.5755652635
 20
104.720694812
 30
0.0
 10
240.7679851858
 20
104.7157233359
 30
0.0
 10
241.0805071699
 20
104.7087001677
 30
0.0
 10
241.5391738747
 20
104.7004781767
 30
0.0
 10
242.1677920814
 20
104.6914730033
 30
0.0
 10
242.8961766966
 20
104.68302001
 30
0.0
 10
243.7173108008
 20
104.6751953675
 30
0.0
 10
244.6233017876
 20
104.6680913442
 30
0.0
 10
245.9750597962
 20
104.6594112956
 30
0.0
 10
247.8054901034
 20
104.651087033
 30
0.0
 10
250.1203550285
 20
104.6450807888
 30
0.0
 10
252.5277173883
 20
104.6430521418
 30
0.0
 10
254.9350731078
 20
104.6450806241
 30
0.0
 10
257.2499244969
 20
104.6510865807
 30
0.0
 10
259.0803467721
 20
104.6594107403
 30
0.0
 10
260.4321058546
 20
104.6680903237
 30
0.0
 10
261.3381098433
 20
104.6751944903
 30
0.0
 10
262.1592601215
 20
104.6830188433
 30
0.0
 10
262.8876672334
 20
104.6914721461
 30
0.0
 10
263.5163059308
 20
104.7004771912
 30
0.0
 10
263.9749901641
 20
104.7086993402
 30
0.0
 10
264.2875240616
 20
104.7157226446
 30
0.0
 10
264.4799527283
 20
104.7206942031
 30
0.0
 10
264.643139642
 20
104.7259082801
 30
0.0
 10
264.778445963
 20
104.7306091928
 30
0.0
 10
264.88076595
 20
104.7367109902
 30
0.0
 10
264.961531953
 20
104.7393497986
 30
0.0
 10
264.9968277938
 20
104.7480450507
 30
0.0
 10
265.027770117
 20
104.747481603
 30
0.0
 10
265.027770117
 20
104.7528179846
 30
0.0
  0
SPLINE
  5
2D3
100
AcDbEntity
  8
0
100
AcDbSpline
 62
7
  6
CONTINUOUS
 70
0
 71
3
 72
26
 73
22
 74
0
 42
0.0000001
 43
0.0000001
 44
0.0000000001
 40
0.0
 40
0.0
 40
0.0
 40
0.0
 40
0.0005288379
 40
0.0020118565
 40
0.0044624034
 40
0.0078773767
 40
0.0175798239
 40
0.0310673659
 40
0.0482290065
 40
0.068925539
 40
0.093014998
 40
0.1203138809
 40
0.1836625113
 40
0.2570740125
 40
0.3383167852
 40
0.424936829
 40
0.5143183799
 40
0.6037531576
 40
0.7720582616
 40
0.9096391925
 40
1.0
 40
1.0
 40
1.0
 40
1.0
 10
316.777770117
 20
69.1795083148
 30
0.0
 10
316.777770117
 20
69.180874625
 30
0.0
 10
316.7700448668
 20
69.1810547891
 30
0.0
 10
316.7610260914
 20
69.1832014969
 30
0.0
 10
316.740729411
 20
69.1841400937
 30
0.0
 10
316.7013875217
 20
69.1866181026
 30
0.0
 10
316.632085329
 20
69.1889055293
 30
0.0
 10
316.5281602351
 20
69.1918016623
 30
0.0
 10
316.3954185215
 20
69.194488541
 30
0.0
 10
316.2354314139
 20
69.1971483721
 30
0.0
 10
316.0491959187
 20
69.199667444
 30
0.0
 10
315.7527846767
 20
69.2030134449
 30
0.0
 10
315.3289317228
 20
69.2066125908
 30
0.0
 10
314.7657085986
 20
69.2099964803
 30
0.0
 10
314.1423545013
 20
69.2125032056
 30
0.0
 10
313.4777374549
 20
69.2140510268
 30
0.0
 10
312.7919535398
 20
69.2145900122
 30
0.0
 10
311.8951283595
 20
69.2139242315
 30
0.0
 10
310.8737721237
 20
69.2110264946
 30
0.0
 10
309.8500585263
 20
69.203923836
 30
0.0
 10
309.2611625743
 20
69.1971421903
 30
0.0
 10
309.027770117
 20
69.1916551382
 30
0.0
  0
ELLIPSE
  5
2D4
100
AcDbEntity
  8
0
100
AcDbEllipse
 62
7
  6
CONTINUOUS
 10
252.532167313
 20
396.2735102311
 30
0.0
 11
24.6077779631
 21
957.6323888923
 31
0.0
 40
0.0259900341
 41
-1.3263367561
 42
-1.3236882869
  0
ELLIPSE
  5
2D5
100
AcDbEntity
  8
0
100
AcDbEllipse
 62
7
  6
CONTINUOUS
 10
252.532167313
 20
445.9201157701
 30
0.0
 11
-24.604970089
 21
759.5752323219
 31
0.0
 40
0.0327705186
 41
1.3255211688
 42
1.3297631014
  0
ELLIPSE
  5
2D6
100
AcDbEntity
  8
0
100
AcDbEllipse
 62
7
  6
CONTINUOUS
 10
252.532167313
 20
601.2901306773
 30
0.0
 11
27.4999999953
 21
0.104691972
 31
0.0
 40
0.0048692094
 41
-1.0631897209
 42
-0.520786504
  0
ELLIPSE
  5
2D7
100
AcDbEntity
  8
0
100
AcDbEllipse
 62
7
  6
CONTINUOUS
 10
252.532167313
 20
396.2735102311
 30
0.0
 11
24.6077779631
 21
957.6323888923
 31
0.0
 40
0.0259900341
 41
1.3254720689
 42
1.328120538
  0
ENDSEC
  0
SECTION
  2
OBJECTS
  0
DICTIONARY
  5
C
100
AcDbDictionary
280
0
281
1
  3
ACAD_GROUP
350
D
  3
ACAD_MLINESTYLE
350
17
  3
ACAD_LAYOUT
350
1A
  3
ACAD_PLOTSETTINGS
350
19
  3
ACAD_PLOTSTYLENAME
350
E
  0
DICTIONARY
  5
D
102
{ACAD_REACTORS
330
C
102
}
100
AcDbDictionary
280
0
281
1
  0
ACDBDICTIONARYWDFLT
  5
E
102
{ACAD_REACTORS
330
C
102
}
100
AcDbDictionary
281
1
  3
Normal
350
F
100
AcDbDictionaryWithDefault
340
F
  0
DICTIONARY
  5
17
102
{ACAD_REACTORS
330
C
102
}
100
AcDbDictionary
280
0
281
1
  3
Standard
350
18
  0
DICTIONARY
  5
19
102
{ACAD_REACTORS
330
C
102
}
100
AcDbDictionary
281
1
  0
DICTIONARY
  5
1A
102
{ACAD_REACTORS
330
C
102
}
100
AcDbDictionary
281
1
  3
Model
350
2D8
  3
Layout1
350
2D9
  0
ACDBPLACEHOLDER
  5
F
102
{ACAD_REACTORS
330
E
102
}
  0
MLINESTYLE
  5
18
102
{ACAD_REACTORS
330
17
102
}
100
AcDbMlineStyle
  2
STANDARD
 70
0
  3

 62
256
 51
90.0
 52
90.0
 71
2
 49
0.5
 62
256
  6
BYLAYER
 49
-0.5
 62
256
  6
BYLAYER
  0
LAYOUT
  5
2D8
102
{ACAD_REACTORS
330
1A
102
}
100
AcDbPlotSettings
  1

  2
none_device
  4

  6

 40
0.0
 41
0.0
 42
0.0
 43
0.0
 44
210.0
 45
297.0
 46
0.0
 47
0.0
 48
0.0
 49
0.0
140
0.0
141
0.0
142
1.0
143
1.0
 70
1024
 72
1
 73
0
 74
0
  7

 75
0
147
1.0
148
0.0
149
0.0
100
AcDbLayout
  1
Model
 70
0
 71
0
 10
0.0
 20
0.0
 11
210.0
 21
297.0
 12
0.0
 22
0.0
 32
0.0
 14
0.0
 24
0.0
 34
0.0
 15
0.0
 25
0.0
 35
0.0
146
0.0
 13
0.0
 23
0.0
 33
0.0
 16
1.0
 26
0.0
 36
0.0
 17
0.0
 27
1.0
 37
0.0
 76
0
330
210
345
0
346
0
  0
LAYOUT
  5
2D9
102
{ACAD_REACTORS
330
1A
102
}
100
AcDbPlotSettings
  1

  2
none_device
  4

  6

 40
0.0
 41
0.0
 42
0.0
 43
0.0
 44
210.0
 45
297.0
 46
0.0
 47
0.0
 48
0.0
 49
0.0
140
0.0
141
0.0
142
1.0
143
1.0
 70
0
 72
1
 73
0
 74
0
  7

 75
0
147
1.0
148
0.0
149
0.0
100
AcDbLayout
  1
Layout1
 70
0
 71
1
 10
0.0
 20
0.0
 11
210.0
 21
297.0
 12
0.0
 22
0.0
 32
0.0
 14
0.0
 24
0.0
 34
0.0
 15
0.0
 25
0.0
 35
0.0
146
0.0
 13
0.0
 23
0.0
 33
0.0
 16
1.0
 26
0.0
 36
0.0
 17
0.0
 27
1.0
 37
0.0
 76
0
330
211
345
0
346
0
  0
ENDSEC
  0
EOF
