999
DXF file: C:\Users\sesa63760\Dev\_Creo\CAD\MCADID0005222_3D-CAD\drw0001_4.dxf
999
Pro/ENGINEER 2019471 by Parametric Technology Corporation
  0
SECTION
  2
HEADER
  9
$ACADVER
  1
AC1024
  9
$DWGCODEPAGE
  3
ANSI_1252
  9
$EXTMAX
 10
36.0500182863
 20
50.9850258621
 30
0.0
  9
$EXTMIN
 10
0.0
 20
0.0
 30
0.0
  9
$LIMMIN
 10
0.0
 20
0.0
  9
$LIMMAX
 10
36.0500182863
 20
50.9850258621
  9
$VIEWCTR
 10
18.0250091432
 20
25.492512931
  9
$VIEWSIZE
 40
50.9850258621
  9
$CLAYER
  8
0
  9
$LTSCALE
 40
3.3234683525
  9
$CELTYPE
  6
BYLAYER
  9
$DIMSCALE
 40
1.0
  9
$DIMASZ
 40
0.4291668844
  9
$DIMEXO
 40
1.0
  9
$DIMDLI
 40
2.2962144981
  9
$DIMEXE
 40
1.0
  9
$DIMCEN
 40
0.5438402759
  9
$DIMLFAC
 40
1.0
  9
$DIMBLK
  1
_FILLED
  9
$DIMALT
 70
0
  9
$DIMALTF
 40
0.0393700787
  9
$DIMTXT
 40
0.6008336381
  9
$DIMTOL
 70
1
  9
$DIMLIM
 70
0
  9
$DIMTFAC
 40
1.0
  9
$DIMTP
 40
0.01
  9
$DIMTM
 40
0.01
  9
$DIMGAP
 40
0.625
  9
$DIMDSEP
 70
46
  9
$AUNITS
 70
0
  9
$PDMODE
 70
3
  9
$PDSIZE
 40
0.3125
  9
$HANDSEED
  5
434
  9
$TILEMODE
 70
1
  9
$MEASUREMENT
 70
1
  9
$INSUNITS
 70
4
  0
ENDSEC
  0
SECTION
  2
CLASSES
  0
CLASS
  1
ACDBDICTIONARYWDFLT
  2
AcDbDictionaryWithDefault
  3
AutoCAD 2000
 90
0
 91
1
280
0
281
0
  0
CLASS
  1
ACDBPLACEHOLDER
  2
AcDbPlaceHolder
  3
AutoCAD 2000
 90
0
 91
1
280
0
281
0
  0
CLASS
  1
LAYOUT
  2
AcDbLayout
  3
AutoCAD 2000
 90
0
 91
0
280
0
281
0
  0
ENDSEC
  0
SECTION
  2
TABLES
  0
TABLE
  2
VPORT
  5
8
100
AcDbSymbolTable
 70
2
  0
VPORT
  5
1F4
100
AcDbSymbolTableRecord
100
AcDbViewportTableRecord
  2
*ACTIVE
 70
0
 10
0.0
 20
0.0
 11
1.0
 21
1.0
 12
18.0250091432
 22
25.492512931
 13
0.0
 23
0.0
 14
1.0
 24
1.0
 15
0.0
 25
0.0
 16
0.0
 26
0.0
 36
1.0
 17
0.0
 27
0.0
 37
0.0
 40
50.9850258621
 41
0.7070707071
 42
50.0
 43
0.0
 44
0.0
 50
0.0
 51
0.0
 71
0
 72
100
 73
1
 74
1
 75
0
 76
0
 77
0
 78
0
  0
ENDTAB
  0
TABLE
  2
LTYPE
  5
5
100
AcDbSymbolTable
 70
6
  0
LTYPE
  5
14
100
AcDbSymbolTableRecord
100
AcDbLinetypeTableRecord
  2
BYBLOCK
 70
0
  3

 72
65
 73
0
 40
0.0
  0
LTYPE
  5
15
100
AcDbSymbolTableRecord
100
AcDbLinetypeTableRecord
  2
BYLAYER
 70
0
  3

 72
65
 73
0
 40
0.0
  0
LTYPE
  5
16
100
AcDbSymbolTableRecord
100
AcDbLinetypeTableRecord
  2
CONTINUOUS
 70
64
  3
Solid line
 72
65
 73
0
 40
0.0
  0
LTYPE
  5
1F5
100
AcDbSymbolTableRecord
100
AcDbLinetypeTableRecord
  2
CENTER
 70
64
  3
____ _ ____ _ ____ _ ____ _ ____ _ ____ _ ____
 72
65
 73
4
 40
0.6
 49
0.375
 74
0
 49
-0.075
 74
0
 49
0.075
 74
0
 49
-0.075
 74
0
  0
LTYPE
  5
1F6
100
AcDbSymbolTableRecord
100
AcDbLinetypeTableRecord
  2
HIDDEN
 70
64
  3
- - - - - - - - - - - - - - - - - - - -
 72
65
 73
2
 40
0.2
 49
0.1
 74
0
 49
-0.1
 74
0
  0
LTYPE
  5
1F7
100
AcDbSymbolTableRecord
100
AcDbLinetypeTableRecord
  2
PHANTOM
 70
64
  3
_____ _ _ _____ _ _ _____ _ _ _____
 72
65
 73
6
 40
0.8
 49
0.45
 74
0
 49
-0.05
 74
0
 49
0.1
 74
0
 49
-0.05
 74
0
 49
0.1
 74
0
 49
-0.05
 74
0
  0
LTYPE
  5
1F8
100
AcDbSymbolTableRecord
100
AcDbLinetypeTableRecord
  2
DOT
 70
64
  3
. . . . . . . . . . . . . . . . . . . .
 72
65
 73
2
 40
0.2
 49
0.1
 74
0
 49
-0.1
 74
0
  0
LTYPE
  5
1F9
100
AcDbSymbolTableRecord
100
AcDbLinetypeTableRecord
  2
DASHED
 70
64
  3
- - - - - - - - - - - - - - - - - - - -
 72
65
 73
2
 40
0.2
 49
0.1
 74
0
 49
-0.1
 74
0
  0
ENDTAB
  0
TABLE
  2
LAYER
  5
2
100
AcDbSymbolTable
 70
36
  0
LAYER
  5
10
100
AcDbSymbolTableRecord
100
AcDbLayerTableRecord
  2
0
 70
0
 62
7
  6
CONTINUOUS
370
-3
390
F
  0
LAYER
  5
1FA
100
AcDbSymbolTableRecord
100
AcDbLayerTableRecord
  2
DEFAULT_1
 70
0
 62
7
  6
CENTER
370
-3
390
F
  0
LAYER
  5
1FB
100
AcDbSymbolTableRecord
100
AcDbLayerTableRecord
  2
DEFAULT_2
 70
0
 62
7
  6
HIDDEN
370
-3
390
F
  0
LAYER
  5
1FC
100
AcDbSymbolTableRecord
100
AcDbLayerTableRecord
  2
DEFAULT_3
 70
0
 62
7
  6
PHANTOM
370
-3
390
F
  0
LAYER
  5
1FD
100
AcDbSymbolTableRecord
100
AcDbLayerTableRecord
  2
00_COMPONENTS
 70
0
 62
7
  6
CONTINUOUS
370
-3
390
F
  0
LAYER
  5
1FE
100
AcDbSymbolTableRecord
100
AcDbLayerTableRecord
  2
00_COMPONENTS_1
 70
0
 62
7
  6
CONTINUOUS
370
-3
390
F
  0
LAYER
  5
1FF
100
AcDbSymbolTableRecord
100
AcDbLayerTableRecord
  2
00_COMPONENTS_2
 70
0
 62
7
  6
CONTINUOUS
370
-3
390
F
  0
LAYER
  5
200
100
AcDbSymbolTableRecord
100
AcDbLayerTableRecord
  2
01_1_DEFAULT_DATUMS
 70
0
 62
7
  6
CONTINUOUS
370
-3
390
F
  0
LAYER
  5
201
100
AcDbSymbolTableRecord
100
AcDbLayerTableRecord
  2
01_PLANES
 70
0
 62
7
  6
CONTINUOUS
370
-3
390
F
  0
LAYER
  5
202
100
AcDbSymbolTableRecord
100
AcDbLayerTableRecord
  2
02_COORD_SYS
 70
0
 62
7
  6
CONTINUOUS
370
-3
390
F
  0
LAYER
  5
203
100
AcDbSymbolTableRecord
100
AcDbLayerTableRecord
  2
03_AXES
 70
0
 62
7
  6
CONTINUOUS
370
-3
390
F
  0
LAYER
  5
204
100
AcDbSymbolTableRecord
100
AcDbLayerTableRecord
  2
03_AXES_1
 70
0
 62
7
  6
CONTINUOUS
370
-3
390
F
  0
LAYER
  5
205
100
AcDbSymbolTableRecord
100
AcDbLayerTableRecord
  2
03_AXES_2
 70
0
 62
7
  6
CONTINUOUS
370
-3
390
F
  0
LAYER
  5
206
100
AcDbSymbolTableRecord
100
AcDbLayerTableRecord
  2
04_POINTS
 70
0
 62
7
  6
CONTINUOUS
370
-3
390
F
  0
LAYER
  5
207
100
AcDbSymbolTableRecord
100
AcDbLayerTableRecord
  2
05_CURVES
 70
0
 62
7
  6
CONTINUOUS
370
-3
390
F
  0
LAYER
  5
208
100
AcDbSymbolTableRecord
100
AcDbLayerTableRecord
  2
06_SURFS
 70
0
 62
7
  6
CONTINUOUS
370
-3
390
F
  0
LAYER
  5
209
100
AcDbSymbolTableRecord
100
AcDbLayerTableRecord
  2
07_COSMETICS
 70
0
 62
7
  6
CONTINUOUS
370
-3
390
F
  0
LAYER
  5
20A
100
AcDbSymbolTableRecord
100
AcDbLayerTableRecord
  2
10_NOTES
 70
0
 62
7
  6
CONTINUOUS
370
-3
390
F
  0
LAYER
  5
20B
100
AcDbSymbolTableRecord
100
AcDbLayerTableRecord
  2
11_NOTES_PUB
 70
0
 62
7
  6
CONTINUOUS
370
-3
390
F
  0
LAYER
  5
20C
100
AcDbSymbolTableRecord
100
AcDbLayerTableRecord
  2
13_REF_GTOL
 70
0
 62
7
  6
CONTINUOUS
370
-3
390
F
  0
LAYER
  5
20D
100
AcDbSymbolTableRecord
100
AcDbLayerTableRecord
  2
13_REF_GTOL_2
 70
0
 62
7
  6
CONTINUOUS
370
-3
390
F
  0
LAYER
  5
20E
100
AcDbSymbolTableRecord
100
AcDbLayerTableRecord
  2
16_MISC
 70
0
 62
7
  6
CONTINUOUS
370
-3
390
F
  0
LAYER
  5
20F
100
AcDbSymbolTableRecord
100
AcDbLayerTableRecord
  2
17_NO_PRINT
 70
0
 62
7
  6
CONTINUOUS
370
-3
390
F
  0
LAYER
  5
210
100
AcDbSymbolTableRecord
100
AcDbLayerTableRecord
  2
18_DATUM_CAMS_JOINTS
 70
0
 62
7
  6
CONTINUOUS
370
-3
390
F
  0
LAYER
  5
211
100
AcDbSymbolTableRecord
100
AcDbLayerTableRecord
  2
19_DATUM_FUNCTIONAL
 70
0
 62
7
  6
CONTINUOUS
370
-3
390
F
  0
LAYER
  5
212
100
AcDbSymbolTableRecord
100
AcDbLayerTableRecord
  2
20_DATUM_KINEMATIC_SCHEME
 70
0
 62
7
  6
CONTINUOUS
370
-3
390
F
  0
LAYER
  5
213
100
AcDbSymbolTableRecord
100
AcDbLayerTableRecord
  2
INTFCLR_25358
 70
0
 62
7
  6
CONTINUOUS
370
-3
390
F
  0
LAYER
  5
214
100
AcDbSymbolTableRecord
100
AcDbLayerTableRecord
  2
INTFCLR_35
 70
0
 62
7
  6
CONTINUOUS
370
-3
390
F
  0
LAYER
  5
215
100
AcDbSymbolTableRecord
100
AcDbLayerTableRecord
  2
INTFCLR_8
 70
0
 62
7
  6
CONTINUOUS
370
-3
390
F
  0
LAYER
  5
216
100
AcDbSymbolTableRecord
100
AcDbLayerTableRecord
  2
INTF_BLANK
 70
0
 62
7
  6
CONTINUOUS
370
-3
390
F
  0
LAYER
  5
217
100
AcDbSymbolTableRecord
100
AcDbLayerTableRecord
  2
_BLACK_HOLE
 70
0
 62
7
  6
CONTINUOUS
370
-3
390
F
  0
ENDTAB
  0
TABLE
  2
STYLE
  5
3
100
AcDbSymbolTable
 70
1
  0
STYLE
  5
11
100
AcDbSymbolTableRecord
100
AcDbTextStyleTableRecord
  2
STANDARD
 70
0
 40
0.0
 41
1.0
 50
0.0
 71
0
 42
0.2
  3
ARIAL.TTF
  4

  0
STYLE
  5
218
100
AcDbSymbolTableRecord
100
AcDbTextStyleTableRecord
  2
TEXTSTYLE_1
 70
0
 40
0.0
 41
0.8
 50
0.0
 71
0
 42
0.2
  3
gdt
  4

  0
ENDTAB
  0
TABLE
  2
VIEW
  5
6
100
AcDbSymbolTable
 70
0
  0
ENDTAB
  0
TABLE
  2
UCS
  5
7
100
AcDbSymbolTable
 70
0
  0
ENDTAB
  0
TABLE
  2
APPID
  5
9
100
AcDbSymbolTable
 70
1
  0
APPID
  5
219
100
AcDbSymbolTableRecord
100
AcDbRegAppTableRecord
  2
ACAD
 70
0
  0
ENDTAB
  0
TABLE
  2
BLOCK_RECORD
  5
1
100
AcDbSymbolTable
 70
0
  0
BLOCK_RECORD
  5
21A
100
AcDbSymbolTableRecord
100
AcDbBlockTableRecord
  2
*Model_Space
  0
BLOCK_RECORD
  5
21B
100
AcDbSymbolTableRecord
100
AcDbBlockTableRecord
  2
*Paper_Space
  0
BLOCK_RECORD
  5
21C
100
AcDbSymbolTableRecord
100
AcDbBlockTableRecord
  2
_FILLED
  0
ENDTAB
  0
TABLE
  2
DIMSTYLE
  5
A
100
AcDbSymbolTable
 70
1
100
AcDbDimStyleTable
 71
0
  0
DIMSTYLE
105
21D
100
AcDbSymbolTableRecord
100
AcDbDimStyleTableRecord
  2
STANDARD
 70
0
  3

  4

 40
1.0
 41
0.4291668844
 42
1.0
 43
0.38
 44
1.0
 45
0.0
 46
0.0
 47
0.01
 48
0.01
140
0.6008336381
141
0.09
142
0.0
143
25.4
144
1.0
145
0.0
146
1.0
147
0.625
 71
1
 72
0
 73
0
 74
0
 75
0
 76
0
 77
1
 78
8
 79
2
170
0
171
1
172
0
173
0
174
0
175
0
176
0
177
0
178
0
270
2
179
2
271
2
272
2
273
2
274
2
275
0
280
0
281
0
282
0
283
1
284
8
285
0
286
0
287
3
288
0
340
11
278
46
341
21C
342
21C
343
21C
344
21C
  0
ENDTAB
  0
ENDSEC
  0
SECTION
  2
BLOCKS
  0
BLOCK
  5
20
100
AcDbEntity
  8
0
100
AcDbBlockBegin
  2
*Model_Space
 70
0
 10
0.0
 20
0.0
 30
0.0
  3
*Model_Space
  1

  0
ENDBLK
  5
21
100
AcDbEntity
  8
0
100
AcDbBlockEnd
  0
BLOCK
  5
1C
100
AcDbEntity
  8
0
100
AcDbBlockBegin
  2
*Paper_Space
 70
0
 10
0.0
 20
0.0
 30
0.0
  3
*Paper_Space
  1

  0
ENDBLK
  5
1D
100
AcDbEntity
  8
0
100
AcDbBlockEnd
  0
BLOCK
  5
21E
100
AcDbEntity
  8
0
100
AcDbBlockBegin
  2
_FILLED
 70
64
 10
0.0
 20
0.0
  3
_FILLED
  1

  0
SOLID
  5
21F
100
AcDbEntity
  8
0
  6
BYBLOCK
 62
0
100
AcDbTrace
 10
0.0
 20
0.0
 11
-1.0
 21
0.25
 12
-1.0
 22
-0.25
 13
-1.0
 23
-0.25
  0
ENDBLK
  5
220
100
AcDbEntity
  8
0
  6
BYBLOCK
 62
0
100
AcDbBlockEnd
  0
ENDSEC
  0
SECTION
  2
ENTITIES
  0
LINE
  5
221
100
AcDbEntity
  8
00_COMPONENTS
100
AcDbLine
 62
7
  6
BYLAYER
 10
4.0150479363
 20
13.2334
 11
4.0150479363
 21
16.5354
  0
LINE
  5
222
100
AcDbEntity
  8
00_COMPONENTS
100
AcDbLine
 62
7
  6
BYLAYER
 10
4.4722479363
 20
16.7894
 11
4.4722479363
 21
17.5006
  0
LINE
  5
223
100
AcDbEntity
  8
00_COMPONENTS
100
AcDbLine
 62
7
  6
BYLAYER
 10
4.4835713306
 20
20.7774051355
 11
4.4835713306
 21
17.5006
  0
LINE
  5
224
100
AcDbEntity
  8
00_COMPONENTS
100
AcDbLine
 62
7
  6
BYLAYER
 10
4.4875371599
 20
20.7772
 11
4.4875371599
 21
17.5006
  0
LINE
  5
225
100
AcDbEntity
  8
00_COMPONENTS
100
AcDbLine
 62
7
  6
BYLAYER
 10
4.5779921284
 20
20.8577748789
 11
4.5779921284
 21
17.5006
  0
LINE
  5
226
100
AcDbEntity
  8
00_COMPONENTS
100
AcDbLine
 62
7
  6
BYLAYER
 10
4.5845699627
 20
20.779234967
 11
4.5845699627
 21
17.5006
  0
LINE
  5
227
100
AcDbEntity
  8
00_COMPONENTS
100
AcDbLine
 62
7
  6
BYLAYER
 10
4.5866423248
 20
17.5006
 11
4.5866423248
 21
20.7772
  0
LINE
  5
228
100
AcDbEntity
  8
00_COMPONENTS
100
AcDbLine
 62
7
  6
BYLAYER
 10
4.5978844643
 20
20.7772
 11
4.5978844643
 21
17.5006
  0
LINE
  5
229
100
AcDbEntity
  8
00_COMPONENTS
100
AcDbLine
 62
7
  6
BYLAYER
 10
4.7039200254
 20
20.8577748789
 11
4.7039200254
 21
17.5006
  0
LINE
  5
22A
100
AcDbEntity
  8
00_COMPONENTS
100
AcDbLine
 62
7
  6
BYLAYER
 10
4.7894874169
 20
20.7829482704
 11
4.7894874169
 21
17.5006
  0
LINE
  5
22B
100
AcDbEntity
  8
00_COMPONENTS
100
AcDbLine
 62
7
  6
BYLAYER
 10
4.7953405439
 20
17.5006
 11
4.7953405439
 21
20.7772
  0
LINE
  5
22C
100
AcDbEntity
  8
00_COMPONENTS
100
AcDbLine
 62
7
  6
BYLAYER
 10
4.8139823529
 20
20.7772
 11
4.8139823529
 21
17.5006
  0
LINE
  5
22D
100
AcDbEntity
  8
00_COMPONENTS
100
AcDbLine
 62
7
  6
BYLAYER
 10
4.9123153136
 20
21.157789174
 11
4.9123153136
 21
21.1713393836
  0
LINE
  5
22E
100
AcDbEntity
  8
00_COMPONENTS
100
AcDbLine
 62
7
  6
BYLAYER
 10
4.934791512
 20
20.8577748789
 11
4.934791512
 21
17.5006
  0
LINE
  5
22F
100
AcDbEntity
  8
00_COMPONENTS
100
AcDbLine
 62
7
  6
BYLAYER
 10
5.0614208508
 20
21.1410844342
 11
5.0614208508
 21
21.1713393836
  0
LINE
  5
230
100
AcDbEntity
  8
00_COMPONENTS
100
AcDbLine
 62
7
  6
BYLAYER
 10
5.0967641478
 20
20.7772
 11
5.0967641478
 21
17.5006
  0
LINE
  5
231
100
AcDbEntity
  8
00_COMPONENTS
100
AcDbLine
 62
7
  6
BYLAYER
 10
5.1082865871
 20
17.5006
 11
5.1082865871
 21
20.7772
  0
LINE
  5
232
100
AcDbEntity
  8
00_COMPONENTS
100
AcDbLine
 62
7
  6
BYLAYER
 10
5.1341861902
 20
20.7772
 11
5.1341861902
 21
17.5006
  0
LINE
  5
233
100
AcDbEntity
  8
00_COMPONENTS
100
AcDbLine
 62
7
  6
BYLAYER
 10
5.2688495167
 20
20.8577748789
 11
5.2688495167
 21
17.5006
  0
LINE
  5
234
100
AcDbEntity
  8
00_COMPONENTS
100
AcDbLine
 62
7
  6
BYLAYER
 10
5.3127491802
 20
21.1196092347
 11
5.3127491802
 21
21.1713393836
  0
LINE
  5
235
100
AcDbEntity
  8
00_COMPONENTS
100
AcDbLine
 62
7
  6
BYLAYER
 10
5.5040615939
 20
20.7772
 11
5.5040615939
 21
17.5006
  0
LINE
  5
236
100
AcDbEntity
  8
00_COMPONENTS
100
AcDbLine
 62
7
  6
BYLAYER
 10
5.5230987462
 20
17.5006
 11
5.5230987462
 21
20.7772
  0
LINE
  5
237
100
AcDbEntity
  8
00_COMPONENTS
100
AcDbLine
 62
7
  6
BYLAYER
 10
5.5560590317
 20
20.7772
 11
5.5560590317
 21
17.5006
  0
LINE
  5
238
100
AcDbEntity
  8
00_COMPONENTS
100
AcDbLine
 62
7
  6
BYLAYER
 10
5.6643875418
 20
21.0904631482
 11
5.6643875418
 21
21.1713393836
  0
LINE
  5
239
100
AcDbEntity
  8
00_COMPONENTS
100
AcDbLine
 62
7
  6
BYLAYER
 10
5.7035516563
 20
20.8577748789
 11
5.7035516563
 21
17.5006
  0
LINE
  5
23A
100
AcDbEntity
  8
00_COMPONENTS
100
AcDbLine
 62
7
  6
BYLAYER
 10
6.0082799756
 20
20.7772
 11
6.0082799756
 21
17.5006
  0
LINE
  5
23B
100
AcDbEntity
  8
00_COMPONENTS
100
AcDbLine
 62
7
  6
BYLAYER
 10
6.0366200501
 20
17.5006
 11
6.0366200501
 21
20.7772
  0
LINE
  5
23C
100
AcDbEntity
  8
00_COMPONENTS
100
AcDbLine
 62
7
  6
BYLAYER
 10
6.0763901703
 20
20.7772
 11
6.0763901703
 21
17.5006
  0
LINE
  5
23D
100
AcDbEntity
  8
00_COMPONENTS
100
AcDbLine
 62
7
  6
BYLAYER
 10
4.4837802493
 20
20.7772
 11
4.4835713306
 21
20.7773951722
  0
LINE
  5
23E
100
AcDbEntity
  8
00_COMPONENTS
100
AcDbLine
 62
7
  6
BYLAYER
 10
4.7953405439
 20
20.7772
 11
4.7894874169
 21
20.7829442873
  0
LINE
  5
23F
100
AcDbEntity
  8
00_COMPONENTS
100
AcDbLine
 62
7
  6
BYLAYER
 10
4.5866423248
 20
20.7772
 11
4.5845699627
 21
20.7792352212
  0
LINE
  5
240
100
AcDbEntity
  8
00_COMPONENTS
100
AcDbLine
 62
7
  6
BYLAYER
 10
5.103662369
 20
21.1990194635
 11
5.1021598055
 21
21.2005334171
  0
LINE
  5
241
100
AcDbEntity
  8
00_COMPONENTS
100
AcDbLine
 62
7
  6
BYLAYER
 10
6.113659755
 20
21.047710324
 11
6.113659755
 21
21.1713393836
  0
LINE
  5
242
100
AcDbEntity
  8
00_COMPONENTS
100
AcDbLine
 62
7
  6
BYLAYER
 10
6.2355895851
 20
20.8577748789
 11
6.2355895851
 21
17.5006
  0
LINE
  5
243
100
AcDbEntity
  8
00_COMPONENTS
100
AcDbLine
 62
7
  6
BYLAYER
 10
6.6055818866
 20
20.8159007659
 11
6.6055818866
 21
17.5006
  0
LINE
  5
244
100
AcDbEntity
  8
00_COMPONENTS
100
AcDbLine
 62
7
  6
BYLAYER
 10
6.6449422916
 20
17.5006
 11
6.6449422916
 21
20.7772
  0
LINE
  5
245
100
AcDbEntity
  8
00_COMPONENTS
100
AcDbLine
 62
7
  6
BYLAYER
 10
6.6571465872
 20
20.9776344979
 11
6.6571465872
 21
21.1713393836
  0
LINE
  5
246
100
AcDbEntity
  8
00_COMPONENTS
100
AcDbLine
 62
7
  6
BYLAYER
 10
6.6912195719
 20
20.7772
 11
6.6912195719
 21
17.5006
  0
LINE
  5
247
100
AcDbEntity
  8
00_COMPONENTS
100
AcDbLine
 62
7
  6
BYLAYER
 10
6.8609141732
 20
20.8577748789
 11
6.8609141732
 21
17.5006
  0
LINE
  5
248
100
AcDbEntity
  8
00_COMPONENTS
100
AcDbLine
 62
7
  6
BYLAYER
 10
7.2907117754
 20
20.8577748789
 11
7.2907117754
 21
21.1713393836
  0
LINE
  5
249
100
AcDbEntity
  8
00_COMPONENTS
100
AcDbLine
 62
7
  6
BYLAYER
 10
7.2914214987
 20
20.8283653423
 11
7.2914214987
 21
17.5006
  0
LINE
  5
24A
100
AcDbEntity
  8
00_COMPONENTS
100
AcDbLine
 62
7
  6
BYLAYER
 10
4.0150479363
 20
13.2334
 11
32.9710479363
 21
13.2334
  0
LINE
  5
24B
100
AcDbEntity
  8
00_COMPONENTS
100
AcDbLine
 62
7
  6
BYLAYER
 10
5.3622791802
 20
21.1971341647
 11
5.3588302252
 21
21.2005330116
  0
LINE
  5
24C
100
AcDbEntity
  8
00_COMPONENTS
100
AcDbLine
 62
7
  6
BYLAYER
 10
7.3434357711
 20
17.5006
 11
7.3434357711
 21
20.7772
  0
LINE
  5
24D
100
AcDbEntity
  8
00_COMPONENTS
100
AcDbLine
 62
7
  6
BYLAYER
 10
7.3958680135
 20
20.7772
 11
7.3958680135
 21
17.5006
  0
LINE
  5
24E
100
AcDbEntity
  8
00_COMPONENTS
100
AcDbLine
 62
7
  6
BYLAYER
 10
7.574766323
 20
20.8577748789
 11
7.574766323
 21
17.5006
  0
LINE
  5
24F
100
AcDbEntity
  8
00_COMPONENTS
100
AcDbLine
 62
7
  6
BYLAYER
 10
8.009533506
 20
17.5006
 11
8.009533506
 21
21.1713393836
  0
LINE
  5
250
100
AcDbEntity
  8
00_COMPONENTS
100
AcDbLine
 62
7
  6
BYLAYER
 10
8.0605791584
 20
20.8423574
 11
8.0605791584
 21
17.5006
  0
LINE
  5
251
100
AcDbEntity
  8
00_COMPONENTS
100
AcDbLine
 62
7
  6
BYLAYER
 10
8.1267845315
 20
17.5006
 11
8.1267845315
 21
20.7772
  0
LINE
  5
252
100
AcDbEntity
  8
00_COMPONENTS
100
AcDbLine
 62
7
  6
BYLAYER
 10
8.1849726949
 20
20.7772
 11
8.1849726949
 21
17.5006
  0
LINE
  5
253
100
AcDbEntity
  8
00_COMPONENTS
100
AcDbLine
 62
7
  6
BYLAYER
 10
8.3717131884
 20
20.8577748789
 11
8.3717131884
 21
17.5006
  0
LINE
  5
254
100
AcDbEntity
  8
00_COMPONENTS
100
AcDbLine
 62
7
  6
BYLAYER
 10
8.0605791585
 20
20.842369356
 11
8.0615457051
 21
20.8577748789
  0
LINE
  5
255
100
AcDbEntity
  8
00_COMPONENTS
100
AcDbLine
 62
7
  6
BYLAYER
 10
8.099959858
 20
21.1772016616
 11
8.0995829049
 21
21.1713393836
  0
LINE
  5
256
100
AcDbEntity
  8
00_COMPONENTS
100
AcDbLine
 62
7
  6
BYLAYER
 10
7.2914214987
 20
20.828361824
 11
7.2952803295
 21
20.8577748789
  0
LINE
  5
257
100
AcDbEntity
  8
00_COMPONENTS
100
AcDbLine
 62
7
  6
BYLAYER
 10
7.3725701869
 20
21.1824959513
 11
7.371065243
 21
21.1713393836
  0
LINE
  5
258
100
AcDbEntity
  8
00_COMPONENTS
100
AcDbLine
 62
7
  6
BYLAYER
 10
6.6055818866
 20
20.815903828
 11
6.6142367267
 21
20.8577748789
  0
LINE
  5
259
100
AcDbEntity
  8
00_COMPONENTS
100
AcDbLine
 62
7
  6
BYLAYER
 10
6.7305679726
 20
21.1871766913
 11
6.727192585
 21
21.1713393836
  0
LINE
  5
25A
100
AcDbEntity
  8
00_COMPONENTS
100
AcDbLine
 62
7
  6
BYLAYER
 10
6.1788392396
 20
21.1911904083
 11
6.1728651907
 21
21.1713393836
  0
LINE
  5
25B
100
AcDbEntity
  8
00_COMPONENTS
100
AcDbLine
 62
7
  6
BYLAYER
 10
5.7215829768
 20
21.1945178413
 11
5.7123018261
 21
21.1713393836
  0
LINE
  5
25C
100
AcDbEntity
  8
00_COMPONENTS
100
AcDbLine
 62
7
  6
BYLAYER
 10
8.8081411114
 20
17.5006
 11
8.8081411114
 21
21.1713393836
  0
LINE
  5
25D
100
AcDbEntity
  8
00_COMPONENTS
100
AcDbLine
 62
7
  6
BYLAYER
 10
8.9072011114
 20
17.5006
 11
8.9072011114
 21
21.1713393836
  0
LINE
  5
25E
100
AcDbEntity
  8
00_COMPONENTS
100
AcDbLine
 62
7
  6
BYLAYER
 10
8.9890268158
 20
17.5006
 11
8.9890268158
 21
20.7772
  0
LINE
  5
25F
100
AcDbEntity
  8
00_COMPONENTS
100
AcDbLine
 62
7
  6
BYLAYER
 10
9.0525280531
 20
20.7772
 11
9.0525280531
 21
17.5006
  0
LINE
  5
260
100
AcDbEntity
  8
00_COMPONENTS
100
AcDbLine
 62
7
  6
BYLAYER
 10
9.2456895227
 20
20.8577748789
 11
9.2456895227
 21
17.5006
  0
LINE
  5
261
100
AcDbEntity
  8
00_COMPONENTS
100
AcDbLine
 62
7
  6
BYLAYER
 10
9.6804567057
 20
17.5006
 11
9.6804567057
 21
21.1713393836
  0
LINE
  5
262
100
AcDbEntity
  8
00_COMPONENTS
100
AcDbLine
 62
7
  6
BYLAYER
 10
9.7877734004
 20
21.1713393836
 11
9.7877734004
 21
17.5006
  0
LINE
  5
263
100
AcDbEntity
  8
00_COMPONENTS
100
AcDbLine
 62
7
  6
BYLAYER
 10
9.8258106002
 20
17.5006
 11
9.8258106002
 21
20.8577748789
  0
LINE
  5
264
100
AcDbEntity
  8
00_COMPONENTS
100
AcDbLine
 62
7
  6
BYLAYER
 10
32.9710479363
 20
16.5354
 11
4.0151798052
 21
16.5354
  0
LINE
  5
265
100
AcDbEntity
  8
00_COMPONENTS
100
AcDbLine
 62
7
  6
BYLAYER
 10
9.9236004394
 20
17.5006
 11
9.9236004394
 21
20.7772
  0
LINE
  5
266
100
AcDbEntity
  8
00_COMPONENTS
100
AcDbLine
 62
7
  6
BYLAYER
 10
9.991931468
 20
20.7772
 11
9.991931468
 21
17.5006
  0
LINE
  5
267
100
AcDbEntity
  8
00_COMPONENTS
100
AcDbLine
 62
7
  6
BYLAYER
 10
10.1900438383
 20
20.8577748789
 11
10.1900438383
 21
17.5006
  0
LINE
  5
268
100
AcDbEntity
  8
00_COMPONENTS
100
AcDbLine
 62
7
  6
BYLAYER
 10
10.6198414405
 20
17.5006
 11
10.6198414405
 21
21.1713393836
  0
LINE
  5
269
100
AcDbEntity
  8
00_COMPONENTS
100
AcDbLine
 62
7
  6
BYLAYER
 10
10.734598085
 20
21.1713393836
 11
10.734598085
 21
17.5006
  0
LINE
  5
26A
100
AcDbEntity
  8
00_COMPONENTS
100
AcDbLine
 62
7
  6
BYLAYER
 10
10.8103829985
 20
17.5006
 11
10.8103829985
 21
20.8577748789
  0
LINE
  5
26B
100
AcDbEntity
  8
00_COMPONENTS
100
AcDbLine
 62
7
  6
BYLAYER
 10
10.9233927329
 20
17.5006
 11
10.9233927329
 21
20.7772
  0
LINE
  5
26C
100
AcDbEntity
  8
00_COMPONENTS
100
AcDbLine
 62
7
  6
BYLAYER
 10
10.9960335124
 20
20.7772
 11
10.9960335124
 21
17.5006
  0
LINE
  5
26D
100
AcDbEntity
  8
00_COMPONENTS
100
AcDbLine
 62
7
  6
BYLAYER
 10
32.7170479363
 20
16.7894
 11
4.2691774917
 21
16.7894
  0
LINE
  5
26E
100
AcDbEntity
  8
00_COMPONENTS
100
AcDbLine
 62
7
  6
BYLAYER
 10
32.5138479363
 20
17.5006
 11
32.502524542
 21
17.5006
  0
LINE
  5
26F
100
AcDbEntity
  8
00_COMPONENTS
100
AcDbLine
 62
7
  6
BYLAYER
 10
32.4985587126
 20
17.5006
 11
32.3994535478
 21
17.5006
  0
LINE
  5
270
100
AcDbEntity
  8
00_COMPONENTS
100
AcDbLine
 62
7
  6
BYLAYER
 10
32.3882114082
 20
17.5006
 11
32.1907553286
 21
17.5006
  0
LINE
  5
271
100
AcDbEntity
  8
00_COMPONENTS
100
AcDbLine
 62
7
  6
BYLAYER
 10
32.1721135196
 20
17.5006
 11
31.8778092854
 21
17.5006
  0
LINE
  5
272
100
AcDbEntity
  8
00_COMPONENTS
100
AcDbLine
 62
7
  6
BYLAYER
 10
31.8519096823
 20
17.5006
 11
31.4629971263
 21
17.5006
  0
LINE
  5
273
100
AcDbEntity
  8
00_COMPONENTS
100
AcDbLine
 62
7
  6
BYLAYER
 10
31.4300368409
 20
17.5006
 11
30.9494758224
 21
17.5006
  0
LINE
  5
274
100
AcDbEntity
  8
00_COMPONENTS
100
AcDbLine
 62
7
  6
BYLAYER
 10
30.9097057022
 20
17.5006
 11
30.3411535809
 21
17.5006
  0
LINE
  5
275
100
AcDbEntity
  8
00_COMPONENTS
100
AcDbLine
 62
7
  6
BYLAYER
 10
30.2948763007
 20
17.5006
 11
29.6426601014
 21
17.5006
  0
LINE
  5
276
100
AcDbEntity
  8
00_COMPONENTS
100
AcDbLine
 62
7
  6
BYLAYER
 10
29.5902278591
 20
17.5006
 11
28.859311341
 21
17.5006
  0
LINE
  5
277
100
AcDbEntity
  8
00_COMPONENTS
100
AcDbLine
 62
7
  6
BYLAYER
 10
28.8011231776
 20
17.5006
 11
27.9970690568
 21
17.5006
  0
LINE
  5
278
100
AcDbEntity
  8
00_COMPONENTS
100
AcDbLine
 62
7
  6
BYLAYER
 10
27.9335678194
 20
17.5006
 11
27.0624954331
 21
17.5006
  0
LINE
  5
279
100
AcDbEntity
  8
00_COMPONENTS
100
AcDbLine
 62
7
  6
BYLAYER
 10
26.9941644045
 20
17.5006
 11
26.0627031396
 21
17.5006
  0
LINE
  5
27A
100
AcDbEntity
  8
00_COMPONENTS
100
AcDbLine
 62
7
  6
BYLAYER
 10
25.9900623602
 20
17.5006
 11
25.0053011993
 21
17.5006
  0
LINE
  5
27B
100
AcDbEntity
  8
00_COMPONENTS
100
AcDbLine
 62
7
  6
BYLAYER
 10
24.9289035093
 20
17.5006
 11
23.8983370795
 21
17.5006
  0
LINE
  5
27C
100
AcDbEntity
  8
00_COMPONENTS
100
AcDbLine
 62
7
  6
BYLAYER
 10
23.8187639114
 20
17.5006
 11
22.7502354455
 21
17.5006
  0
LINE
  5
27D
100
AcDbEntity
  8
00_COMPONENTS
100
AcDbLine
 62
7
  6
BYLAYER
 10
22.6680923991
 20
17.5006
 11
21.569734044
 21
17.5006
  0
LINE
  5
27E
100
AcDbEntity
  8
00_COMPONENTS
100
AcDbLine
 62
7
  6
BYLAYER
 10
21.4856462776
 20
17.5006
 11
20.3658172035
 21
17.5006
  0
LINE
  5
27F
100
AcDbEntity
  8
00_COMPONENTS
100
AcDbLine
 62
7
  6
BYLAYER
 10
20.2804246757
 20
17.5006
 11
19.147647458
 21
17.5006
  0
LINE
  5
280
100
AcDbEntity
  8
00_COMPONENTS
100
AcDbLine
 62
7
  6
BYLAYER
 10
19.0616000575
 20
17.5006
 11
17.924495815
 21
17.5006
  0
LINE
  5
281
100
AcDbEntity
  8
00_COMPONENTS
100
AcDbLine
 62
7
  6
BYLAYER
 10
17.8384484145
 20
17.5006
 11
16.7056711968
 21
17.5006
  0
LINE
  5
282
100
AcDbEntity
  8
00_COMPONENTS
100
AcDbLine
 62
7
  6
BYLAYER
 10
16.620278669
 20
17.5006
 11
15.5004495949
 21
17.5006
  0
LINE
  5
283
100
AcDbEntity
  8
00_COMPONENTS
100
AcDbLine
 62
7
  6
BYLAYER
 10
15.4163618285
 20
17.5006
 11
14.3180034734
 21
17.5006
  0
LINE
  5
284
100
AcDbEntity
  8
00_COMPONENTS
100
AcDbLine
 62
7
  6
BYLAYER
 10
14.235860427
 20
17.5006
 11
13.1673319612
 21
17.5006
  0
LINE
  5
285
100
AcDbEntity
  8
00_COMPONENTS
100
AcDbLine
 62
7
  6
BYLAYER
 10
13.087758793
 20
17.5006
 11
12.0571923633
 21
17.5006
  0
LINE
  5
286
100
AcDbEntity
  8
00_COMPONENTS
100
AcDbLine
 62
7
  6
BYLAYER
 10
11.9807946732
 20
17.5006
 11
10.9960335123
 21
17.5006
  0
LINE
  5
287
100
AcDbEntity
  8
00_COMPONENTS
100
AcDbLine
 62
7
  6
BYLAYER
 10
10.9233927329
 20
17.5006
 11
9.991931468
 21
17.5006
  0
LINE
  5
288
100
AcDbEntity
  8
00_COMPONENTS
100
AcDbLine
 62
7
  6
BYLAYER
 10
9.9236004394
 20
17.5006
 11
9.0525280532
 21
17.5006
  0
LINE
  5
289
100
AcDbEntity
  8
00_COMPONENTS
100
AcDbLine
 62
7
  6
BYLAYER
 10
8.9890268158
 20
17.5006
 11
8.1849726949
 21
17.5006
  0
LINE
  5
28A
100
AcDbEntity
  8
00_COMPONENTS
100
AcDbLine
 62
7
  6
BYLAYER
 10
8.1267845315
 20
17.5006
 11
7.3958680135
 21
17.5006
  0
LINE
  5
28B
100
AcDbEntity
  8
00_COMPONENTS
100
AcDbLine
 62
7
  6
BYLAYER
 10
7.3434357711
 20
17.5006
 11
6.6912195719
 21
17.5006
  0
LINE
  5
28C
100
AcDbEntity
  8
00_COMPONENTS
100
AcDbLine
 62
7
  6
BYLAYER
 10
6.6449422916
 20
17.5006
 11
6.0763901703
 21
17.5006
  0
LINE
  5
28D
100
AcDbEntity
  8
00_COMPONENTS
100
AcDbLine
 62
7
  6
BYLAYER
 10
6.0366200501
 20
17.5006
 11
5.5560590317
 21
17.5006
  0
LINE
  5
28E
100
AcDbEntity
  8
00_COMPONENTS
100
AcDbLine
 62
7
  6
BYLAYER
 10
5.5230987462
 20
17.5006
 11
5.1341861902
 21
17.5006
  0
LINE
  5
28F
100
AcDbEntity
  8
00_COMPONENTS
100
AcDbLine
 62
7
  6
BYLAYER
 10
5.1082865871
 20
17.5006
 11
4.8139823529
 21
17.5006
  0
LINE
  5
290
100
AcDbEntity
  8
00_COMPONENTS
100
AcDbLine
 62
7
  6
BYLAYER
 10
4.7953405439
 20
17.5006
 11
4.5978844643
 21
17.5006
  0
LINE
  5
291
100
AcDbEntity
  8
00_COMPONENTS
100
AcDbLine
 62
7
  6
BYLAYER
 10
4.4837802493
 20
17.5006
 11
4.4722479363
 21
17.5006
  0
LINE
  5
292
100
AcDbEntity
  8
00_COMPONENTS
100
AcDbLine
 62
7
  6
BYLAYER
 10
4.5866423248
 20
17.5006
 11
4.4875371599
 21
17.5006
  0
LINE
  5
293
100
AcDbEntity
  8
00_COMPONENTS
100
AcDbLine
 62
7
  6
BYLAYER
 10
11.1975890285
 20
20.8577748789
 11
11.1975890285
 21
17.5006
  0
LINE
  5
294
100
AcDbEntity
  8
00_COMPONENTS
100
AcDbLine
 62
7
  6
BYLAYER
 10
11.6191460307
 20
17.5006
 11
11.6191460307
 21
21.1713393836
  0
LINE
  5
295
100
AcDbEntity
  8
00_COMPONENTS
100
AcDbLine
 62
7
  6
BYLAYER
 10
11.7404692576
 20
21.1713393836
 11
11.7404692576
 21
17.5006
  0
LINE
  5
296
100
AcDbEntity
  8
00_COMPONENTS
100
AcDbLine
 62
7
  6
BYLAYER
 10
11.8534251159
 20
17.5006
 11
11.8534251159
 21
20.8577748789
  0
LINE
  5
297
100
AcDbEntity
  8
00_COMPONENTS
100
AcDbLine
 62
7
  6
BYLAYER
 10
11.9807946732
 20
17.5006
 11
11.9807946732
 21
20.7772
  0
LINE
  5
298
100
AcDbEntity
  8
00_COMPONENTS
100
AcDbLine
 62
7
  6
BYLAYER
 10
12.0571923633
 20
20.7772
 11
12.0571923633
 21
17.5006
  0
LINE
  5
299
100
AcDbEntity
  8
00_COMPONENTS
100
AcDbLine
 62
7
  6
BYLAYER
 10
12.2606570661
 20
20.8577748789
 11
12.2606570661
 21
17.5006
  0
LINE
  5
29A
100
AcDbEntity
  8
00_COMPONENTS
100
AcDbLine
 62
7
  6
BYLAYER
 10
4.5999595834
 20
20.9008349906
 11
4.5579662081
 21
20.8577748789
  0
LINE
  5
29B
100
AcDbEntity
  8
00_COMPONENTS
100
AcDbLine
 62
7
  6
BYLAYER
 10
5.2596479363
 20
21.5646
 11
4.8665673982
 21
21.1713394768
  0
LINE
  5
29C
100
AcDbEntity
  8
00_COMPONENTS
100
AcDbLine
 62
7
  6
BYLAYER
 10
4.6128455815
 20
20.8907738299
 11
4.5779921284
 21
20.8577748789
  0
LINE
  5
29D
100
AcDbEntity
  8
00_COMPONENTS
100
AcDbLine
 62
7
  6
BYLAYER
 10
12.6707651649
 20
17.5006
 11
12.6707651649
 21
21.1713393836
  0
LINE
  5
29E
100
AcDbEntity
  8
00_COMPONENTS
100
AcDbLine
 62
7
  6
BYLAYER
 10
12.7977316313
 20
21.1713393836
 11
12.7977316313
 21
17.5006
  0
LINE
  5
29F
100
AcDbEntity
  8
00_COMPONENTS
100
AcDbLine
 62
7
  6
BYLAYER
 10
12.9469987721
 20
17.5006
 11
12.9469987721
 21
20.8577748789
  0
LINE
  5
2A0
100
AcDbEntity
  8
00_COMPONENTS
100
AcDbLine
 62
7
  6
BYLAYER
 10
13.087758793
 20
17.5006
 11
13.087758793
 21
20.7772
  0
LINE
  5
2A1
100
AcDbEntity
  8
00_COMPONENTS
100
AcDbLine
 62
7
  6
BYLAYER
 10
13.1673319612
 20
20.7772
 11
13.1673319612
 21
17.5006
  0
LINE
  5
2A2
100
AcDbEntity
  8
00_COMPONENTS
100
AcDbLine
 62
7
  6
BYLAYER
 10
13.3711573615
 20
20.8577748789
 11
13.3711573615
 21
17.5006
  0
LINE
  5
2A3
100
AcDbEntity
  8
00_COMPONENTS
100
AcDbLine
 62
7
  6
BYLAYER
 10
14.5014253307
 20
37.2108739446
 11
12.9596705418
 21
21.7933260554
  0
LINE
  5
2A4
100
AcDbEntity
  8
00_COMPONENTS
100
AcDbLine
 62
7
  6
BYLAYER
 10
4.7777545517
 20
20.9230800841
 11
4.7039200254
 21
20.8577748789
  0
LINE
  5
2A5
100
AcDbEntity
  8
00_COMPONENTS
100
AcDbLine
 62
7
  6
BYLAYER
 10
13.7666953866
 20
17.5006
 11
13.7666953866
 21
21.1713393836
  0
LINE
  5
2A6
100
AcDbEntity
  8
00_COMPONENTS
100
AcDbLine
 62
7
  6
BYLAYER
 10
13.898338801
 20
21.1713393836
 11
13.898338801
 21
17.5006
  0
LINE
  5
2A7
100
AcDbEntity
  8
00_COMPONENTS
100
AcDbLine
 62
7
  6
BYLAYER
 10
14.0827812112
 20
17.5006
 11
14.0827812112
 21
20.8577748789
  0
LINE
  5
2A8
100
AcDbEntity
  8
00_COMPONENTS
100
AcDbLine
 62
7
  6
BYLAYER
 10
14.235860427
 20
17.5006
 11
14.235860427
 21
20.7772
  0
LINE
  5
2A9
100
AcDbEntity
  8
00_COMPONENTS
100
AcDbLine
 62
7
  6
BYLAYER
 10
14.3180034734
 20
20.7772
 11
14.3180034734
 21
17.5006
  0
LINE
  5
2AA
100
AcDbEntity
  8
00_COMPONENTS
100
AcDbLine
 62
7
  6
BYLAYER
 10
14.5206383368
 20
20.8577748789
 11
14.5206383368
 21
17.5006
  0
LINE
  5
2AB
100
AcDbEntity
  8
00_COMPONENTS
100
AcDbLine
 62
7
  6
BYLAYER
 10
32.5023156232
 20
20.7772
 11
32.4985587126
 21
20.7772
  0
LINE
  5
2AC
100
AcDbEntity
  8
00_COMPONENTS
100
AcDbLine
 62
7
  6
BYLAYER
 10
32.3994535478
 20
20.7772
 11
32.3882114082
 21
20.7772
  0
LINE
  5
2AD
100
AcDbEntity
  8
00_COMPONENTS
100
AcDbLine
 62
7
  6
BYLAYER
 10
32.1907553286
 20
20.7772
 11
32.1721135196
 21
20.7772
  0
LINE
  5
2AE
100
AcDbEntity
  8
00_COMPONENTS
100
AcDbLine
 62
7
  6
BYLAYER
 10
31.8778092854
 20
20.7772
 11
31.8519096823
 21
20.7772
  0
LINE
  5
2AF
100
AcDbEntity
  8
00_COMPONENTS
100
AcDbLine
 62
7
  6
BYLAYER
 10
31.4629971263
 20
20.7772
 11
31.4300368409
 21
20.7772
  0
LINE
  5
2B0
100
AcDbEntity
  8
00_COMPONENTS
100
AcDbLine
 62
7
  6
BYLAYER
 10
30.9494758224
 20
20.7772
 11
30.9097057022
 21
20.7772
  0
LINE
  5
2B1
100
AcDbEntity
  8
00_COMPONENTS
100
AcDbLine
 62
7
  6
BYLAYER
 10
30.341153581
 20
20.7772
 11
30.2948763006
 21
20.7772
  0
LINE
  5
2B2
100
AcDbEntity
  8
00_COMPONENTS
100
AcDbLine
 62
7
  6
BYLAYER
 10
29.6426601014
 20
20.7772
 11
29.5902278591
 21
20.7772
  0
LINE
  5
2B3
100
AcDbEntity
  8
00_COMPONENTS
100
AcDbLine
 62
7
  6
BYLAYER
 10
28.859311341
 20
20.7772
 11
28.8011231776
 21
20.7772
  0
LINE
  5
2B4
100
AcDbEntity
  8
00_COMPONENTS
100
AcDbLine
 62
7
  6
BYLAYER
 10
27.9970690568
 20
20.7772
 11
27.9335678194
 21
20.7772
  0
LINE
  5
2B5
100
AcDbEntity
  8
00_COMPONENTS
100
AcDbLine
 62
7
  6
BYLAYER
 10
27.0624954331
 20
20.7772
 11
26.9941644045
 21
20.7772
  0
LINE
  5
2B6
100
AcDbEntity
  8
00_COMPONENTS
100
AcDbLine
 62
7
  6
BYLAYER
 10
26.0627031396
 20
20.7772
 11
25.9900623602
 21
20.7772
  0
LINE
  5
2B7
100
AcDbEntity
  8
00_COMPONENTS
100
AcDbLine
 62
7
  6
BYLAYER
 10
25.0053011993
 20
20.7772
 11
24.9289035093
 21
20.7772
  0
LINE
  5
2B8
100
AcDbEntity
  8
00_COMPONENTS
100
AcDbLine
 62
7
  6
BYLAYER
 10
23.8983370795
 20
20.7772
 11
23.8187639114
 21
20.7772
  0
LINE
  5
2B9
100
AcDbEntity
  8
00_COMPONENTS
100
AcDbLine
 62
7
  6
BYLAYER
 10
22.7502354455
 20
20.7772
 11
22.6680923991
 21
20.7772
  0
LINE
  5
2BA
100
AcDbEntity
  8
00_COMPONENTS
100
AcDbLine
 62
7
  6
BYLAYER
 10
21.569734044
 20
20.7772
 11
21.4856462776
 21
20.7772
  0
LINE
  5
2BB
100
AcDbEntity
  8
00_COMPONENTS
100
AcDbLine
 62
7
  6
BYLAYER
 10
20.3658172035
 20
20.7772
 11
20.2804246757
 21
20.7772
  0
LINE
  5
2BC
100
AcDbEntity
  8
00_COMPONENTS
100
AcDbLine
 62
7
  6
BYLAYER
 10
19.147647458
 20
20.7772
 11
19.0616000576
 21
20.7772
  0
LINE
  5
2BD
100
AcDbEntity
  8
00_COMPONENTS
100
AcDbLine
 62
7
  6
BYLAYER
 10
17.924495815
 20
20.7772
 11
17.8384484145
 21
20.7772
  0
LINE
  5
2BE
100
AcDbEntity
  8
00_COMPONENTS
100
AcDbLine
 62
7
  6
BYLAYER
 10
16.7056711968
 20
20.7772
 11
16.620278669
 21
20.7772
  0
LINE
  5
2BF
100
AcDbEntity
  8
00_COMPONENTS
100
AcDbLine
 62
7
  6
BYLAYER
 10
15.5004495949
 20
20.7772
 11
15.4163618285
 21
20.7772
  0
LINE
  5
2C0
100
AcDbEntity
  8
00_COMPONENTS
100
AcDbLine
 62
7
  6
BYLAYER
 10
14.3180034734
 20
20.7772
 11
14.235860427
 21
20.7772
  0
LINE
  5
2C1
100
AcDbEntity
  8
00_COMPONENTS
100
AcDbLine
 62
7
  6
BYLAYER
 10
13.1673319612
 20
20.7772
 11
13.087758793
 21
20.7772
  0
LINE
  5
2C2
100
AcDbEntity
  8
00_COMPONENTS
100
AcDbLine
 62
7
  6
BYLAYER
 10
12.0571923633
 20
20.7772
 11
11.9807946732
 21
20.7772
  0
LINE
  5
2C3
100
AcDbEntity
  8
00_COMPONENTS
100
AcDbLine
 62
7
  6
BYLAYER
 10
10.9960335124
 20
20.7772
 11
10.9233927329
 21
20.7772
  0
LINE
  5
2C4
100
AcDbEntity
  8
00_COMPONENTS
100
AcDbLine
 62
7
  6
BYLAYER
 10
9.991931468
 20
20.7772
 11
9.9236004394
 21
20.7772
  0
LINE
  5
2C5
100
AcDbEntity
  8
00_COMPONENTS
100
AcDbLine
 62
7
  6
BYLAYER
 10
9.0525280531
 20
20.7772
 11
8.9890268158
 21
20.7772
  0
LINE
  5
2C6
100
AcDbEntity
  8
00_COMPONENTS
100
AcDbLine
 62
7
  6
BYLAYER
 10
8.1849726949
 20
20.7772
 11
8.1267845315
 21
20.7772
  0
LINE
  5
2C7
100
AcDbEntity
  8
00_COMPONENTS
100
AcDbLine
 62
7
  6
BYLAYER
 10
7.3958680135
 20
20.7772
 11
7.3434357711
 21
20.7772
  0
LINE
  5
2C8
100
AcDbEntity
  8
00_COMPONENTS
100
AcDbLine
 62
7
  6
BYLAYER
 10
6.6912195719
 20
20.7772
 11
6.6449422916
 21
20.7772
  0
LINE
  5
2C9
100
AcDbEntity
  8
00_COMPONENTS
100
AcDbLine
 62
7
  6
BYLAYER
 10
6.0763901703
 20
20.7772
 11
6.0366200501
 21
20.7772
  0
LINE
  5
2CA
100
AcDbEntity
  8
00_COMPONENTS
100
AcDbLine
 62
7
  6
BYLAYER
 10
5.5560590317
 20
20.7772
 11
5.5230987462
 21
20.7772
  0
LINE
  5
2CB
100
AcDbEntity
  8
00_COMPONENTS
100
AcDbLine
 62
7
  6
BYLAYER
 10
5.1341861902
 20
20.7772
 11
5.1082865871
 21
20.7772
  0
LINE
  5
2CC
100
AcDbEntity
  8
00_COMPONENTS
100
AcDbLine
 62
7
  6
BYLAYER
 10
4.8139823529
 20
20.7772
 11
4.7953405439
 21
20.7772
  0
LINE
  5
2CD
100
AcDbEntity
  8
00_COMPONENTS
100
AcDbLine
 62
7
  6
BYLAYER
 10
4.5978844643
 20
20.7772
 11
4.5866423248
 21
20.7772
  0
LINE
  5
2CE
100
AcDbEntity
  8
00_COMPONENTS
100
AcDbLine
 62
7
  6
BYLAYER
 10
4.4875371599
 20
20.7772
 11
4.4837802493
 21
20.7772
  0
LINE
  5
2CF
100
AcDbEntity
  8
00_COMPONENTS
100
AcDbLine
 62
7
  6
BYLAYER
 10
31.7263339662
 20
21.5646
 11
5.2597064556
 21
21.5646
  0
LINE
  5
2D0
100
AcDbEntity
  8
00_COMPONENTS
100
AcDbLine
 62
7
  6
BYLAYER
 10
14.8985960051
 20
17.5006
 11
14.8985960051
 21
21.1713393836
  0
LINE
  5
2D1
100
AcDbEntity
  8
00_COMPONENTS
100
AcDbLine
 62
7
  6
BYLAYER
 10
15.0339144816
 20
21.1713393836
 11
15.0339144816
 21
17.5006
  0
LINE
  5
2D2
100
AcDbEntity
  8
00_COMPONENTS
100
AcDbLine
 62
7
  6
BYLAYER
 10
15.2521284431
 20
17.5006
 11
15.2521284431
 21
20.8577748789
  0
LINE
  5
2D3
100
AcDbEntity
  8
00_COMPONENTS
100
AcDbLine
 62
7
  6
BYLAYER
 10
15.4163618285
 20
17.5006
 11
15.4163618285
 21
20.7772
  0
LINE
  5
2D4
100
AcDbEntity
  8
00_COMPONENTS
100
AcDbLine
 62
7
  6
BYLAYER
 10
15.5004495949
 20
20.7772
 11
15.5004495949
 21
17.5006
  0
LINE
  5
2D5
100
AcDbEntity
  8
00_COMPONENTS
100
AcDbLine
 62
7
  6
BYLAYER
 10
15.7003517478
 20
20.8577748789
 11
15.7003517478
 21
17.5006
  0
LINE
  5
2D6
100
AcDbEntity
  8
00_COMPONENTS
100
AcDbLine
 62
7
  6
BYLAYER
 10
16.0578525731
 20
17.5006
 11
16.0578525731
 21
21.1713393836
  0
LINE
  5
2D7
100
AcDbEntity
  8
00_COMPONENTS
100
AcDbLine
 62
7
  6
BYLAYER
 10
16.1958162564
 20
21.1713393836
 11
16.1958162564
 21
17.5006
  0
LINE
  5
2D8
100
AcDbEntity
  8
00_COMPONENTS
100
AcDbLine
 62
7
  6
BYLAYER
 10
16.4461410292
 20
17.5006
 11
16.4461410292
 21
20.8577748789
  0
LINE
  5
2D9
100
AcDbEntity
  8
00_COMPONENTS
100
AcDbLine
 62
7
  6
BYLAYER
 10
16.620278669
 20
17.5006
 11
16.620278669
 21
20.7772
  0
LINE
  5
2DA
100
AcDbEntity
  8
00_COMPONENTS
100
AcDbLine
 62
7
  6
BYLAYER
 10
16.7056711968
 20
20.7772
 11
16.7056711968
 21
17.5006
  0
LINE
  5
2DB
100
AcDbEntity
  8
00_COMPONENTS
100
AcDbLine
 62
7
  6
BYLAYER
 10
16.9013192631
 20
20.8577748789
 11
16.9013192631
 21
17.5006
  0
LINE
  5
2DC
100
AcDbEntity
  8
00_COMPONENTS
100
AcDbLine
 62
7
  6
BYLAYER
 10
17.2356424483
 20
17.5006
 11
17.2356424483
 21
21.1713393836
  0
LINE
  5
2DD
100
AcDbEntity
  8
00_COMPONENTS
100
AcDbLine
 62
7
  6
BYLAYER
 10
17.3752013515
 20
21.1713393836
 11
17.3752013515
 21
17.5006
  0
LINE
  5
2DE
100
AcDbEntity
  8
00_COMPONENTS
100
AcDbLine
 62
7
  6
BYLAYER
 10
17.5583451613
 20
36.4627838536
 11
17.5583438063
 21
21.5646
  0
LINE
  5
2DF
100
AcDbEntity
  8
00_COMPONENTS
100
AcDbLine
 62
7
  6
BYLAYER
 10
17.6557318129
 20
17.5006
 11
17.6557318129
 21
20.8577748789
  0
LINE
  5
2E0
100
AcDbEntity
  8
00_COMPONENTS
100
AcDbLine
 62
7
  6
BYLAYER
 10
17.8384484145
 20
17.5006
 11
17.8384484145
 21
20.7772
  0
LINE
  5
2E1
100
AcDbEntity
  8
00_COMPONENTS
100
AcDbLine
 62
7
  6
BYLAYER
 10
17.924495815
 20
20.7772
 11
17.924495815
 21
17.5006
  0
LINE
  5
2E2
100
AcDbEntity
  8
00_COMPONENTS
100
AcDbLine
 62
7
  6
BYLAYER
 10
18.1144007947
 20
20.8577748789
 11
18.1144007947
 21
17.5006
  0
LINE
  5
2E3
100
AcDbEntity
  8
00_COMPONENTS
100
AcDbLine
 62
7
  6
BYLAYER
 10
18.4230019385
 20
17.5006
 11
18.4230019385
 21
21.1713393836
  0
LINE
  5
2E4
100
AcDbEntity
  8
00_COMPONENTS
100
AcDbLine
 62
7
  6
BYLAYER
 10
18.563093934
 20
21.1713393836
 11
18.563093934
 21
17.5006
  0
LINE
  5
2E5
100
AcDbEntity
  8
00_COMPONENTS
100
AcDbLine
 62
7
  6
BYLAYER
 10
18.8716950779
 20
17.5006
 11
18.8716950779
 21
20.8577748789
  0
LINE
  5
2E6
100
AcDbEntity
  8
00_COMPONENTS
100
AcDbLine
 62
7
  6
BYLAYER
 10
19.0616000576
 20
17.5006
 11
19.0616000576
 21
20.7772
  0
LINE
  5
2E7
100
AcDbEntity
  8
00_COMPONENTS
100
AcDbLine
 62
7
  6
BYLAYER
 10
19.147647458
 20
20.7772
 11
19.147647458
 21
17.5006
  0
LINE
  5
2E8
100
AcDbEntity
  8
00_COMPONENTS
100
AcDbLine
 62
7
  6
BYLAYER
 10
19.3303640596
 20
20.8577748789
 11
19.3303640596
 21
17.5006
  0
LINE
  5
2E9
100
AcDbEntity
  8
00_COMPONENTS
100
AcDbLine
 62
7
  6
BYLAYER
 10
19.4277495572
 20
36.4627838263
 11
19.4277520662
 21
21.5646
  0
LINE
  5
2EA
100
AcDbEntity
  8
00_COMPONENTS
100
AcDbLine
 62
7
  6
BYLAYER
 10
19.610894521
 20
17.5006
 11
19.610894521
 21
21.1713393836
  0
LINE
  5
2EB
100
AcDbEntity
  8
00_COMPONENTS
100
AcDbLine
 62
7
  6
BYLAYER
 10
19.7504534242
 20
21.1713393836
 11
19.7504534242
 21
17.5006
  0
LINE
  5
2EC
100
AcDbEntity
  8
00_COMPONENTS
100
AcDbLine
 62
7
  6
BYLAYER
 10
20.0847766094
 20
17.5006
 11
20.0847766094
 21
20.8577748789
  0
LINE
  5
2ED
100
AcDbEntity
  8
00_COMPONENTS
100
AcDbLine
 62
7
  6
BYLAYER
 10
20.2804246757
 20
17.5006
 11
20.2804246757
 21
20.7772
  0
LINE
  5
2EE
100
AcDbEntity
  8
00_COMPONENTS
100
AcDbLine
 62
7
  6
BYLAYER
 10
20.3658172035
 20
20.7772
 11
20.3658172035
 21
17.5006
  0
LINE
  5
2EF
100
AcDbEntity
  8
00_COMPONENTS
100
AcDbLine
 62
7
  6
BYLAYER
 10
20.5399548433
 20
20.8577748789
 11
20.5399548433
 21
17.5006
  0
LINE
  5
2F0
100
AcDbEntity
  8
00_COMPONENTS
100
AcDbLine
 62
7
  6
BYLAYER
 10
20.7902796161
 20
17.5006
 11
20.7902796161
 21
21.1713393836
  0
LINE
  5
2F1
100
AcDbEntity
  8
00_COMPONENTS
100
AcDbLine
 62
7
  6
BYLAYER
 10
20.9282432994
 20
21.1713393836
 11
20.9282432994
 21
17.5006
  0
LINE
  5
2F2
100
AcDbEntity
  8
00_COMPONENTS
100
AcDbLine
 62
7
  6
BYLAYER
 10
21.2857441247
 20
17.5006
 11
21.2857441247
 21
20.8577748789
  0
LINE
  5
2F3
100
AcDbEntity
  8
00_COMPONENTS
100
AcDbLine
 62
7
  6
BYLAYER
 10
21.4856462776
 20
17.5006
 11
21.4856462776
 21
20.7772
  0
LINE
  5
2F4
100
AcDbEntity
  8
00_COMPONENTS
100
AcDbLine
 62
7
  6
BYLAYER
 10
21.569734044
 20
20.7772
 11
21.569734044
 21
17.5006
  0
LINE
  5
2F5
100
AcDbEntity
  8
00_COMPONENTS
100
AcDbLine
 62
7
  6
BYLAYER
 10
21.7339674294
 20
20.8577748789
 11
21.7339674294
 21
17.5006
  0
LINE
  5
2F6
100
AcDbEntity
  8
00_COMPONENTS
100
AcDbLine
 62
7
  6
BYLAYER
 10
21.9521813909
 20
17.5006
 11
21.9521813909
 21
21.1713393836
  0
LINE
  5
2F7
100
AcDbEntity
  8
00_COMPONENTS
100
AcDbLine
 62
7
  6
BYLAYER
 10
22.0874998674
 20
21.1713393836
 11
22.0874998674
 21
17.5006
  0
LINE
  5
2F8
100
AcDbEntity
  8
00_COMPONENTS
100
AcDbLine
 62
7
  6
BYLAYER
 10
24.0264253307
 20
21.7933260554
 11
22.4846705418
 21
37.2108739446
  0
LINE
  5
2F9
100
AcDbEntity
  8
00_COMPONENTS
100
AcDbLine
 62
7
  6
BYLAYER
 10
22.4654575357
 20
17.5006
 11
22.4654575357
 21
20.8577748789
  0
LINE
  5
2FA
100
AcDbEntity
  8
00_COMPONENTS
100
AcDbLine
 62
7
  6
BYLAYER
 10
22.6680923991
 20
17.5006
 11
22.6680923991
 21
20.7772
  0
LINE
  5
2FB
100
AcDbEntity
  8
00_COMPONENTS
100
AcDbLine
 62
7
  6
BYLAYER
 10
22.7502354455
 20
20.7772
 11
22.7502354455
 21
17.5006
  0
LINE
  5
2FC
100
AcDbEntity
  8
00_COMPONENTS
100
AcDbLine
 62
7
  6
BYLAYER
 10
22.9033146613
 20
20.8577748789
 11
22.9033146613
 21
17.5006
  0
LINE
  5
2FD
100
AcDbEntity
  8
00_COMPONENTS
100
AcDbLine
 62
7
  6
BYLAYER
 10
23.0877570715
 20
17.5006
 11
23.0877570715
 21
21.1713393836
  0
LINE
  5
2FE
100
AcDbEntity
  8
00_COMPONENTS
100
AcDbLine
 62
7
  6
BYLAYER
 10
23.2194004859
 20
21.1713393836
 11
23.2194004859
 21
17.5006
  0
LINE
  5
2FF
100
AcDbEntity
  8
00_COMPONENTS
100
AcDbLine
 62
7
  6
BYLAYER
 10
23.614938511
 20
17.5006
 11
23.614938511
 21
20.8577748789
  0
LINE
  5
300
100
AcDbEntity
  8
00_COMPONENTS
100
AcDbLine
 62
7
  6
BYLAYER
 10
23.8187639114
 20
17.5006
 11
23.8187639114
 21
20.7772
  0
LINE
  5
301
100
AcDbEntity
  8
00_COMPONENTS
100
AcDbLine
 62
7
  6
BYLAYER
 10
23.8983370795
 20
20.7772
 11
23.8983370795
 21
17.5006
  0
LINE
  5
302
100
AcDbEntity
  8
00_COMPONENTS
100
AcDbLine
 62
7
  6
BYLAYER
 10
24.0390971004
 20
20.8577748789
 11
24.0390971004
 21
17.5006
  0
LINE
  5
303
100
AcDbEntity
  8
00_COMPONENTS
100
AcDbLine
 62
7
  6
BYLAYER
 10
24.1883642412
 20
17.5006
 11
24.1883642412
 21
21.1713393836
  0
LINE
  5
304
100
AcDbEntity
  8
00_COMPONENTS
100
AcDbLine
 62
7
  6
BYLAYER
 10
24.3153307076
 20
21.1713393836
 11
24.3153307076
 21
17.5006
  0
LINE
  5
305
100
AcDbEntity
  8
00_COMPONENTS
100
AcDbLine
 62
7
  6
BYLAYER
 10
24.7254388064
 20
17.5006
 11
24.7254388064
 21
20.8577748789
  0
LINE
  5
306
100
AcDbEntity
  8
00_COMPONENTS
100
AcDbLine
 62
7
  6
BYLAYER
 10
24.9289035093
 20
17.5006
 11
24.9289035093
 21
20.7772
  0
LINE
  5
307
100
AcDbEntity
  8
00_COMPONENTS
100
AcDbLine
 62
7
  6
BYLAYER
 10
32.2821758471
 20
20.8577748789
 11
32.2083077226
 21
20.9230233527
  0
LINE
  5
308
100
AcDbEntity
  8
00_COMPONENTS
100
AcDbLine
 62
7
  6
BYLAYER
 10
32.4081037441
 20
20.8577748789
 11
32.3732218142
 21
20.8907225213
  0
LINE
  5
309
100
AcDbEntity
  8
00_COMPONENTS
100
AcDbLine
 62
7
  6
BYLAYER
 10
25.0053011993
 20
20.7772
 11
25.0053011993
 21
17.5006
  0
LINE
  5
30A
100
AcDbEntity
  8
00_COMPONENTS
100
AcDbLine
 62
7
  6
BYLAYER
 10
25.1326707566
 20
20.8577748789
 11
25.1326707566
 21
17.5006
  0
LINE
  5
30B
100
AcDbEntity
  8
00_COMPONENTS
100
AcDbLine
 62
7
  6
BYLAYER
 10
25.2456266149
 20
17.5006
 11
25.2456266149
 21
21.1713393836
  0
LINE
  5
30C
100
AcDbEntity
  8
00_COMPONENTS
100
AcDbLine
 62
7
  6
BYLAYER
 10
25.3669498419
 20
21.1713393836
 11
25.3669498419
 21
17.5006
  0
LINE
  5
30D
100
AcDbEntity
  8
00_COMPONENTS
100
AcDbLine
 62
7
  6
BYLAYER
 10
25.788506844
 20
17.5006
 11
25.788506844
 21
20.8577748789
  0
LINE
  5
30E
100
AcDbEntity
  8
00_COMPONENTS
100
AcDbLine
 62
7
  6
BYLAYER
 10
25.9900623602
 20
17.5006
 11
25.9900623602
 21
20.7772
  0
LINE
  5
30F
100
AcDbEntity
  8
00_COMPONENTS
100
AcDbLine
 62
7
  6
BYLAYER
 10
26.0627031396
 20
20.7772
 11
26.0627031396
 21
17.5006
  0
LINE
  5
310
100
AcDbEntity
  8
00_COMPONENTS
100
AcDbLine
 62
7
  6
BYLAYER
 10
26.175712874
 20
20.8577748789
 11
26.175712874
 21
17.5006
  0
LINE
  5
311
100
AcDbEntity
  8
00_COMPONENTS
100
AcDbLine
 62
7
  6
BYLAYER
 10
31.7264479363
 20
21.5646
 11
32.1195285871
 21
21.1713392547
  0
LINE
  5
312
100
AcDbEntity
  8
00_COMPONENTS
100
AcDbLine
 62
7
  6
BYLAYER
 10
32.0974546723
 20
21.1935444996
 11
32.090514518
 21
21.2005334183
  0
LINE
  5
313
100
AcDbEntity
  8
00_COMPONENTS
100
AcDbLine
 62
7
  6
BYLAYER
 10
32.4281296644
 20
20.8577748789
 11
32.3861069605
 21
20.9007776824
  0
LINE
  5
314
100
AcDbEntity
  8
00_COMPONENTS
100
AcDbLine
 62
7
  6
BYLAYER
 10
26.2514977875
 20
17.5006
 11
26.2514977875
 21
21.1713393836
  0
LINE
  5
315
100
AcDbEntity
  8
00_COMPONENTS
100
AcDbLine
 62
7
  6
BYLAYER
 10
26.366254432
 20
21.1713393836
 11
26.366254432
 21
17.5006
  0
LINE
  5
316
100
AcDbEntity
  8
00_COMPONENTS
100
AcDbLine
 62
7
  6
BYLAYER
 10
26.7960520342
 20
17.5006
 11
26.7960520342
 21
20.8577748789
  0
LINE
  5
317
100
AcDbEntity
  8
00_COMPONENTS
100
AcDbLine
 62
7
  6
BYLAYER
 10
26.9941644045
 20
17.5006
 11
26.9941644045
 21
20.7772
  0
LINE
  5
318
100
AcDbEntity
  8
00_COMPONENTS
100
AcDbLine
 62
7
  6
BYLAYER
 10
27.0624954331
 20
20.7772
 11
27.0624954331
 21
17.5006
  0
LINE
  5
319
100
AcDbEntity
  8
00_COMPONENTS
100
AcDbLine
 62
7
  6
BYLAYER
 10
27.1602852723
 20
20.8577748789
 11
27.1602852723
 21
17.5006
  0
LINE
  5
31A
100
AcDbEntity
  8
00_COMPONENTS
100
AcDbLine
 62
7
  6
BYLAYER
 10
27.1983224721
 20
17.5006
 11
27.1983224721
 21
21.1713393836
  0
LINE
  5
31B
100
AcDbEntity
  8
00_COMPONENTS
100
AcDbLine
 62
7
  6
BYLAYER
 10
27.3056391668
 20
21.1713393836
 11
27.3056391668
 21
17.5006
  0
LINE
  5
31C
100
AcDbEntity
  8
00_COMPONENTS
100
AcDbLine
 62
7
  6
BYLAYER
 10
28.8865129676
 20
21.1713393836
 11
28.8861360145
 21
21.1772046736
  0
LINE
  5
31D
100
AcDbEntity
  8
00_COMPONENTS
100
AcDbLine
 62
7
  6
BYLAYER
 10
28.9245501674
 20
20.8577748789
 11
28.925516714
 21
20.8423691243
  0
LINE
  5
31E
100
AcDbEntity
  8
00_COMPONENTS
100
AcDbLine
 62
7
  6
BYLAYER
 10
27.7404063498
 20
17.5006
 11
27.7404063498
 21
20.8577748789
  0
LINE
  5
31F
100
AcDbEntity
  8
00_COMPONENTS
100
AcDbLine
 62
7
  6
BYLAYER
 10
27.9335678194
 20
17.5006
 11
27.9335678194
 21
20.7772
  0
LINE
  5
320
100
AcDbEntity
  8
00_COMPONENTS
100
AcDbLine
 62
7
  6
BYLAYER
 10
27.9970690568
 20
20.7772
 11
27.9970690568
 21
17.5006
  0
LINE
  5
321
100
AcDbEntity
  8
00_COMPONENTS
100
AcDbLine
 62
7
  6
BYLAYER
 10
28.0788947611
 20
21.1713393836
 11
28.0788947611
 21
17.5006
  0
LINE
  5
322
100
AcDbEntity
  8
00_COMPONENTS
100
AcDbLine
 62
7
  6
BYLAYER
 10
28.1779547611
 20
21.1713393836
 11
28.1779547611
 21
17.5006
  0
LINE
  5
323
100
AcDbEntity
  8
00_COMPONENTS
100
AcDbLine
 62
7
  6
BYLAYER
 10
28.6143826841
 20
17.5006
 11
28.6143826841
 21
20.8577748789
  0
LINE
  5
324
100
AcDbEntity
  8
00_COMPONENTS
100
AcDbLine
 62
7
  6
BYLAYER
 10
28.8011231776
 20
17.5006
 11
28.8011231776
 21
20.7772
  0
LINE
  5
325
100
AcDbEntity
  8
00_COMPONENTS
100
AcDbLine
 62
7
  6
BYLAYER
 10
28.859311341
 20
20.7772
 11
28.859311341
 21
17.5006
  0
LINE
  5
326
100
AcDbEntity
  8
00_COMPONENTS
100
AcDbLine
 62
7
  6
BYLAYER
 10
28.9255167141
 20
17.5006
 11
28.9255167141
 21
20.8423574
  0
LINE
  5
327
100
AcDbEntity
  8
00_COMPONENTS
100
AcDbLine
 62
7
  6
BYLAYER
 10
28.9765623666
 20
21.1713393836
 11
28.9765623666
 21
17.5006
  0
LINE
  5
328
100
AcDbEntity
  8
00_COMPONENTS
100
AcDbLine
 62
7
  6
BYLAYER
 10
29.4113295496
 20
17.5006
 11
29.4113295496
 21
20.8577748789
  0
LINE
  5
329
100
AcDbEntity
  8
00_COMPONENTS
100
AcDbLine
 62
7
  6
BYLAYER
 10
29.5902278591
 20
17.5006
 11
29.5902278591
 21
20.7772
  0
LINE
  5
32A
100
AcDbEntity
  8
00_COMPONENTS
100
AcDbLine
 62
7
  6
BYLAYER
 10
29.6426601014
 20
20.7772
 11
29.6426601014
 21
17.5006
  0
LINE
  5
32B
100
AcDbEntity
  8
00_COMPONENTS
100
AcDbLine
 62
7
  6
BYLAYER
 10
29.6946743738
 20
17.5006
 11
29.6946743738
 21
20.8283653423
  0
LINE
  5
32C
100
AcDbEntity
  8
00_COMPONENTS
100
AcDbLine
 62
7
  6
BYLAYER
 10
29.6953840971
 20
21.1713393836
 11
29.6953840971
 21
20.8577748789
  0
LINE
  5
32D
100
AcDbEntity
  8
00_COMPONENTS
100
AcDbLine
 62
7
  6
BYLAYER
 10
19.4277495572
 20
36.4627838263
 11
17.5583451613
 21
36.4627838536
  0
LINE
  5
32E
100
AcDbEntity
  8
00_COMPONENTS
100
AcDbLine
 62
7
  6
BYLAYER
 10
31.2737940464
 20
21.1713393836
 11
31.2645128958
 21
21.1945188081
  0
LINE
  5
32F
100
AcDbEntity
  8
00_COMPONENTS
100
AcDbLine
 62
7
  6
BYLAYER
 10
30.8132306819
 20
21.1713393836
 11
30.8072566329
 21
21.1911887248
  0
LINE
  5
330
100
AcDbEntity
  8
00_COMPONENTS
100
AcDbLine
 62
7
  6
BYLAYER
 10
30.2589032875
 20
21.1713393836
 11
30.2555278999
 21
21.1871748819
  0
LINE
  5
331
100
AcDbEntity
  8
00_COMPONENTS
100
AcDbLine
 62
7
  6
BYLAYER
 10
30.3718591458
 20
20.8577748789
 11
30.3805139859
 21
20.8159040065
  0
LINE
  5
332
100
AcDbEntity
  8
00_COMPONENTS
100
AcDbLine
 62
7
  6
BYLAYER
 10
29.6150306296
 20
21.1713393836
 11
29.6135256856
 21
21.1824974967
  0
LINE
  5
333
100
AcDbEntity
  8
00_COMPONENTS
100
AcDbLine
 62
7
  6
BYLAYER
 10
29.6908155431
 20
20.8577748789
 11
29.6946743738
 21
20.8283619192
  0
LINE
  5
334
100
AcDbEntity
  8
00_COMPONENTS
100
AcDbLine
 62
7
  6
BYLAYER
 10
30.1251816993
 20
17.5006
 11
30.1251816993
 21
20.8577748789
  0
LINE
  5
335
100
AcDbEntity
  8
00_COMPONENTS
100
AcDbLine
 62
7
  6
BYLAYER
 10
30.2948763006
 20
17.5006
 11
30.2948763006
 21
20.7772
  0
LINE
  5
336
100
AcDbEntity
  8
00_COMPONENTS
100
AcDbLine
 62
7
  6
BYLAYER
 10
30.3289492853
 20
21.1713393836
 11
30.3289492853
 21
20.977634498
  0
LINE
  5
337
100
AcDbEntity
  8
00_COMPONENTS
100
AcDbLine
 62
7
  6
BYLAYER
 10
30.341153581
 20
20.7772
 11
30.341153581
 21
17.5006
  0
LINE
  5
338
100
AcDbEntity
  8
00_COMPONENTS
100
AcDbLine
 62
7
  6
BYLAYER
 10
30.3805139859
 20
17.5006
 11
30.3805139859
 21
20.8159007659
  0
LINE
  5
339
100
AcDbEntity
  8
00_COMPONENTS
100
AcDbLine
 62
7
  6
BYLAYER
 10
30.7505062874
 20
17.5006
 11
30.7505062874
 21
20.8577748789
  0
LINE
  5
33A
100
AcDbEntity
  8
00_COMPONENTS
100
AcDbLine
 62
7
  6
BYLAYER
 10
30.8724361175
 20
21.1713393836
 11
30.8724361175
 21
21.0477103242
  0
LINE
  5
33B
100
AcDbEntity
  8
00_COMPONENTS
100
AcDbLine
 62
7
  6
BYLAYER
 10
30.9097057022
 20
17.5006
 11
30.9097057022
 21
20.7772
  0
LINE
  5
33C
100
AcDbEntity
  8
00_COMPONENTS
100
AcDbLine
 62
7
  6
BYLAYER
 10
30.9494758224
 20
20.7772
 11
30.9494758224
 21
17.5006
  0
LINE
  5
33D
100
AcDbEntity
  8
00_COMPONENTS
100
AcDbLine
 62
7
  6
BYLAYER
 10
30.977815897
 20
17.5006
 11
30.977815897
 21
20.7772
  0
LINE
  5
33E
100
AcDbEntity
  8
00_COMPONENTS
100
AcDbLine
 62
7
  6
BYLAYER
 10
14.754164777
 20
37.4396
 11
22.2319310955
 21
37.4396
  0
LINE
  5
33F
100
AcDbEntity
  8
00_COMPONENTS
100
AcDbLine
 62
7
  6
BYLAYER
 10
31.2825442162
 20
17.5006
 11
31.2825442162
 21
20.8577748789
  0
LINE
  5
340
100
AcDbEntity
  8
00_COMPONENTS
100
AcDbLine
 62
7
  6
BYLAYER
 10
31.3217083308
 20
21.1713393836
 11
31.3217083308
 21
21.0904631483
  0
LINE
  5
341
100
AcDbEntity
  8
00_COMPONENTS
100
AcDbLine
 62
7
  6
BYLAYER
 10
31.4300368409
 20
17.5006
 11
31.4300368409
 21
20.7772
  0
LINE
  5
342
100
AcDbEntity
  8
00_COMPONENTS
100
AcDbLine
 62
7
  6
BYLAYER
 10
31.4629971263
 20
20.7772
 11
31.4629971263
 21
17.5006
  0
LINE
  5
343
100
AcDbEntity
  8
00_COMPONENTS
100
AcDbLine
 62
7
  6
BYLAYER
 10
31.4820342787
 20
17.5006
 11
31.4820342787
 21
20.7772
  0
LINE
  5
344
100
AcDbEntity
  8
00_COMPONENTS
100
AcDbLine
 62
7
  6
BYLAYER
 10
31.6733466923
 20
21.1713393836
 11
31.6733466923
 21
21.1196092348
  0
LINE
  5
345
100
AcDbEntity
  8
00_COMPONENTS
100
AcDbLine
 62
7
  6
BYLAYER
 10
31.7172463559
 20
17.5006
 11
31.7172463559
 21
20.8577748789
  0
LINE
  5
346
100
AcDbEntity
  8
00_COMPONENTS
100
AcDbLine
 62
7
  6
BYLAYER
 10
31.8519096823
 20
17.5006
 11
31.8519096823
 21
20.7772
  0
LINE
  5
347
100
AcDbEntity
  8
00_COMPONENTS
100
AcDbLine
 62
7
  6
BYLAYER
 10
31.8778092854
 20
20.7772
 11
31.8778092854
 21
17.5006
  0
LINE
  5
348
100
AcDbEntity
  8
00_COMPONENTS
100
AcDbLine
 62
7
  6
BYLAYER
 10
31.8893317247
 20
17.5006
 11
31.8893317247
 21
20.7772
  0
LINE
  5
349
100
AcDbEntity
  8
00_COMPONENTS
100
AcDbLine
 62
7
  6
BYLAYER
 10
31.9246750218
 20
21.1713393836
 11
31.9246750218
 21
21.1410844342
  0
LINE
  5
34A
100
AcDbEntity
  8
00_COMPONENTS
100
AcDbLine
 62
7
  6
BYLAYER
 10
32.0513043605
 20
17.5006
 11
32.0513043605
 21
20.8577748789
  0
LINE
  5
34B
100
AcDbEntity
  8
00_COMPONENTS
100
AcDbLine
 62
7
  6
BYLAYER
 10
32.0737805589
 20
21.1713393836
 11
32.0737805589
 21
21.157789174
  0
LINE
  5
34C
100
AcDbEntity
  8
00_COMPONENTS
100
AcDbLine
 62
7
  6
BYLAYER
 10
32.1721135196
 20
17.5006
 11
32.1721135196
 21
20.7772
  0
LINE
  5
34D
100
AcDbEntity
  8
00_COMPONENTS
100
AcDbLine
 62
7
  6
BYLAYER
 10
32.1907553286
 20
20.7772
 11
32.1907553286
 21
17.5006
  0
LINE
  5
34E
100
AcDbEntity
  8
00_COMPONENTS
100
AcDbLine
 62
7
  6
BYLAYER
 10
32.1966084556
 20
17.5006
 11
32.1966084556
 21
20.7829482704
  0
LINE
  5
34F
100
AcDbEntity
  8
00_COMPONENTS
100
AcDbLine
 62
7
  6
BYLAYER
 10
32.2821758471
 20
17.5006
 11
32.2821758471
 21
20.8577748789
  0
LINE
  5
350
100
AcDbEntity
  8
00_COMPONENTS
100
AcDbLine
 62
7
  6
BYLAYER
 10
32.3882114082
 20
17.5006
 11
32.3882114082
 21
20.7772
  0
LINE
  5
351
100
AcDbEntity
  8
00_COMPONENTS
100
AcDbLine
 62
7
  6
BYLAYER
 10
32.3994535478
 20
20.7772
 11
32.3994535478
 21
17.5006
  0
LINE
  5
352
100
AcDbEntity
  8
00_COMPONENTS
100
AcDbLine
 62
7
  6
BYLAYER
 10
32.4015259099
 20
17.5006
 11
32.4015259099
 21
20.779234967
  0
LINE
  5
353
100
AcDbEntity
  8
00_COMPONENTS
100
AcDbLine
 62
7
  6
BYLAYER
 10
32.4081037441
 20
17.5006
 11
32.4081037441
 21
20.8577748789
  0
LINE
  5
354
100
AcDbEntity
  8
00_COMPONENTS
100
AcDbLine
 62
7
  6
BYLAYER
 10
32.4985587126
 20
17.5006
 11
32.4985587126
 21
20.7772
  0
LINE
  5
355
100
AcDbEntity
  8
00_COMPONENTS
100
AcDbLine
 62
7
  6
BYLAYER
 10
32.4015259099
 20
20.7792352332
 11
32.3994535478
 21
20.7772
  0
LINE
  5
356
100
AcDbEntity
  8
00_COMPONENTS
100
AcDbLine
 62
7
  6
BYLAYER
 10
32.1966084556
 20
20.7829439096
 11
32.1907553286
 21
20.7772
  0
LINE
  5
357
100
AcDbEntity
  8
00_COMPONENTS
100
AcDbLine
 62
7
  6
BYLAYER
 10
32.502524542
 20
20.777395149
 11
32.5023156232
 21
20.7772
  0
LINE
  5
358
100
AcDbEntity
  8
00_COMPONENTS
100
AcDbLine
 62
7
  6
BYLAYER
 10
32.5023156232
 20
20.7772
 11
32.5023156232
 21
17.5006
  0
LINE
  5
359
100
AcDbEntity
  8
00_COMPONENTS
100
AcDbLine
 62
7
  6
BYLAYER
 10
32.5138479363
 20
16.7894
 11
32.5138479363
 21
17.5006
  0
LINE
  5
35A
100
AcDbEntity
  8
00_COMPONENTS
100
AcDbLine
 62
7
  6
BYLAYER
 10
32.9710479363
 20
13.2334
 11
32.9710479363
 21
16.5354
  0
ARC
  5
35B
100
AcDbEntity
  8
00_COMPONENTS
100
AcDbCircle
 62
7
  6
BYLAYER
 10
-114.3999984513
 20
5.9475503992
 40
125.1174105732
100
AcDbArc
 50
6.8441953576
 51
6.9888405346
  0
ARC
  5
35C
100
AcDbEntity
  8
00_COMPONENTS
100
AcDbCircle
 62
7
  6
BYLAYER
 10
-92.9287093484
 20
6.2353544683
 40
122.7274705732
100
AcDbArc
 50
6.8427869795
 51
6.9902489136
  0
ARC
  5
35D
100
AcDbEntity
  8
00_COMPONENTS
100
AcDbCircle
 62
7
  6
BYLAYER
 10
-54.2388469697
 20
5.3020688968
 40
66.8833485111
100
AcDbArc
 50
13.4489944216
 51
13.725344495
  0
ARC
  5
35E
100
AcDbEntity
  8
00_COMPONENTS
100
AcDbCircle
 62
7
  6
BYLAYER
 10
-34.1442628123
 20
5.5955152956
 40
65.6342425585
100
AcDbArc
 50
13.4463647644
 51
13.7279741537
  0
ARC
  5
35F
100
AcDbEntity
  8
00_COMPONENTS
100
AcDbCircle
 62
7
  6
BYLAYER
 10
-2.6339046854
 20
-22.1739743715
 40
53.1807005132
100
AcDbArc
 50
54.0140404732
 51
54.5930197623
  0
ARC
  5
360
100
AcDbEntity
  8
00_COMPONENTS
100
AcDbCircle
 62
7
  6
BYLAYER
 10
-3.4695115621
 20
-21.9575798278
 40
52.983144251
100
AcDbArc
 50
53.9101143888
 51
54.4897949431
  0
ARC
  5
361
100
AcDbEntity
  8
00_COMPONENTS
100
AcDbCircle
 62
7
  6
BYLAYER
 10
-1.798588362
 20
-21.9575798277
 40
52.9831442508
100
AcDbArc
 50
53.910114389
 51
54.4897949433
  0
ARC
  5
362
100
AcDbEntity
  8
00_COMPONENTS
100
AcDbCircle
 62
7
  6
BYLAYER
 10
-0.9717821933
 20
-21.3149710187
 40
52.3981074075
100
AcDbArc
 50
53.5960094474
 51
54.17776356
  0
ARC
  5
363
100
AcDbEntity
  8
00_COMPONENTS
100
AcDbCircle
 62
7
  6
BYLAYER
 10
-4.3009118577
 20
-21.3149710182
 40
52.3981074066
100
AcDbArc
 50
53.5960094476
 51
54.1777635603
  0
ARC
  5
364
100
AcDbEntity
  8
00_COMPONENTS
100
AcDbCircle
 62
7
  6
BYLAYER
 10
-0.1655261491
 20
-20.2656726336
 40
51.4484110244
100
AcDbArc
 50
53.0646668219
 51
53.6497708119
  0
ARC
  5
365
100
AcDbEntity
  8
00_COMPONENTS
100
AcDbCircle
 62
7
  6
BYLAYER
 10
-5.1275255927
 20
-20.2656726334
 40
51.4484110243
100
AcDbArc
 50
53.0646668217
 51
53.6497708117
  0
ARC
  5
366
100
AcDbEntity
  8
00_COMPONENTS
100
AcDbCircle
 62
7
  6
BYLAYER
 10
-6.1528181779
 20
-19.1026396518
 40
50.5005097386
100
AcDbArc
 50
52.3059796217
 51
52.8916949871
  0
ARC
  5
367
100
AcDbEntity
  8
00_COMPONENTS
100
AcDbCircle
 62
7
  6
BYLAYER
 10
0.4042873259
 20
-19.1026395293
 40
50.5005095842
100
AcDbArc
 50
52.3059796211
 51
52.8916949883
  0
ARC
  5
368
100
AcDbEntity
  8
00_COMPONENTS
100
AcDbCircle
 62
7
  6
BYLAYER
 10
-34.7466494954
 20
4.2480805931
 40
49.4716979499
100
AcDbArc
 50
19.617624897
 51
20.0036254653
  0
ARC
  5
369
100
AcDbEntity
  8
00_COMPONENTS
100
AcDbCircle
 62
7
  6
BYLAYER
 10
-6.9879012988
 20
-17.339151521
 40
48.9442436945
100
AcDbArc
 50
51.2987836972
 51
51.8896641991
  0
ARC
  5
36A
100
AcDbEntity
  8
00_COMPONENTS
100
AcDbCircle
 62
7
  6
BYLAYER
 10
1.1144066525
 20
-17.339151388
 40
48.9442435242
100
AcDbArc
 50
51.2987836971
 51
51.8896642011
  0
ARC
  5
36B
100
AcDbEntity
  8
00_COMPONENTS
100
AcDbCircle
 62
7
  6
BYLAYER
 10
-15.3880352464
 20
4.5507400973
 40
48.5786714326
100
AcDbArc
 50
19.6140769408
 51
20.0071734233
  0
ARC
  5
36C
100
AcDbEntity
  8
00_COMPONENTS
100
AcDbCircle
 62
7
  6
BYLAYER
 10
-7.8479886602
 20
-15.2962282773
 40
47.1806842308
100
AcDbArc
 50
50.0217354783
 51
50.6181198159
  0
ARC
  5
36D
100
AcDbEntity
  8
00_COMPONENTS
100
AcDbCircle
 62
7
  6
BYLAYER
 10
1.7378582908
 20
-15.2962281264
 40
47.1806840342
100
AcDbArc
 50
50.0217354779
 51
50.618119818
  0
ARC
  5
36E
100
AcDbEntity
  8
00_COMPONENTS
100
AcDbCircle
 62
7
  6
BYLAYER
 10
-8.7587505163
 20
-13.0359430081
 40
45.2929991327
100
AcDbArc
 50
48.4451758256
 51
49.0467264702
  0
ARC
  5
36F
100
AcDbEntity
  8
00_COMPONENTS
100
AcDbCircle
 62
7
  6
BYLAYER
 10
2.5495449851
 20
-12.6794934382
 40
44.8193836124
100
AcDbArc
 50
48.5672598196
 51
49.0491564885
  0
ARC
  5
370
100
AcDbEntity
  8
00_COMPONENTS
100
AcDbCircle
 62
7
  6
BYLAYER
 10
-9.7592404445
 20
-10.6269733914
 40
43.3815021358
100
AcDbArc
 50
46.5324710259
 51
47.1378503798
  0
ARC
  5
371
100
AcDbEntity
  8
00_COMPONENTS
100
AcDbCircle
 62
7
  6
BYLAYER
 10
2.742398961
 20
-10.4364629509
 40
43.1205648718
100
AcDbArc
 50
46.594056683
 51
47.1393243901
  0
ARC
  5
372
100
AcDbEntity
  8
00_COMPONENTS
100
AcDbCircle
 62
7
  6
BYLAYER
 10
-25.353841913
 20
2.8176102401
 40
42.3367681499
100
AcDbArc
 50
25.221009402
 51
25.6909964434
  0
ARC
  5
373
100
AcDbEntity
  8
00_COMPONENTS
100
AcDbCircle
 62
7
  6
BYLAYER
 10
-6.6762806442
 20
3.1327738909
 40
41.6035251452
100
AcDbArc
 50
25.2168677265
 51
25.6951381211
  0
ARC
  5
374
100
AcDbEntity
  8
00_COMPONENTS
100
AcDbCircle
 62
7
  6
BYLAYER
 10
-10.908622698
 20
-8.1425147329
 40
41.5678255914
100
AcDbArc
 50
44.2397203675
 51
44.8461385332
  0
ARC
  5
375
100
AcDbEntity
  8
00_COMPONENTS
100
AcDbCircle
 62
7
  6
BYLAYER
 10
2.9961806681
 20
-7.7991284639
 40
41.0786732293
100
AcDbArc
 50
44.3194726144
 51
44.8492201423
  0
ARC
  5
376
100
AcDbEntity
  8
00_COMPONENTS
100
AcDbCircle
 62
7
  6
BYLAYER
 10
-12.2979972006
 20
-5.6580560851
 40
40.003939475
100
AcDbArc
 50
41.5161012913
 51
42.1187067867
  0
ARC
  5
377
100
AcDbEntity
  8
00_COMPONENTS
100
AcDbCircle
 62
7
  6
BYLAYER
 10
2.8234602563
 20
-5.2688045747
 40
39.4201511542
100
AcDbArc
 50
41.5116391412
 51
42.1231689394
  0
ARC
  5
378
100
AcDbEntity
  8
00_COMPONENTS
100
AcDbCircle
 62
7
  6
BYLAYER
 10
-19.9435222155
 20
1.0541221355
 40
39.3697090015
100
AcDbArc
 50
30.1998380499
 51
30.7292702229
  0
ARC
  5
379
100
AcDbEntity
  8
00_COMPONENTS
100
AcDbCircle
 62
7
  6
BYLAYER
 10
-14.0724071878
 20
-3.2490865181
 40
38.8911628997
100
AcDbArc
 50
38.305508313
 51
38.8966159794
  0
ARC
  5
37A
100
AcDbEntity
  8
00_COMPONENTS
100
AcDbCircle
 62
7
  6
BYLAYER
 10
-2.0060609059
 20
1.3847008561
 40
38.717693757
100
AcDbArc
 50
30.195380136
 51
30.7337281388
  0
ARC
  5
37B
100
AcDbEntity
  8
00_COMPONENTS
100
AcDbCircle
 62
7
  6
BYLAYER
 10
-16.4749011656
 20
-0.9888011827
 40
38.5211278834
100
AcDbArc
 50
34.5504938022
 51
35.1187087253
  0
ARC
  5
37C
100
AcDbEntity
  8
00_COMPONENTS
100
AcDbCircle
 62
7
  6
BYLAYER
 10
2.093336173
 20
-2.8808923647
 40
38.3010159674
100
AcDbArc
 50
38.300954342
 51
38.9011699532
  0
ARC
  5
37D
100
AcDbEntity
  8
00_COMPONENTS
100
AcDbCircle
 62
7
  6
BYLAYER
 10
0.6289614187
 20
-0.6403647512
 40
37.9111377398
100
AcDbArc
 50
34.5459224768
 51
35.1232800539
  0
ARC
  5
37E
100
AcDbEntity
  8
00_COMPONENTS
100
AcDbCircle
 62
7
  6
BYLAYER
 10
8.4495579448
 20
17.0634012887
 40
5.4352329469
100
AcDbArc
 50
135.7246835257
 51
136.1515830521
  0
ARC
  5
37F
100
AcDbEntity
  8
00_COMPONENTS
100
AcDbCircle
 62
7
  6
BYLAYER
 10
1.5082462486
 20
24.0949669405
 40
4.4612500726
100
AcDbArc
 50
312.8276865741
 51
313.4791817569
  0
ARC
  5
380
100
AcDbEntity
  8
00_COMPONENTS
100
AcDbCircle
 62
7
  6
BYLAYER
 10
4.2690479363
 20
16.5354
 40
0.254
100
AcDbArc
 50
90.0
 51
180.0
  0
ARC
  5
381
100
AcDbEntity
  8
00_COMPONENTS
100
AcDbCircle
 62
7
  6
BYLAYER
 10
12.7069310955
 20
21.8186
 40
0.254
100
AcDbArc
 50
270.0
 51
354.2894068626
  0
ARC
  5
382
100
AcDbEntity
  8
00_COMPONENTS
100
AcDbCircle
 62
7
  6
BYLAYER
 10
14.754164777
 20
37.1856
 40
0.254
100
AcDbArc
 50
90.0
 51
174.2894068626
  0
ARC
  5
383
100
AcDbEntity
  8
00_COMPONENTS
100
AcDbCircle
 62
7
  6
BYLAYER
 10
132.2873548543
 20
5.9475503871
 40
125.1174106716
100
AcDbArc
 50
173.0111594654
 51
173.1558046422
  0
ARC
  5
384
100
AcDbEntity
  8
00_COMPONENTS
100
AcDbCircle
 62
7
  6
BYLAYER
 10
149.0135449756
 20
6.2353544455
 40
122.727470762
100
AcDbArc
 50
173.0097510865
 51
173.1572130204
  0
ARC
  5
385
100
AcDbEntity
  8
00_COMPONENTS
100
AcDbCircle
 62
7
  6
BYLAYER
 10
72.3445101209
 20
5.3020689395
 40
66.8833483293
100
AcDbArc
 50
166.2746555045
 51
166.5510055787
  0
ARC
  5
386
100
AcDbEntity
  8
00_COMPONENTS
100
AcDbCircle
 62
7
  6
BYLAYER
 10
90.0107913164
 20
5.5955152747
 40
65.634242648
100
AcDbArc
 50
166.2720258466
 51
166.5536352355
  0
ARC
  5
387
100
AcDbEntity
  8
00_COMPONENTS
100
AcDbCircle
 62
7
  6
BYLAYER
 10
39.6200005593
 20
-22.173974372
 40
53.1807005144
100
AcDbArc
 50
125.4069802387
 51
125.9859595278
  0
ARC
  5
388
100
AcDbEntity
  8
00_COMPONENTS
100
AcDbCircle
 62
7
  6
BYLAYER
 10
38.7846842356
 20
-21.9575798277
 40
52.9831442514
100
AcDbArc
 50
125.5102050576
 51
126.0898856119
  0
ARC
  5
389
100
AcDbEntity
  8
00_COMPONENTS
100
AcDbCircle
 62
7
  6
BYLAYER
 10
40.4556074353
 20
-21.9575798276
 40
52.9831442513
100
AcDbArc
 50
125.5102050577
 51
126.0898856119
  0
ARC
  5
38A
100
AcDbEntity
  8
00_COMPONENTS
100
AcDbCircle
 62
7
  6
BYLAYER
 10
37.9578780674
 20
-21.3149710189
 40
52.3981074085
100
AcDbArc
 50
125.8222364412
 51
126.4039905539
  0
ARC
  5
38B
100
AcDbEntity
  8
00_COMPONENTS
100
AcDbCircle
 62
7
  6
BYLAYER
 10
41.2870077314
 20
-21.3149710183
 40
52.3981074074
100
AcDbArc
 50
125.8222364407
 51
126.4039905534
  0
ARC
  5
38C
100
AcDbEntity
  8
00_COMPONENTS
100
AcDbCircle
 62
7
  6
BYLAYER
 10
37.1516220226
 20
-20.2656726335
 40
51.4484110249
100
AcDbArc
 50
126.350229189
 51
126.935333179
  0
ARC
  5
38D
100
AcDbEntity
  8
00_COMPONENTS
100
AcDbCircle
 62
7
  6
BYLAYER
 10
42.1136214657
 20
-20.2656726333
 40
51.4484110245
100
AcDbArc
 50
126.3502291889
 51
126.9353331789
  0
ARC
  5
38E
100
AcDbEntity
  8
00_COMPONENTS
100
AcDbCircle
 62
7
  6
BYLAYER
 10
36.1943348959
 20
-18.5958663441
 40
49.8625878622
100
AcDbArc
 50
127.1045582774
 51
127.6977671159
  0
ARC
  5
38F
100
AcDbEntity
  8
00_COMPONENTS
100
AcDbCircle
 62
7
  6
BYLAYER
 10
42.7514401812
 20
-18.5958661817
 40
49.8625876576
100
AcDbArc
 50
127.1045582757
 51
127.6977671167
  0
ARC
  5
390
100
AcDbEntity
  8
00_COMPONENTS
100
AcDbCircle
 62
7
  6
BYLAYER
 10
53.2143113798
 20
4.2480805783
 40
49.4716979943
100
AcDbArc
 50
159.9963745351
 51
160.3823751031
  0
ARC
  5
391
100
AcDbEntity
  8
00_COMPONENTS
100
AcDbCircle
 62
7
  6
BYLAYER
 10
70.8925651714
 20
4.5507400892
 40
48.5786714566
100
AcDbArc
 50
159.9928265768
 51
160.3859230591
  0
ARC
  5
392
100
AcDbEntity
  8
00_COMPONENTS
100
AcDbCircle
 62
7
  6
BYLAYER
 10
35.4821629514
 20
-16.8477933119
 40
48.3172244784
100
AcDbArc
 50
128.1065017986
 51
128.7050503068
  0
ARC
  5
393
100
AcDbEntity
  8
00_COMPONENTS
100
AcDbCircle
 62
7
  6
BYLAYER
 10
43.5844706829
 20
-16.8477931693
 40
48.3172242962
100
AcDbArc
 50
128.1065017971
 51
128.7050503075
  0
ARC
  5
394
100
AcDbEntity
  8
00_COMPONENTS
100
AcDbCircle
 62
7
  6
BYLAYER
 10
34.8554080116
 20
-14.8227276287
 40
46.5654544798
100
AcDbArc
 50
129.377940389
 51
129.9822043183
  0
ARC
  5
395
100
AcDbEntity
  8
00_COMPONENTS
100
AcDbCircle
 62
7
  6
BYLAYER
 10
44.4412546848
 20
-14.8227274467
 40
46.5654542429
100
AcDbArc
 50
129.3779403869
 51
129.9822043192
  0
ARC
  5
396
100
AcDbEntity
  8
00_COMPONENTS
100
AcDbCircle
 62
7
  6
BYLAYER
 10
45.3468675969
 20
-12.5821998565
 40
44.6894597449
100
AcDbArc
 50
130.9492114656
 51
131.5588862386
  0
ARC
  5
397
100
AcDbEntity
  8
00_COMPONENTS
100
AcDbCircle
 62
7
  6
BYLAYER
 10
34.1310445948
 20
-12.330415528
 40
44.3555025535
100
AcDbArc
 50
130.9483235913
 51
131.4352600876
  0
ARC
  5
398
100
AcDbEntity
  8
00_COMPONENTS
100
AcDbCircle
 62
7
  6
BYLAYER
 10
46.3395167149
 20
-10.1942876125
 40
42.7882934246
100
AcDbArc
 50
132.8579531484
 51
133.4717254455
  0
ARC
  5
399
100
AcDbEntity
  8
00_COMPONENTS
100
AcDbCircle
 62
7
  6
BYLAYER
 10
33.9006776398
 20
-10.0703314428
 40
42.618859046
100
AcDbArc
 50
132.8574661607
 51
133.4091527654
  0
ARC
  5
39A
100
AcDbEntity
  8
00_COMPONENTS
100
AcDbCircle
 62
7
  6
BYLAYER
 10
44.3244386511
 20
2.81761028
 40
42.3367680571
100
AcDbArc
 50
154.3090035561
 51
154.7789905985
  0
ARC
  5
39B
100
AcDbEntity
  8
00_COMPONENTS
100
AcDbCircle
 62
7
  6
BYLAYER
 10
61.6778756627
 20
3.1327738455
 40
41.6035252508
100
AcDbArc
 50
154.3048618796
 51
154.783132273
  0
ARC
  5
39C
100
AcDbEntity
  8
00_COMPONENTS
100
AcDbCircle
 62
7
  6
BYLAYER
 10
33.9268819834
 20
-7.7369739066
 40
40.990150962
100
AcDbArc
 50
135.1502366514
 51
135.6811285837
  0
ARC
  5
39D
100
AcDbEntity
  8
00_COMPONENTS
100
AcDbCircle
 62
7
  6
BYLAYER
 10
47.4771401684
 20
-7.7315461106
 40
40.9819440507
100
AcDbArc
 50
135.1495267211
 51
135.7646143779
  0
ARC
  5
39E
100
AcDbEntity
  8
00_COMPONENTS
100
AcDbCircle
 62
7
  6
BYLAYER
 10
34.5977238464
 20
-5.6580562262
 40
40.0039396875
100
AcDbArc
 50
137.8812932159
 51
138.4838987081
  0
ARC
  5
39F
100
AcDbEntity
  8
00_COMPONENTS
100
AcDbCircle
 62
7
  6
BYLAYER
 10
48.8490051712
 20
-5.2688047257
 40
39.4201513811
100
AcDbArc
 50
137.8768310631
 51
138.4883608578
  0
ARC
  5
3A0
100
AcDbEntity
  8
00_COMPONENTS
100
AcDbCircle
 62
7
  6
BYLAYER
 10
39.5541629061
 20
1.0541220985
 40
39.369709075
100
AcDbArc
 50
149.2707297781
 51
149.8001619501
  0
ARC
  5
3A1
100
AcDbEntity
  8
00_COMPONENTS
100
AcDbCircle
 62
7
  6
BYLAYER
 10
35.3539710002
 20
-3.2490865062
 40
38.891162881
100
AcDbArc
 50
141.1033840208
 51
141.6944916875
  0
ARC
  5
3A2
100
AcDbEntity
  8
00_COMPONENTS
100
AcDbCircle
 62
7
  6
BYLAYER
 10
56.3676121692
 20
1.3847007708
 40
38.7176939256
100
AcDbArc
 50
149.2662718627
 51
149.8046198631
  0
ARC
  5
3A3
100
AcDbEntity
  8
00_COMPONENTS
100
AcDbCircle
 62
7
  6
BYLAYER
 10
36.857823435
 20
-0.9888012736
 40
38.5211280429
100
AcDbArc
 50
144.8812912762
 51
145.449506197
  0
ARC
  5
3A4
100
AcDbEntity
  8
00_COMPONENTS
100
AcDbCircle
 62
7
  6
BYLAYER
 10
50.597291911
 20
-2.8808924965
 40
38.3010161793
100
AcDbArc
 50
141.0988300493
 51
141.6990456572
  0
ARC
  5
3A5
100
AcDbEntity
  8
00_COMPONENTS
100
AcDbCircle
 62
7
  6
BYLAYER
 10
52.9603083496
 20
-0.6403648631
 40
37.9111379364
100
AcDbArc
 50
144.8767199482
 51
145.4540775223
  0
ARC
  5
3A6
100
AcDbEntity
  8
00_COMPONENTS
100
AcDbCircle
 62
7
  6
BYLAYER
 10
28.0681876288
 20
16.6101424652
 40
6.0869923341
100
AcDbArc
 50
43.8712610526
 51
44.252460465
  0
ARC
  5
3A7
100
AcDbEntity
  8
00_COMPONENTS
100
AcDbCircle
 62
7
  6
BYLAYER
 10
35.1804703736
 20
23.7777739408
 40
4.0264638642
100
AcDbArc
 50
226.4856423474
 51
227.2074737369
  0
ARC
  5
3A8
100
AcDbEntity
  8
00_COMPONENTS
100
AcDbCircle
 62
7
  6
BYLAYER
 10
31.3195597638
 20
20.3590111663
 40
1.1084792016
100
AcDbArc
 50
47.1242772436
 51
47.6566549637
  0
ARC
  5
3A9
100
AcDbEntity
  8
00_COMPONENTS
100
AcDbCircle
 62
7
  6
BYLAYER
 10
32.7170479363
 20
16.5354
 40
0.254
100
AcDbArc
 50
0.0
 51
90.0
  0
ARC
  5
3AA
100
AcDbEntity
  8
00_COMPONENTS
100
AcDbCircle
 62
7
  6
BYLAYER
 10
22.2319310955
 20
37.1856
 40
0.254
100
AcDbArc
 50
5.7105931374
 51
90.0
  0
ARC
  5
3AB
100
AcDbEntity
  8
00_COMPONENTS
100
AcDbCircle
 62
7
  6
BYLAYER
 10
24.279164777
 20
21.8186
 40
0.254
100
AcDbArc
 50
185.7105931374
 51
270.0
  0
SPLINE
  5
3AC
100
AcDbEntity
  8
00_COMPONENTS
100
AcDbSpline
 62
7
  6
BYLAYER
 70
0
 71
3
 72
10
 73
6
 74
0
 42
0.0000001
 43
0.0000001
 44
0.0000000001
 40
0.0
 40
0.0
 40
0.0
 40
0.0
 40
0.2069366819
 40
0.4437273682
 40
1.0
 40
1.0
 40
1.0
 40
1.0
 10
6.0082803054
 20
20.8050545769
 30
0.0
 10
6.0082802885
 20
20.8088656279
 30
0.0
 10
6.0091570542
 20
20.8170388086
 30
0.0
 10
6.0136095917
 20
20.8349387349
 30
0.0
 10
6.0192322894
 20
20.8485070881
 30
0.0
 10
6.0235980499
 20
20.8577748789
 30
0.0
  0
SPLINE
  5
3AD
100
AcDbEntity
  8
00_COMPONENTS
100
AcDbSpline
 62
7
  6
BYLAYER
 70
0
 71
3
 72
11
 73
7
 74
0
 42
0.0000001
 43
0.0000001
 44
0.0000000001
 40
0.0
 40
0.0
 40
0.0
 40
0.0
 40
0.1879535406
 40
0.4198962211
 40
0.6923591558
 40
1.0
 40
1.0
 40
1.0
 40
1.0
 10
5.5040615777
 20
20.7959047401
 30
0.0
 10
5.5040612706
 20
20.8000932777
 30
0.0
 10
5.5056171903
 20
20.8094279555
 30
0.0
 10
5.5106014857
 20
20.8240512745
 30
0.0
 10
5.5181814905
 20
20.8405137032
 30
0.0
 10
5.5244105514
 20
20.8518497762
 30
0.0
 10
5.5278594159
 20
20.8577748789
 30
0.0
  0
SPLINE
  5
3AE
100
AcDbEntity
  8
00_COMPONENTS
100
AcDbSpline
 62
7
  6
BYLAYER
 70
0
 71
3
 72
13
 73
9
 74
0
 42
0.0000001
 43
0.0000001
 44
0.0000000001
 40
0.0
 40
0.0
 40
0.0
 40
0.0
 40
0.0600528562
 40
0.1412937528
 40
0.2432231128
 40
0.3641998356
 40
0.6554275256
 40
1.0
 40
1.0
 40
1.0
 40
1.0
 10
4.7894877918
 20
20.7829486094
 30
0.0
 10
4.7894875122
 20
20.7847208365
 30
0.0
 10
4.7903738073
 20
20.7888628809
 30
0.0
 10
4.7930277088
 20
20.795532024
 30
0.0
 10
4.7971543071
 20
20.803520068
 30
0.0
 10
4.8049593551
 20
20.8165354325
 30
0.0
 10
4.8177124543
 20
20.8348952318
 30
0.0
 10
4.8291192552
 20
20.8497956415
 30
0.0
 10
4.8354227977
 20
20.8577748789
 30
0.0
  0
SPLINE
  5
3AF
100
AcDbEntity
  8
00_COMPONENTS
100
AcDbSpline
 62
7
  6
BYLAYER
 70
0
 71
3
 72
12
 73
8
 74
0
 42
0.0000001
 43
0.0000001
 44
0.0000000001
 40
0.0
 40
0.0
 40
0.0
 40
0.0
 40
0.0752791822
 40
0.1661701325
 40
0.3933170579
 40
0.6744336198
 40
1.0
 40
1.0
 40
1.0
 40
1.0
 10
5.0967646676
 20
20.788518715
 30
0.0
 10
5.0967649673
 20
20.7904733815
 30
0.0
 10
5.0973203821
 20
20.7947852023
 30
0.0
 10
5.1001043436
 20
20.8046285855
 30
0.0
 10
5.1065553665
 20
20.8188601455
 30
0.0
 10
5.1173219013
 20
20.8376510955
 30
0.0
 10
5.1259990739
 20
20.8508125857
 30
0.0
 10
5.1307936952
 20
20.8577748789
 30
0.0
  0
SPLINE
  5
3B0
100
AcDbEntity
  8
00_COMPONENTS
100
AcDbSpline
 62
7
  6
BYLAYER
 70
0
 71
3
 72
17
 73
13
 74
0
 42
0.0000001
 43
0.0000001
 44
0.0000000001
 40
0.0
 40
0.0
 40
0.0
 40
0.0
 40
0.205386548
 40
0.3931551346
 40
0.5607747071
 40
0.705386895
 40
0.8241119656
 40
0.9141449893
 40
0.9476565761
 40
0.9731746914
 40
0.9905555254
 40
1.0
 40
1.0
 40
1.0
 40
1.0
 10
32.4562932437
 20
20.8286735825
 30
0.0
 10
32.4595713839
 20
20.8252593482
 30
0.0
 10
32.4658350922
 20
20.8187128384
 30
0.0
 10
32.474725759
 20
20.8093336067
 30
0.0
 10
32.4826001832
 20
20.8009216122
 30
0.0
 10
32.4893253852
 20
20.7936122767
 30
0.0
 10
32.4947569794
 20
20.7875471584
 30
0.0
 10
32.4984021359
 20
20.783311098
 30
0.0
 10
32.5005413368
 20
20.7806300737
 30
0.0
 10
32.5016013044
 20
20.7792101158
 30
0.0
 10
32.5022299348
 20
20.7782036376
 30
0.0
 10
32.5025230732
 20
20.777623682
 30
0.0
 10
32.50252362
 20
20.7774060316
 30
0.0
  0
SPLINE
  5
3B1
100
AcDbEntity
  8
00_COMPONENTS
100
AcDbSpline
 62
7
  6
BYLAYER
 70
0
 71
3
 72
15
 73
11
 74
0
 42
0.0000001
 43
0.0000001
 44
0.0000000001
 40
0.0
 40
0.0
 40
0.0
 40
0.0
 40
0.3637543718
 40
0.5239008888
 40
0.6661326404
 40
0.7876091607
 40
0.88528563
 40
0.956443318
 40
0.9815955722
 40
1.0
 40
1.0
 40
1.0
 40
1.0
 10
32.3421011984
 20
20.8577748789
 30
0.0
 10
32.3500585684
 20
20.8487867342
 30
0.0
 10
32.3614084853
 20
20.835741224
 30
0.0
 10
32.3754412254
 20
20.8188172451
 30
0.0
 10
32.3841403483
 20
20.8078633598
 30
0.0
 10
32.3912861469
 20
20.7983072001
 30
0.0
 10
32.3966524697
 20
20.7903755885
 30
0.0
 10
32.3998575345
 20
20.7848003527
 30
0.0
 10
32.4012311819
 20
20.7812711218
 30
0.0
 10
32.4015261561
 20
20.7798423228
 30
0.0
 10
32.4015259284
 20
20.7792349493
 30
0.0
  0
SPLINE
  5
3B2
100
AcDbEntity
  8
00_COMPONENTS
100
AcDbSpline
 62
7
  6
BYLAYER
 70
0
 71
3
 72
13
 73
9
 74
0
 42
0.0000001
 43
0.0000001
 44
0.0000000001
 40
0.0
 40
0.0
 40
0.0
 40
0.0
 40
0.3445722851
 40
0.6358001084
 40
0.756776786
 40
0.8587061362
 40
0.9399470834
 40
1.0
 40
1.0
 40
1.0
 40
1.0
 10
32.1506730748
 20
20.8577748789
 30
0.0
 10
32.1569766141
 20
20.8497956457
 30
0.0
 10
32.1683834145
 20
20.8348952371
 30
0.0
 10
32.1811365129
 20
20.8165354397
 30
0.0
 10
32.1889415624
 20
20.8035200735
 30
0.0
 10
32.1930681642
 20
20.7955320301
 30
0.0
 10
32.1957220565
 20
20.7888628815
 30
0.0
 10
32.1966083641
 20
20.7847208356
 30
0.0
 10
32.1966080838
 20
20.7829486066
 30
0.0
  0
SPLINE
  5
3B3
100
AcDbEntity
  8
00_COMPONENTS
100
AcDbSpline
 62
7
  6
BYLAYER
 70
0
 71
3
 72
12
 73
8
 74
0
 42
0.0000001
 43
0.0000001
 44
0.0000000001
 40
0.0
 40
0.0
 40
0.0
 40
0.0
 40
0.325566199
 40
0.6066828898
 40
0.8338297981
 40
0.9247207557
 40
1.0
 40
1.0
 40
1.0
 40
1.0
 10
31.8553021773
 20
20.8577748789
 30
0.0
 10
31.8600967956
 20
20.85081259
 30
0.0
 10
31.8687739679
 20
20.8376511024
 30
0.0
 10
31.8795405001
 20
20.8188601542
 30
0.0
 10
31.8859915263
 20
20.804628594
 30
0.0
 10
31.8887754906
 20
20.7947852101
 30
0.0
 10
31.8893309002
 20
20.7904733873
 30
0.0
 10
31.8893312001
 20
20.7885187193
 30
0.0
  0
SPLINE
  5
3B4
100
AcDbEntity
  8
00_COMPONENTS
100
AcDbSpline
 62
7
  6
BYLAYER
 70
0
 71
3
 72
11
 73
7
 74
0
 42
0.0000001
 43
0.0000001
 44
0.0000000001
 40
0.0
 40
0.0
 40
0.0
 40
0.0
 40
0.3076407075
 40
0.580103727
 40
0.8120464973
 40
1.0
 40
1.0
 40
1.0
 40
1.0
 10
31.4582364566
 20
20.8577748789
 30
0.0
 10
31.4616853197
 20
20.8518497788
 30
0.0
 10
31.4679143814
 20
20.8405137074
 30
0.0
 10
31.4754943842
 20
20.8240512767
 30
0.0
 10
31.4804786835
 20
20.8094279559
 30
0.0
 10
31.4820346037
 20
20.8000932765
 30
0.0
 10
31.4820342954
 20
20.7959047397
 30
0.0
  0
SPLINE
  5
3B5
100
AcDbEntity
  8
00_COMPONENTS
100
AcDbSpline
 62
7
  6
BYLAYER
 70
0
 71
3
 72
10
 73
6
 74
0
 42
0.0000001
 43
0.0000001
 44
0.0000000001
 40
0.0
 40
0.0
 40
0.0
 40
0.0
 40
0.5562724756
 40
0.7930633397
 40
1.0
 40
1.0
 40
1.0
 40
1.0
 10
30.9624978226
 20
20.8577748789
 30
0.0
 10
30.966863582
 20
20.8485070905
 30
0.0
 10
30.972486281
 20
20.8349387368
 30
0.0
 10
30.9769388163
 20
20.8170388097
 30
0.0
 10
30.9778155854
 20
20.8088656263
 30
0.0
 10
30.9778155689
 20
20.8050545756
 30
0.0
  0
SPLINE
  5
3B6
100
AcDbEntity
  8
00_COMPONENTS
100
AcDbSpline
 62
7
  6
BYLAYER
 70
0
 71
3
 72
11
 73
7
 74
0
 42
0.0000001
 43
0.0000001
 44
0.0000000001
 40
0.0
 40
0.0
 40
0.0
 40
0.0
 40
0.3317512917
 40
0.6159907698
 40
0.8416829701
 40
1.0
 40
1.0
 40
1.0
 40
1.0
 10
5.3490076568
 20
21.1713393836
 30
0.0
 10
5.350869057
 20
21.1739852979
 30
0.0
 10
5.3542313363
 20
21.1789617323
 30
0.0
 10
5.3584373714
 20
21.1860327455
 30
0.0
 10
5.3612226761
 20
21.1919032925
 30
0.0
 10
5.3622778598
 20
21.1955895245
 30
0.0
 10
5.3622786264
 20
21.1971333513
 30
0.0
  0
SPLINE
  5
3B7
100
AcDbEntity
  8
00_COMPONENTS
100
AcDbSpline
 62
7
  6
BYLAYER
 70
0
 71
3
 72
15
 73
11
 74
0
 42
0.0000001
 43
0.0000001
 44
0.0000000001
 40
0.0
 40
0.0
 40
0.0
 40
0.0
 40
0.0184044761
 40
0.0435568183
 40
0.1147144396
 40
0.2123908801
 40
0.3338674273
 40
0.476099159
 40
0.6362455451
 40
1.0
 40
1.0
 40
1.0
 40
1.0
 10
4.5845699449
 20
20.77923495
 30
0.0
 10
4.5845697152
 20
20.7798423251
 30
0.0
 10
4.5848646938
 20
20.7812711287
 30
0.0
 10
4.5862383447
 20
20.7848003596
 30
0.0
 10
4.5894434042
 20
20.7903755984
 30
0.0
 10
4.5948097312
 20
20.7983072044
 30
0.0
 10
4.6019555277
 20
20.8078633645
 30
0.0
 10
4.610654648
 20
20.8188172465
 30
0.0
 10
4.6246873868
 20
20.8357412233
 30
0.0
 10
4.6360373023
 20
20.8487867322
 30
0.0
 10
4.6439946741
 20
20.8577748789
 30
0.0
  0
SPLINE
  5
3B8
100
AcDbEntity
  8
00_COMPONENTS
100
AcDbSpline
 62
7
  6
BYLAYER
 70
0
 71
3
 72
14
 73
10
 74
0
 42
0.0000001
 43
0.0000001
 44
0.0000000001
 40
0.0
 40
0.0
 40
0.0
 40
0.0
 40
0.0362203916
 40
0.1030748531
 40
0.1987423589
 40
0.3201532081
 40
0.4640867214
 40
0.6272925831
 40
1.0
 40
1.0
 40
1.0
 40
1.0
 10
4.9476990765
 20
21.2001520276
 30
0.0
 10
4.947698717
 20
21.1997041398
 30
0.0
 10
4.9470755384
 20
21.1985139739
 30
0.0
 10
4.9457939552
 20
21.1964683196
 30
0.0
 10
4.9436798399
 20
21.1936357934
 30
0.0
 10
4.9409089805
 20
21.190146167
 30
0.0
 10
4.9375125624
 20
21.1860739905
 30
0.0
 10
4.9320300866
 20
21.1797023746
 30
0.0
 10
4.9276165385
 20
21.1747575573
 30
0.0
 10
4.9245251355
 20
21.1713393836
 30
0.0
  0
SPLINE
  5
3B9
100
AcDbEntity
  8
00_COMPONENTS
100
AcDbSpline
 62
7
  6
BYLAYER
 70
0
 71
3
 72
17
 73
13
 74
0
 42
0.0000001
 43
0.0000001
 44
0.0000000001
 40
0.0
 40
0.0
 40
0.0
 40
0.0
 40
0.009444491
 40
0.02682535
 40
0.052343549
 40
0.0858553209
 40
0.1758884779
 40
0.2946135682
 40
0.4392258123
 40
0.6068454209
 40
0.794613854
 40
1.0
 40
1.0
 40
1.0
 40
1.0
 10
4.4835722538
 20
20.7774060327
 30
0.0
 10
4.4835728015
 20
20.7776236868
 30
0.0
 10
4.4838659468
 20
20.7782036509
 30
0.0
 10
4.4844945891
 20
20.7792101465
 30
0.0
 10
4.485554579
 20
20.7806301301
 30
0.0
 10
4.4876938222
 20
20.7833111995
 30
0.0
 10
4.4913390412
 20
20.7875473289
 30
0.0
 10
4.4967707261
 20
20.7936125394
 30
0.0
 10
4.5034960358
 20
20.8009219855
 30
0.0
 10
4.5113705825
 20
20.8093341044
 30
0.0
 10
4.5202613798
 20
20.818713468
 30
0.0
 10
4.5265251768
 20
20.8252600667
 30
0.0
 10
4.5298033615
 20
20.8286743457
 30
0.0
  0
SPLINE
  5
3BA
100
AcDbEntity
  8
00_COMPONENTS
100
AcDbSpline
 62
7
  6
BYLAYER
 70
0
 71
3
 72
14
 73
10
 74
0
 42
0.0000001
 43
0.0000001
 44
0.0000000001
 40
0.0
 40
0.0
 40
0.0
 40
0.0
 40
0.3727027094
 40
0.5359081899
 40
0.6798419157
 40
0.8012558394
 40
0.8969288058
 40
0.9637802686
 40
1.0
 40
1.0
 40
1.0
 40
1.0
 10
32.061570737
 20
21.1713393836
 30
0.0
 10
32.0584793912
 20
21.1747574941
 30
0.0
 10
32.0540659069
 20
21.1797022311
 30
0.0
 10
32.048583504
 20
21.1860737668
 30
0.0
 10
32.0451870807
 20
21.1901459411
 30
0.0
 10
32.0424161677
 20
21.193635641
 30
0.0
 10
32.040302
 20
21.1964681572
 30
0.0
 10
32.0390203324
 20
21.1985138323
 30
0.0
 10
32.0383973772
 20
21.199703982
 30
0.0
 10
32.0383969647
 20
21.2001518589
 30
0.0
  0
SPLINE
  5
3BB
100
AcDbEntity
  8
00_COMPONENTS
100
AcDbSpline
 62
7
  6
BYLAYER
 70
0
 71
3
 72
12
 73
8
 74
0
 42
0.0000001
 43
0.0000001
 44
0.0000000001
 40
0.0
 40
0.0
 40
0.0
 40
0.0
 40
0.3521391027
 40
0.6472905584
 40
0.8681877436
 40
0.9457446968
 40
1.0
 40
1.0
 40
1.0
 40
1.0
 10
31.900348302
 20
21.1713393836
 30
0.0
 10
31.8979006109
 20
21.174372376
 30
0.0
 10
31.8934688854
 20
21.1800074961
 30
0.0
 10
31.8878684636
 20
21.1878070454
 30
0.0
 10
31.8843731219
 20
21.1934072821
 30
0.0
 10
31.8828015966
 20
21.1969748373
 30
0.0
 10
31.8824329065
 20
21.1984168602
 30
0.0
 10
31.8824337507
 20
21.1990173557
 30
0.0
  0
SPLINE
  5
3BC
100
AcDbEntity
  8
00_COMPONENTS
100
AcDbSpline
 62
7
  6
BYLAYER
 70
0
 71
3
 72
11
 73
7
 74
0
 42
0.0000001
 43
0.0000001
 44
0.0000000001
 40
0.0
 40
0.0
 40
0.0
 40
0.0
 40
0.3317434693
 40
0.6159728578
 40
0.841655233
 40
1.0
 40
1.0
 40
1.0
 40
1.0
 10
31.6370882158
 20
21.1713393836
 30
0.0
 10
31.6352268826
 20
21.1739852025
 30
0.0
 10
31.6318648002
 20
21.1789614906
 30
0.0
 10
31.6276589082
 20
21.1860320677
 30
0.0
 10
31.624873049
 20
21.1919025062
 30
0.0
 10
31.6238185838
 20
21.1955889589
 30
0.0
 10
31.6238176006
 20
21.1971330367
 30
0.0
  0
SPLINE
  5
3BD
100
AcDbEntity
  8
00_COMPONENTS
100
AcDbSpline
 62
7
  6
BYLAYER
 70
0
 71
3
 72
12
 73
8
 74
0
 42
0.0000001
 43
0.0000001
 44
0.0000000001
 40
0.0
 40
0.0
 40
0.0
 40
0.0
 40
0.352143999
 40
0.6473026606
 40
0.8681983299
 40
0.945741844
 40
1.0
 40
1.0
 40
1.0
 40
1.0
 10
5.0857475705
 20
21.1713393836
 30
0.0
 10
5.0881953045
 20
21.1743724291
 30
0.0
 10
5.0926272561
 20
21.1800075876
 30
0.0
 10
5.098227414
 20
21.1878074909
 30
0.0
 10
5.1017230045
 20
21.1934075167
 30
0.0
 10
5.1032945838
 20
21.1969748867
 30
0.0
 10
5.1036631943
 20
21.1984168705
 30
0.0
 10
5.1036621675
 20
21.1990173995
 30
0.0
  0
SPLINE
  5
3BE
100
AcDbEntity
  8
00_COMPONENTS
100
AcDbSpline
 62
7
  6
BYLAYER
 70
0
 71
3
 72
11
 73
7
 74
0
 42
0.0000001
 43
0.0000001
 44
0.0000000001
 40
0.0
 40
0.0
 40
0.0
 40
0.0
 40
0.2689536021
 40
0.5334346893
 40
0.782024355
 40
1.0
 40
1.0
 40
1.0
 40
1.0
 10
9.2456895227
 20
20.8577748789
 30
0.0
 10
9.2303200084
 20
20.8465731794
 30
0.0
 10
9.1988396956
 20
20.8256793827
 30
0.0
 10
9.149695189
 20
20.8000288605
 30
0.0
 10
9.100920127
 20
20.7824207777
 30
0.0
 10
9.0679416816
 20
20.7772
 30
0.0
 10
9.0525280531
 20
20.7772
 30
0.0
  0
SPLINE
  5
3BF
100
AcDbEntity
  8
00_COMPONENTS
100
AcDbSpline
 62
7
  6
BYLAYER
 70
0
 71
3
 72
14
 73
10
 74
0
 42
0.0000001
 43
0.0000001
 44
0.0000000001
 40
0.0
 40
0.0
 40
0.0
 40
0.0
 40
0.1526055709
 40
0.2894338385
 40
0.4134694439
 40
0.5294155948
 40
0.6423752039
 40
0.7567340147
 40
1.0
 40
1.0
 40
1.0
 40
1.0
 10
8.9890268158
 20
20.7772
 30
0.0
 10
8.9823933056
 20
20.7772
 30
0.0
 10
8.9697772259
 20
20.7780893267
 30
0.0
 10
8.9522625917
 20
20.7826122915
 30
0.0
 10
8.9375257074
 20
20.7900908531
 30
0.0
 10
8.9257775713
 20
20.8001923269
 30
0.0
 10
8.9170434911
 20
20.8124592092
 30
0.0
 10
8.909042186
 20
20.8314227409
 30
0.0
 10
8.9072011114
 20
20.8472005114
 30
0.0
 10
8.9072011114
 20
20.8577748789
 30
0.0
  0
SPLINE
  5
3C0
100
AcDbEntity
  8
00_COMPONENTS
100
AcDbSpline
 62
7
  6
BYLAYER
 70
0
 71
3
 72
11
 73
7
 74
0
 42
0.0000001
 43
0.0000001
 44
0.0000000001
 40
0.0
 40
0.0
 40
0.0
 40
0.0
 40
0.2636079822
 40
0.4895046772
 40
0.7198135638
 40
1.0
 40
1.0
 40
1.0
 40
1.0
 10
31.4820342954
 20
20.7959047397
 30
0.0
 10
31.4820340989
 20
20.7932354578
 30
0.0
 10
31.4815176779
 20
20.7882131584
 30
0.0
 10
31.4778152416
 20
20.7815973896
 30
0.0
 10
31.4710796023
 20
20.7777378937
 30
0.0
 10
31.4658342809
 20
20.7772
 30
0.0
 10
31.4629971263
 20
20.7772
 30
0.0
  0
SPLINE
  5
3C1
100
AcDbEntity
  8
00_COMPONENTS
100
AcDbSpline
 62
7
  6
BYLAYER
 70
0
 71
3
 72
11
 73
7
 74
0
 42
0.0000001
 43
0.0000001
 44
0.0000000001
 40
0.0
 40
0.0
 40
0.0
 40
0.0
 40
0.2760926988
 40
0.5437945324
 40
0.7903031307
 40
1.0
 40
1.0
 40
1.0
 40
1.0
 10
8.3717131884
 20
20.8577748789
 30
0.0
 10
8.3563703735
 20
20.8466351904
 30
0.0
 10
8.3252608403
 20
20.8258844336
 30
0.0
 10
8.277276697
 20
20.800257293
 30
0.0
 10
8.2306541537
 20
20.7826297812
 30
0.0
 10
8.1993733825
 20
20.7772
 30
0.0
 10
8.1849726949
 20
20.7772
 30
0.0
  0
SPLINE
  5
3C2
100
AcDbEntity
  8
00_COMPONENTS
100
AcDbSpline
 62
7
  6
BYLAYER
 70
0
 71
3
 72
14
 73
10
 74
0
 42
0.0000001
 43
0.0000001
 44
0.0000000001
 40
0.0
 40
0.0
 40
0.0
 40
0.0
 40
0.1517819567
 40
0.2875115253
 40
0.4104216801
 40
0.525454936
 40
0.6379834459
 40
0.7527112308
 40
1.0
 40
1.0
 40
1.0
 40
1.0
 10
8.1267845315
 20
20.7772
 30
0.0
 10
8.1214387379
 20
20.7772
 30
0.0
 10
8.1112860511
 20
20.7778874801
 30
0.0
 10
8.0971755056
 20
20.7814156752
 30
0.0
 10
8.0852739664
 20
20.7873016122
 30
0.0
 10
8.0757429109
 20
20.7953406367
 30
0.0
 10
8.0686272162
 20
20.8052139345
 30
0.0
 10
8.0620567206
 20
20.8206990384
 30
0.0
 10
8.0605791099
 20
20.833647812
 30
0.0
 10
8.0605790889
 20
20.8423573765
 30
0.0
  0
SPLINE
  5
3C3
100
AcDbEntity
  8
00_COMPONENTS
100
AcDbSpline
 62
7
  6
BYLAYER
 70
0
 71
3
 72
12
 73
8
 74
0
 42
0.0000001
 43
0.0000001
 44
0.0000000001
 40
0.0
 40
0.0
 40
0.0
 40
0.0
 40
0.2838404838
 40
0.5549447514
 40
0.799032852
 40
0.9057711722
 40
1.0
 40
1.0
 40
1.0
 40
1.0
 10
7.574766323
 20
20.8577748789
 30
0.0
 10
7.5595714591
 20
20.8467004692
 30
0.0
 10
7.5290656988
 20
20.8260962108
 30
0.0
 10
7.4826455824
 20
20.8005265613
 30
0.0
 10
7.4442026625
 20
20.7851304638
 30
0.0
 10
7.4154284094
 20
20.7784664502
 30
0.0
 10
7.4021099651
 20
20.7772
 30
0.0
 10
7.3958680135
 20
20.7772
 30
0.0
  0
SPLINE
  5
3C4
100
AcDbEntity
  8
00_COMPONENTS
100
AcDbSpline
 62
7
  6
BYLAYER
 70
0
 71
3
 72
13
 73
9
 74
0
 42
0.0000001
 43
0.0000001
 44
0.0000000001
 40
0.0
 40
0.0
 40
0.0
 40
0.0
 40
0.2847795178
 40
0.4067526604
 40
0.5210141974
 40
0.6332360835
 40
0.7484347239
 40
1.0
 40
1.0
 40
1.0
 40
1.0
 10
7.3434357711
 20
20.7772
 30
0.0
 10
7.3355544642
 20
20.7772
 30
0.0
 10
7.3240554962
 20
20.7785812581
 30
0.0
 10
7.3109620808
 20
20.7848947171
 30
0.0
 10
7.3034562359
 20
20.7911083942
 30
0.0
 10
7.2978214758
 20
20.7988168901
 30
0.0
 10
7.2925792272
 20
20.8110893433
 30
0.0
 10
7.2914212234
 20
20.8214032081
 30
0.0
 10
7.2914214357
 20
20.8283653069
 30
0.0
  0
SPLINE
  5
3C5
100
AcDbEntity
  8
00_COMPONENTS
100
AcDbSpline
 62
7
  6
BYLAYER
 70
0
 71
3
 72
13
 73
9
 74
0
 42
0.0000001
 43
0.0000001
 44
0.0000000001
 40
0.0
 40
0.0
 40
0.0
 40
0.0
 40
0.2925463005
 40
0.5674999591
 40
0.6936679742
 40
0.8091525604
 40
0.9117490169
 40
1.0
 40
1.0
 40
1.0
 40
1.0
 10
6.8609141732
 20
20.8577748789
 30
0.0
 10
6.8459860448
 20
20.8467690716
 30
0.0
 10
6.8163338661
 20
20.8263412629
 30
0.0
 10
6.7781183537
 20
20.8044066284
 30
0.0
 10
6.7483034817
 20
20.790794998
 30
0.0
 10
6.7277755242
 20
20.7832942996
 30
0.0
 10
6.7089149555
 20
20.7785134294
 30
0.0
 10
6.6968144358
 20
20.7772
 30
0.0
 10
6.6912195719
 20
20.7772
 30
0.0
  0
SPLINE
  5
3C6
100
AcDbEntity
  8
00_COMPONENTS
100
AcDbSpline
 62
7
  6
BYLAYER
 70
0
 71
3
 72
13
 73
9
 74
0
 42
0.0000001
 43
0.0000001
 44
0.0000000001
 40
0.0
 40
0.0
 40
0.0
 40
0.0
 40
0.2828647018
 40
0.4038198124
 40
0.5172306062
 40
0.6290020653
 40
0.7444700142
 40
1.0
 40
1.0
 40
1.0
 40
1.0
 10
6.6449422916
 20
20.7772
 30
0.0
 10
6.6390118287
 20
20.7772
 30
0.0
 10
6.6303682392
 20
20.7781973994
 30
0.0
 10
6.6204803347
 20
20.7828571024
 30
0.0
 10
6.614787466
 20
20.7874798198
 30
0.0
 10
6.610492214
 20
20.7932751859
 30
0.0
 10
6.6064563451
 20
20.8026341444
 30
0.0
 10
6.6055817568
 20
20.810543208
 30
0.0
 10
6.6055815929
 20
20.8159005788
 30
0.0
  0
SPLINE
  5
3C7
100
AcDbEntity
  8
00_COMPONENTS
100
AcDbSpline
 62
7
  6
BYLAYER
 70
0
 71
3
 72
13
 73
9
 74
0
 42
0.0000001
 43
0.0000001
 44
0.0000000001
 40
0.0
 40
0.0
 40
0.0
 40
0.0
 40
0.1795673471
 40
0.2626277969
 40
0.3592416458
 40
0.4796623087
 40
0.6275119676
 40
1.0
 40
1.0
 40
1.0
 40
1.0
 10
30.8072562472
 20
21.1911881643
 30
0.0
 10
30.8072561419
 20
21.1934554384
 30
0.0
 10
30.8079628052
 20
21.197119767
 30
0.0
 10
30.8117596976
 20
21.1999174191
 30
0.0
 10
30.8155480799
 20
21.2006943343
 30
0.0
 10
30.8201758691
 20
21.2003619278
 30
0.0
 10
30.8280483434
 20
21.1983911945
 30
0.0
 10
30.8340758714
 20
21.1956591724
 30
0.0
 10
30.8382655019
 20
21.1935222047
 30
0.0
  0
SPLINE
  5
3C8
100
AcDbEntity
  8
00_COMPONENTS
100
AcDbSpline
 62
7
  6
BYLAYER
 70
0
 71
3
 72
9
 73
5
 74
0
 42
0.0000001
 43
0.0000001
 44
0.0000000001
 40
0.0
 40
0.0
 40
0.0
 40
0.0
 40
0.4728341619
 40
1.0
 40
1.0
 40
1.0
 40
1.0
 10
30.8382655019
 20
21.1935222047
 30
0.0
 10
30.8439905014
 20
21.190602105
 30
0.0
 10
30.8556550369
 20
21.1835643244
 30
0.0
 10
30.8667214261
 20
21.1756616644
 30
0.0
 10
30.8724361175
 20
21.1713393836
 30
0.0
  0
SPLINE
  5
3C9
100
AcDbEntity
  8
00_COMPONENTS
100
AcDbSpline
 62
7
  6
BYLAYER
 70
0
 71
3
 72
13
 73
9
 74
0
 42
0.0000001
 43
0.0000001
 44
0.0000000001
 40
0.0
 40
0.0
 40
0.0
 40
0.0
 40
0.3024073646
 40
0.5817526688
 40
0.7074917374
 40
0.8205074058
 40
0.9184652697
 40
1.0
 40
1.0
 40
1.0
 40
1.0
 10
6.2355895851
 20
20.8577748789
 30
0.0
 10
6.2210435051
 20
20.8468411023
 30
0.0
 10
6.1924627159
 20
20.8265898969
 30
0.0
 10
6.1559389525
 20
20.8045750422
 30
0.0
 10
6.1279117364
 20
20.79087495
 30
0.0
 10
6.1090594862
 20
20.7833714027
 30
0.0
 10
6.0920918986
 20
20.7785714587
 30
0.0
 10
6.0812964626
 20
20.7772
 30
0.0
 10
6.0763901703
 20
20.7772
 30
0.0
  0
SPLINE
  5
3CA
100
AcDbEntity
  8
00_COMPONENTS
100
AcDbSpline
 62
7
  6
BYLAYER
 70
0
 71
3
 72
11
 73
7
 74
0
 42
0.0000001
 43
0.0000001
 44
0.0000000001
 40
0.0
 40
0.0
 40
0.0
 40
0.0
 40
0.281893533
 40
0.5136684611
 40
0.7398762031
 40
1.0
 40
1.0
 40
1.0
 40
1.0
 10
6.0366200501
 20
20.7772
 30
0.0
 10
6.0323738496
 20
20.7772
 30
0.0
 10
6.024516534
 20
20.778028399
 30
0.0
 10
6.0144981877
 20
20.7838834663
 30
0.0
 10
6.0090521808
 20
20.7937180847
 30
0.0
 10
6.0082803227
 20
20.8011362969
 30
0.0
 10
6.0082803054
 20
20.8050545769
 30
0.0
  0
SPLINE
  5
3CB
100
AcDbEntity
  8
00_COMPONENTS
100
AcDbSpline
 62
7
  6
BYLAYER
 70
0
 71
3
 72
11
 73
7
 74
0
 42
0.0000001
 43
0.0000001
 44
0.0000000001
 40
0.0
 40
0.0
 40
0.0
 40
0.0
 40
0.2601239223
 40
0.4863319961
 40
0.7181066701
 40
1.0
 40
1.0
 40
1.0
 40
1.0
 10
30.9778155689
 20
20.8050545756
 30
0.0
 10
30.9778155519
 20
20.8011362937
 30
0.0
 10
30.9770436864
 20
20.7937180758
 30
0.0
 10
30.9715976783
 20
20.7838834531
 30
0.0
 10
30.9615793276
 20
20.7780283965
 30
0.0
 10
30.9537220199
 20
20.7772
 30
0.0
 10
30.9494758224
 20
20.7772
 30
0.0
  0
SPLINE
  5
3CC
100
AcDbEntity
  8
00_COMPONENTS
100
AcDbSpline
 62
7
  6
BYLAYER
 70
0
 71
3
 72
13
 73
9
 74
0
 42
0.0000001
 43
0.0000001
 44
0.0000000001
 40
0.0
 40
0.0
 40
0.0
 40
0.0
 40
0.3136214974
 40
0.5979768097
 40
0.7232462226
 40
0.8334705384
 40
0.9261475299
 40
1.0
 40
1.0
 40
1.0
 40
1.0
 10
5.7035516563
 20
20.8577748789
 30
0.0
 10
5.6894984297
 20
20.8469166689
 30
0.0
 10
5.6622013728
 20
20.8268556061
 30
0.0
 10
5.6276459599
 20
20.8047640552
 30
0.0
 10
5.6016238413
 20
20.7909680895
 30
0.0
 10
5.5845920773
 20
20.7834657667
 30
0.0
 10
5.5696537695
 20
20.7786498563
 30
0.0
 10
5.5602410492
 20
20.7772
 30
0.0
 10
5.5560590317
 20
20.7772
 30
0.0
  0
SPLINE
  5
3CD
100
AcDbEntity
  8
00_COMPONENTS
100
AcDbSpline
 62
7
  6
BYLAYER
 70
0
 71
3
 72
11
 73
7
 74
0
 42
0.0000001
 43
0.0000001
 44
0.0000000001
 40
0.0
 40
0.0
 40
0.0
 40
0.0
 40
0.2801864992
 40
0.5104957253
 40
0.7363923815
 40
1.0
 40
1.0
 40
1.0
 40
1.0
 10
5.5230987462
 20
20.7772
 30
0.0
 10
5.5202615911
 20
20.7772
 30
0.0
 10
5.5150162649
 20
20.7777378978
 30
0.0
 10
5.5082806277
 20
20.7815974006
 30
0.0
 10
5.5045781823
 20
20.7882131641
 30
0.0
 10
5.5040617734
 20
20.7932354619
 30
0.0
 10
5.5040615777
 20
20.7959047401
 30
0.0
  0
SPLINE
  5
3CE
100
AcDbEntity
  8
00_COMPONENTS
100
AcDbSpline
 62
7
  6
BYLAYER
 70
0
 71
3
 72
13
 73
9
 74
0
 42
0.0000001
 43
0.0000001
 44
0.0000000001
 40
0.0
 40
0.0
 40
0.0
 40
0.0
 40
0.3265016729
 40
0.6166471991
 40
0.7414126185
 40
0.8484638848
 40
0.9350685861
 40
1.0
 40
1.0
 40
1.0
 40
1.0
 10
5.2688495167
 20
20.8577748789
 30
0.0
 10
5.2553943683
 20
20.8469958216
 30
0.0
 10
5.2295782774
 20
20.8271393496
 30
0.0
 10
5.1972524537
 20
20.8049770059
 30
0.0
 10
5.173441327
 20
20.7910780285
 30
0.0
 10
5.1583597685
 20
20.7835831141
 30
0.0
 10
5.1455763495
 20
20.7787623827
 30
0.0
 10
5.1376147767
 20
20.7772
 30
0.0
 10
5.1341861902
 20
20.7772
 30
0.0
  0
SPLINE
  5
3CF
100
AcDbEntity
  8
00_COMPONENTS
100
AcDbSpline
 62
7
  6
BYLAYER
 70
0
 71
3
 72
11
 73
7
 74
0
 42
0.0000001
 43
0.0000001
 44
0.0000000001
 40
0.0
 40
0.0
 40
0.0
 40
0.0
 40
0.2786748625
 40
0.5077809431
 40
0.7333946303
 40
1.0
 40
1.0
 40
1.0
 40
1.0
 10
5.1082865871
 20
20.7772
 30
0.0
 10
5.106577588
 20
20.7772
 30
0.0
 10
5.1034202316
 20
20.7775180044
 30
0.0
 10
5.0993400937
 20
20.7798141557
 30
0.0
 10
5.0970758668
 20
20.7838235729
 30
0.0
 10
5.0967644168
 20
20.7868837331
 30
0.0
 10
5.0967646676
 20
20.788518715
 30
0.0
  0
SPLINE
  5
3D0
100
AcDbEntity
  8
00_COMPONENTS
100
AcDbSpline
 62
7
  6
BYLAYER
 70
0
 71
3
 72
13
 73
9
 74
0
 42
0.0000001
 43
0.0000001
 44
0.0000000001
 40
0.0
 40
0.0
 40
0.0
 40
0.0
 40
0.191671598
 40
0.279534547
 40
0.3775118473
 40
0.4961713599
 40
0.6402830295
 40
1.0
 40
1.0
 40
1.0
 40
1.0
 10
30.2555279259
 20
21.1871717561
 30
0.0
 10
30.2555277603
 20
21.1901581641
 30
0.0
 10
30.25635265
 20
21.1948563846
 30
0.0
 10
30.2607996876
 20
21.1989949433
 30
0.0
 10
30.2654064451
 20
21.2005253978
 30
0.0
 10
30.2710782216
 20
21.2006413928
 30
0.0
 10
30.2806610021
 20
21.1989060177
 30
0.0
 10
30.2880029004
 20
21.1959182014
 30
0.0
 10
30.2930696479
 20
21.1935222212
 30
0.0
  0
SPLINE
  5
3D1
100
AcDbEntity
  8
00_COMPONENTS
100
AcDbSpline
 62
7
  6
BYLAYER
 70
0
 71
3
 72
9
 73
5
 74
0
 42
0.0000001
 43
0.0000001
 44
0.0000000001
 40
0.0
 40
0.0
 40
0.0
 40
0.0
 40
0.4779945344
 40
1.0
 40
1.0
 40
1.0
 40
1.0
 10
30.2930696479
 20
21.1935222212
 30
0.0
 10
30.2991522255
 20
21.1906458719
 30
0.0
 10
30.3114268814
 20
21.1836796253
 30
0.0
 10
30.323030889
 20
21.1756941641
 30
0.0
 10
30.3289492853
 20
21.1713393836
 30
0.0
  0
SPLINE
  5
3D2
100
AcDbEntity
  8
00_COMPONENTS
100
AcDbSpline
 62
7
  6
BYLAYER
 70
0
 71
3
 72
12
 73
8
 74
0
 42
0.0000001
 43
0.0000001
 44
0.0000000001
 40
0.0
 40
0.0
 40
0.0
 40
0.0
 40
0.0534020645
 40
0.1291101735
 40
0.3469611597
 40
0.6426682016
 40
1.0
 40
1.0
 40
1.0
 40
1.0
 10
5.1021598055
 20
21.2005334171
 30
0.0
 10
5.1016290955
 20
21.2005338432
 30
0.0
 10
5.1003579088
 20
21.2002329677
 30
0.0
 10
5.09718356
 20
21.1988915637
 30
0.0
 10
5.0921653115
 20
21.195818422
 30
0.0
 10
5.0851142668
 20
21.1908095736
 30
0.0
 10
5.0799974043
 20
21.1868102392
 30
0.0
 10
5.0772277213
 20
21.1845877092
 30
0.0
  0
LINE
  5
3D3
100
AcDbEntity
  8
00_COMPONENTS
100
AcDbLine
 62
7
  6
BYLAYER
 10
5.0772277213
 20
21.1845877092
 11
5.0614208508
 21
21.1713393836
  0
SPLINE
  5
3D4
100
AcDbEntity
  8
00_COMPONENTS
100
AcDbSpline
 62
7
  6
BYLAYER
 70
0
 71
3
 72
15
 73
11
 74
0
 42
0.0000001
 43
0.0000001
 44
0.0000000001
 40
0.0
 40
0.0
 40
0.0
 40
0.0
 40
0.3586264981
 40
0.519313869
 40
0.6633876591
 40
0.787074004
 40
0.8864094775
 40
0.9578766757
 40
0.9825294625
 40
1.0
 40
1.0
 40
1.0
 40
1.0
 10
4.7039200254
 20
20.8577748789
 30
0.0
 10
4.6919488126
 20
20.8471642376
 30
0.0
 10
4.674466348
 20
20.8319624027
 30
0.0
 10
4.6516823023
 20
20.8130778145
 30
0.0
 10
4.6367213171
 20
20.8011866066
 30
0.0
 10
4.623617925
 20
20.7913527949
 30
0.0
 10
4.6127752526
 20
20.7839507449
 30
0.0
 10
4.6052234179
 20
20.7795158437
 30
0.0
 10
4.6005275675
 20
20.7776163802
 30
0.0
 10
4.5986637476
 20
20.7772
 30
0.0
 10
4.5978844643
 20
20.7772
 30
0.0
  0
SPLINE
  5
3D5
100
AcDbEntity
  8
00_COMPONENTS
100
AcDbSpline
 62
7
  6
BYLAYER
 70
0
 71
3
 72
13
 73
9
 74
0
 42
0.0000001
 43
0.0000001
 44
0.0000000001
 40
0.0
 40
0.0
 40
0.0
 40
0.0
 40
0.2555300579
 40
0.3709980985
 40
0.4827697824
 40
0.5961805835
 40
0.7171355878
 40
1.0
 40
1.0
 40
1.0
 40
1.0
 10
30.3805142788
 20
20.8159005793
 30
0.0
 10
30.380514116
 20
20.810543207
 30
0.0
 10
30.3796395305
 20
20.8026341394
 30
0.0
 10
30.3756036526
 20
20.793275174
 30
0.0
 10
30.371308385
 20
20.7874798126
 30
0.0
 10
30.3656155232
 20
20.7828570824
 30
0.0
 10
30.3557276143
 20
20.7781974039
 30
0.0
 10
30.3470840378
 20
20.7772
 30
0.0
 10
30.341153581
 20
20.7772
 30
0.0
  0
SPLINE
  5
3D6
100
AcDbEntity
  8
00_COMPONENTS
100
AcDbSpline
 62
7
  6
BYLAYER
 70
0
 71
3
 72
17
 73
13
 74
0
 42
0.0000001
 43
0.0000001
 44
0.0000000001
 40
0.0
 40
0.0
 40
0.0
 40
0.0
 40
0.2047497414
 40
0.3921016616
 40
0.5593814288
 40
0.7037371775
 40
0.8223030585
 40
0.9124009114
 40
0.9460835492
 40
0.9718963409
 40
0.9897976802
 40
1.0
 40
1.0
 40
1.0
 40
1.0
 10
4.5409852181
 20
20.823079633
 30
0.0
 10
4.5374498181
 20
20.8198091266
 30
0.0
 10
4.5306645745
 20
20.8135620532
 30
0.0
 10
4.5209307978
 20
20.8047084325
 30
0.0
 10
4.5121870182
 20
20.796878521
 30
0.0
 10
4.5045781579
 20
20.7902059939
 30
0.0
 10
4.4982514315
 20
20.7848297855
 30
0.0
 10
4.4938202147
 20
20.7812362747
 30
0.0
 10
4.4910024944
 20
20.7791350577
 30
0.0
 10
4.4894956645
 20
20.7780977448
 30
0.0
 10
4.4884086024
 20
20.7774741784
 30
0.0
 10
4.48777714
 20
20.7772
 30
0.0
 10
4.4875371599
 20
20.7772
 30
0.0
  0
SPLINE
  5
3D7
100
AcDbEntity
  8
00_COMPONENTS
100
AcDbSpline
 62
7
  6
BYLAYER
 70
0
 71
3
 72
14
 73
10
 74
0
 42
0.0000001
 43
0.0000001
 44
0.0000000001
 40
0.0
 40
0.0
 40
0.0
 40
0.0
 40
0.1060350535
 40
0.201361208
 40
0.2931776448
 40
0.3926486382
 40
0.510261833
 40
0.6513963311
 40
1.0
 40
1.0
 40
1.0
 40
1.0
 10
29.6135255681
 20
21.1825001418
 30
0.0
 10
29.6135256715
 20
21.1845001895
 30
0.0
 10
29.6138628476
 20
21.1883194193
 30
0.0
 10
29.6158557181
 20
21.193582866
 30
0.0
 10
29.6196080415
 20
21.1976799096
 30
0.0
 10
29.6250508558
 20
21.2001133027
 30
0.0
 10
29.6318515336
 20
21.2008029137
 30
0.0
 10
29.643282107
 20
21.1994245461
 30
0.0
 10
29.6520585986
 20
21.1961900661
 30
0.0
 10
29.6580684856
 20
21.1935222436
 30
0.0
  0
SPLINE
  5
3D8
100
AcDbEntity
  8
00_COMPONENTS
100
AcDbSpline
 62
7
  6
BYLAYER
 70
0
 71
3
 72
9
 73
5
 74
0
 42
0.0000001
 43
0.0000001
 44
0.0000000001
 40
0.0
 40
0.0
 40
0.0
 40
0.0
 40
0.4827590614
 40
1.0
 40
1.0
 40
1.0
 40
1.0
 10
29.6580684856
 20
21.1935222436
 30
0.0
 10
29.6644614863
 20
21.1906843548
 30
0.0
 10
29.6772519796
 20
21.1837868905
 30
0.0
 10
29.6893072099
 20
21.1757250513
 30
0.0
 10
29.6953840971
 20
21.1713393836
 30
0.0
  0
SPLINE
  5
3D9
100
AcDbEntity
  8
00_COMPONENTS
100
AcDbSpline
 62
7
  6
BYLAYER
 70
0
 71
3
 72
13
 73
9
 74
0
 42
0.0000001
 43
0.0000001
 44
0.0000000001
 40
0.0
 40
0.0
 40
0.0
 40
0.0
 40
0.2515654408
 40
0.3667640786
 40
0.4789860888
 40
0.5932477894
 40
0.7152208335
 40
1.0
 40
1.0
 40
1.0
 40
1.0
 10
29.6946744363
 20
20.8283653072
 30
0.0
 10
29.6946746472
 20
20.8214032038
 30
0.0
 10
29.693516645
 20
20.8110893347
 30
0.0
 10
29.6882743923
 20
20.7988168731
 30
0.0
 10
29.6826396146
 20
20.7911083804
 30
0.0
 10
29.6751337667
 20
20.7848946992
 30
0.0
 10
29.6620403525
 20
20.7785812546
 30
0.0
 10
29.6505413987
 20
20.7772
 30
0.0
 10
29.6426601014
 20
20.7772
 30
0.0
  0
SPLINE
  5
3DA
100
AcDbEntity
  8
00_COMPONENTS
100
AcDbSpline
 62
7
  6
BYLAYER
 70
0
 71
3
 72
14
 73
10
 74
0
 42
0.0000001
 43
0.0000001
 44
0.0000000001
 40
0.0
 40
0.0
 40
0.0
 40
0.0
 40
0.1078242075
 40
0.2065302775
 40
0.3017735157
 40
0.4031404309
 40
0.5206256538
 40
0.6598932733
 40
1.0
 40
1.0
 40
1.0
 40
1.0
 10
28.8861358801
 20
21.1772090264
 30
0.0
 10
28.8861357978
 20
21.1796209498
 30
0.0
 10
28.8865336103
 20
21.1842627565
 30
0.0
 10
28.8888031949
 20
21.1907244182
 30
0.0
 10
28.8930647047
 20
21.1959734047
 30
0.0
 10
28.8993593141
 20
21.1994359239
 30
0.0
 10
28.9073577698
 20
21.2008298619
 30
0.0
 10
28.9207595862
 20
21.1999449738
 30
0.0
 10
28.9310838836
 20
21.1964759312
 30
0.0
 10
28.9380949429
 20
21.1935221929
 30
0.0
  0
SPLINE
  5
3DB
100
AcDbEntity
  8
00_COMPONENTS
100
AcDbSpline
 62
7
  6
BYLAYER
 70
0
 71
3
 72
9
 73
5
 74
0
 42
0.0000001
 43
0.0000001
 44
0.0000000001
 40
0.0
 40
0.0
 40
0.0
 40
0.0
 40
0.4871736408
 40
1.0
 40
1.0
 40
1.0
 40
1.0
 10
28.9380949429
 20
21.1935221929
 30
0.0
 10
28.9447499458
 20
21.19071846
 30
0.0
 10
28.9579594234
 20
21.1838867962
 30
0.0
 10
28.9703741138
 20
21.1757543746
 30
0.0
 10
28.9765623666
 20
21.1713393836
 30
0.0
  0
SPLINE
  5
3DC
100
AcDbEntity
  8
00_COMPONENTS
100
AcDbSpline
 62
7
  6
BYLAYER
 70
0
 71
3
 72
14
 73
10
 74
0
 42
0.0000001
 43
0.0000001
 44
0.0000000001
 40
0.0
 40
0.0
 40
0.0
 40
0.0
 40
0.2472889155
 40
0.3620167029
 40
0.4745452374
 40
0.5895787103
 40
0.7124888313
 40
0.8482181544
 40
1.0
 40
1.0
 40
1.0
 40
1.0
 10
28.9255167846
 20
20.8423573761
 30
0.0
 10
28.9255167636
 20
20.8336478066
 30
0.0
 10
28.9240391462
 20
20.8206990285
 30
0.0
 10
28.917468651
 20
20.8052139184
 30
0.0
 10
28.9103529467
 20
20.795340615
 30
0.0
 10
28.9008218723
 20
20.7873016025
 30
0.0
 10
28.8889203397
 20
20.78141566
 30
0.0
 10
28.8748098046
 20
20.7778874758
 30
0.0
 10
28.8646571307
 20
20.7772
 30
0.0
 10
28.859311341
 20
20.7772
 30
0.0
  0
SPLINE
  5
3DD
100
AcDbEntity
  8
00_COMPONENTS
100
AcDbSpline
 62
7
  6
BYLAYER
 70
0
 71
3
 72
17
 73
13
 74
0
 42
0.0000001
 43
0.0000001
 44
0.0000000001
 40
0.0
 40
0.0
 40
0.0
 40
0.0
 40
0.0102023141
 40
0.0281037001
 40
0.0539165474
 40
0.0875992935
 40
0.1776974813
 40
0.2962633319
 40
0.440619051
 40
0.607898811
 40
0.7952506461
 40
1.0
 40
1.0
 40
1.0
 40
1.0
 10
32.4985587126
 20
20.7772
 30
0.0
 10
32.4983187292
 20
20.7772
 30
0.0
 10
32.4976872575
 20
20.7774741858
 30
0.0
 10
32.4966001792
 20
20.7780977638
 30
0.0
 10
32.4950933243
 20
20.7791350963
 30
0.0
 10
32.4922755562
 20
20.7812363536
 30
0.0
 10
32.4878442714
 20
20.784829927
 30
0.0
 10
32.481517451
 20
20.7902062202
 30
0.0
 10
32.4739084862
 20
20.7968788477
 30
0.0
 10
32.4651645855
 20
20.8047088741
 30
0.0
 10
32.4554306798
 20
20.813562619
 30
0.0
 10
32.4486453483
 20
20.8198097775
 30
0.0
 10
32.445109905
 20
20.8230803262
 30
0.0
  0
SPLINE
  5
3DE
100
AcDbEntity
  8
00_COMPONENTS
100
AcDbSpline
 62
7
  6
BYLAYER
 70
0
 71
3
 72
15
 73
11
 74
0
 42
0.0000001
 43
0.0000001
 44
0.0000000001
 40
0.0
 40
0.0
 40
0.0
 40
0.0
 40
0.0174705633
 40
0.0421234006
 40
0.1135907894
 40
0.2129261971
 40
0.3366124914
 40
0.4806863035
 40
0.6413735333
 40
1.0
 40
1.0
 40
1.0
 40
1.0
 10
32.3882114082
 20
20.7772
 30
0.0
 10
32.3874321238
 20
20.7772
 30
0.0
 10
32.3855683009
 20
20.7776163836
 30
0.0
 10
32.3808724397
 20
20.7795158508
 30
0.0
 10
32.3733206001
 20
20.7839507602
 30
0.0
 10
32.3624779236
 20
20.7913528095
 30
0.0
 10
32.3493745375
 20
20.8011866223
 30
0.0
 10
32.3344135576
 20
20.8130778244
 30
0.0
 10
32.3116295175
 20
20.8319624088
 30
0.0
 10
32.2941470588
 20
20.8471642386
 30
0.0
 10
32.2821758471
 20
20.8577748789
 30
0.0
  0
SPLINE
  5
3DF
100
AcDbEntity
  8
00_COMPONENTS
100
AcDbSpline
 62
7
  6
BYLAYER
 70
0
 71
3
 72
15
 73
11
 74
0
 42
0.0000001
 43
0.0000001
 44
0.0000000001
 40
0.0
 40
0.0
 40
0.0
 40
0.0
 40
0.0401950856
 40
0.084215333
 40
0.1585562263
 40
0.2677643425
 40
0.4104186712
 40
0.5827424951
 40
0.780594653
 40
1.0
 40
1.0
 40
1.0
 40
1.0
 10
31.8824337507
 20
21.1990173557
 30
0.0
 10
31.8824343578
 20
21.1994492814
 30
0.0
 10
31.8827435728
 20
21.2005037396
 30
0.0
 10
31.8847014259
 20
21.2006050091
 30
0.0
 10
31.8869375214
 20
21.1997674699
 30
0.0
 10
31.890099312
 20
21.1981733278
 30
0.0
 10
31.8939495377
 20
21.1957477083
 30
0.0
 10
31.8984794791
 20
21.1926009665
 30
0.0
 10
31.9035502499
 20
21.1888032344
 30
0.0
 10
31.9070731726
 20
21.1860285556
 30
0.0
 10
31.9089117747
 20
21.1845526935
 30
0.0
  0
LINE
  5
3E0
100
AcDbEntity
  8
00_COMPONENTS
100
AcDbLine
 62
7
  6
BYLAYER
 10
31.9089117747
 20
21.1845526935
 11
31.9246750218
 21
21.1713393836
  0
SPLINE
  5
3E1
100
AcDbEntity
  8
00_COMPONENTS
100
AcDbSpline
 62
7
  6
BYLAYER
 70
0
 71
3
 72
14
 73
10
 74
0
 42
0.0000001
 43
0.0000001
 44
0.0000000001
 40
0.0
 40
0.0
 40
0.0
 40
0.0
 40
0.054421979
 40
0.1339988507
 40
0.2374349305
 40
0.3616710558
 40
0.5031804166
 40
0.6585999594
 40
1.0
 40
1.0
 40
1.0
 40
1.0
 10
32.1721135196
 20
20.7772
 30
0.0
 10
32.1694595119
 20
20.7772
 30
0.0
 10
32.1630132751
 20
20.7789375352
 30
0.0
 10
32.1524996663
 20
20.7837285829
 30
0.0
 10
32.1394795778
 20
20.7912106489
 30
0.0
 10
32.1244117925
 20
20.8010630678
 30
0.0
 10
32.1076765692
 20
20.8129813461
 30
0.0
 10
32.0828609488
 20
20.831779174
 30
0.0
 10
32.064062893
 20
20.8470784677
 30
0.0
 10
32.0513043605
 20
20.8577748789
 30
0.0
  0
SPLINE
  5
3E2
100
AcDbEntity
  8
00_COMPONENTS
100
AcDbSpline
 62
7
  6
BYLAYER
 70
0
 71
3
 72
13
 73
9
 74
0
 42
0.0000001
 43
0.0000001
 44
0.0000000001
 40
0.0
 40
0.0
 40
0.0
 40
0.0
 40
0.0649315054
 40
0.1515364068
 40
0.2585876006
 40
0.3833529464
 40
0.6734983577
 40
1.0
 40
1.0
 40
1.0
 40
1.0
 10
31.8519096823
 20
20.7772
 30
0.0
 10
31.848481091
 20
20.7772
 30
0.0
 10
31.8405195033
 20
20.7787623897
 30
0.0
 10
31.8277360756
 20
20.7835831295
 30
0.0
 10
31.8126545132
 20
20.7910780423
 30
0.0
 10
31.7888434032
 20
20.8049770211
 30
0.0
 10
31.7565175865
 20
20.8271393535
 30
0.0
 10
31.7307015029
 20
20.8469958227
 30
0.0
 10
31.7172463559
 20
20.8577748789
 30
0.0
  0
SPLINE
  5
3E3
100
AcDbEntity
  8
00_COMPONENTS
100
AcDbSpline
 62
7
  6
BYLAYER
 70
0
 71
3
 72
14
 73
10
 74
0
 42
0.0000001
 43
0.0000001
 44
0.0000000001
 40
0.0
 40
0.0
 40
0.0
 40
0.0
 40
0.0664855823
 40
0.1232519923
 40
0.1946253001
 40
0.2950716393
 40
0.4278408723
 40
0.591913402
 40
1.0
 40
1.0
 40
1.0
 40
1.0
 10
31.6238176006
 20
21.1971330367
 30
0.0
 10
31.6238171751
 20
21.197801222
 30
0.0
 10
31.623972025
 20
21.1991157404
 30
0.0
 10
31.6255703768
 20
21.200510588
 30
0.0
 10
31.6279667172
 20
21.2006138951
 30
0.0
 10
31.6309438082
 20
21.1999105585
 30
0.0
 10
31.6346618047
 20
21.1984087452
 30
0.0
 10
31.6409533473
 20
21.195147506
 30
0.0
 10
31.6457979854
 20
21.1920248487
 30
0.0
 10
31.6491859027
 20
21.1897134202
 30
0.0
  0
SPLINE
  5
3E4
100
AcDbEntity
  8
00_COMPONENTS
100
AcDbSpline
 62
7
  6
BYLAYER
 70
0
 71
3
 72
9
 73
5
 74
0
 42
0.0000001
 43
0.0000001
 44
0.0000000001
 40
0.0
 40
0.0
 40
0.0
 40
0.0
 40
0.2290689795
 40
1.0
 40
1.0
 40
1.0
 40
1.0
 10
31.6491859027
 20
21.1897134202
 30
0.0
 10
31.6511008285
 20
21.1884069497
 30
0.0
 10
31.6593624766
 20
21.1825600363
 30
0.0
 10
31.667315895
 20
21.1762887557
 30
0.0
 10
31.6733466923
 20
21.1713393836
 30
0.0
  0
SPLINE
  5
3E5
100
AcDbEntity
  8
00_COMPONENTS
100
AcDbSpline
 62
7
  6
BYLAYER
 70
0
 71
3
 72
13
 73
9
 74
0
 42
0.0000001
 43
0.0000001
 44
0.0000000001
 40
0.0
 40
0.0
 40
0.0
 40
0.0
 40
0.0738525676
 40
0.1665297633
 40
0.2767540039
 40
0.4020233338
 40
0.6863785329
 40
1.0
 40
1.0
 40
1.0
 40
1.0
 10
31.4300368409
 20
20.7772
 30
0.0
 10
31.4258548178
 20
20.7772
 30
0.0
 10
31.4164420808
 20
20.7786498629
 30
0.0
 10
31.4015037628
 20
20.7834657825
 30
0.0
 10
31.384471995
 20
20.7909681029
 30
0.0
 10
31.3584498951
 20
20.8047640714
 30
0.0
 10
31.3238944904
 20
20.8268556098
 30
0.0
 10
31.2965974415
 20
20.84691667
 30
0.0
 10
31.2825442162
 20
20.8577748789
 30
0.0
  0
SPLINE
  5
3E6
100
AcDbEntity
  8
00_COMPONENTS
100
AcDbSpline
 62
7
  6
BYLAYER
 70
0
 71
3
 72
11
 73
7
 74
0
 42
0.0000001
 43
0.0000001
 44
0.0000000001
 40
0.0
 40
0.0
 40
0.0
 40
0.0
 40
0.2666058972
 40
0.4922193331
 40
0.7213250345
 40
1.0
 40
1.0
 40
1.0
 40
1.0
 10
31.8893312001
 20
20.7885187193
 30
0.0
 10
31.889331451
 20
20.7868837336
 30
0.0
 10
31.8890200145
 20
20.783823567
 30
0.0
 10
31.8867557732
 20
20.779814157
 30
0.0
 10
31.8826756439
 20
20.7775179985
 30
0.0
 10
31.8795182857
 20
20.7772
 30
0.0
 10
31.8778092854
 20
20.7772
 30
0.0
  0
SPLINE
  5
3E7
100
AcDbEntity
  8
00_COMPONENTS
100
AcDbSpline
 62
7
  6
BYLAYER
 70
0
 71
3
 72
13
 73
9
 74
0
 42
0.0000001
 43
0.0000001
 44
0.0000000001
 40
0.0
 40
0.0
 40
0.0
 40
0.0
 40
0.0815348331
 40
0.179492905
 40
0.2925084956
 40
0.4182474731
 40
0.6975926655
 40
1.0
 40
1.0
 40
1.0
 40
1.0
 10
30.9097057022
 20
20.7772
 30
0.0
 10
30.9047994038
 20
20.7772
 30
0.0
 10
30.8940039493
 20
20.778571465
 30
0.0
 10
30.8770363503
 20
20.7833714187
 30
0.0
 10
30.8581840964
 20
20.7908749631
 30
0.0
 10
30.8301569008
 20
20.804575059
 30
0.0
 10
30.7936331468
 20
20.8265899006
 30
0.0
 10
30.7650523659
 20
20.8468411035
 30
0.0
 10
30.7505062874
 20
20.8577748789
 30
0.0
  0
SPLINE
  5
3E8
100
AcDbEntity
  8
00_COMPONENTS
100
AcDbSpline
 62
7
  6
BYLAYER
 70
0
 71
3
 72
13
 73
9
 74
0
 42
0.0000001
 43
0.0000001
 44
0.0000000001
 40
0.0
 40
0.0
 40
0.0
 40
0.0
 40
0.0882510904
 40
0.1908477582
 40
0.3063322646
 40
0.4325001813
 40
0.7074537294
 40
1.0
 40
1.0
 40
1.0
 40
1.0
 10
30.2948763006
 20
20.7772
 30
0.0
 10
30.28928143
 20
20.7772
 30
0.0
 10
30.2771808901
 20
20.7785134354
 30
0.0
 10
30.2583203088
 20
20.7832943159
 30
0.0
 10
30.2377923479
 20
20.7907950109
 30
0.0
 10
30.207977498
 20
20.8044066459
 30
0.0
 10
30.1697619962
 20
20.8263412665
 30
0.0
 10
30.1401098262
 20
20.8467690728
 30
0.0
 10
30.1251816993
 20
20.8577748789
 30
0.0
  0
SPLINE
  5
3E9
100
AcDbEntity
  8
00_COMPONENTS
100
AcDbSpline
 62
7
  6
BYLAYER
 70
0
 71
3
 72
19
 73
15
 74
0
 42
0.0000001
 43
0.0000001
 44
0.0000000001
 40
0.0
 40
0.0
 40
0.0
 40
0.0
 40
0.0094111885
 40
0.0201637312
 40
0.038790764
 40
0.0665289046
 40
0.1034850356
 40
0.149514823
 40
0.2042420398
 40
0.2671392048
 40
0.4152423453
 40
0.5895009323
 40
0.7857327313
 40
1.0
 40
1.0
 40
1.0
 40
1.0
 10
32.0383969647
 20
21.2001518589
 30
0.0
 10
32.0383968607
 20
21.200264851
 30
0.0
 10
32.0384883688
 20
21.2005482882
 30
0.0
 10
32.0390287878
 20
21.2005361713
 30
0.0
 10
32.0396443292
 20
21.2002908674
 30
0.0
 10
32.0405416751
 20
21.1998196002
 30
0.0
 10
32.0416583774
 20
21.1991054478
 30
0.0
 10
32.0430141181
 20
21.1981555578
 30
0.0
 10
32.0445861248
 20
21.196977355
 30
0.0
 10
32.0470972832
 20
21.1950088234
 30
0.0
 10
32.0506637937
 20
21.1920626979
 30
0.0
 10
32.0553844364
 20
21.188002446
 30
0.0
 10
32.0606420957
 20
21.1833495452
 30
0.0
 10
32.064298518
 20
21.1800447635
 30
0.0
 10
32.0662001635
 20
21.1783122428
 30
0.0
  0
SPLINE
  5
3EA
100
AcDbEntity
  8
00_COMPONENTS
100
AcDbSpline
 62
7
  6
BYLAYER
 70
0
 71
3
 72
12
 73
8
 74
0
 42
0.0000001
 43
0.0000001
 44
0.0000000001
 40
0.0
 40
0.0
 40
0.0
 40
0.0
 40
0.0942289393
 40
0.2009674739
 40
0.4450553872
 40
0.7161595456
 40
1.0
 40
1.0
 40
1.0
 40
1.0
 10
29.5902278591
 20
20.7772
 30
0.0
 10
29.5839859001
 20
20.7772
 30
0.0
 10
29.5706674343
 20
20.7784664563
 30
0.0
 10
29.5418931742
 20
20.785130479
 30
0.0
 10
29.5034502614
 20
20.8005265776
 30
0.0
 10
29.4570301636
 20
20.8260962161
 30
0.0
 10
29.4265244118
 20
20.8467004703
 30
0.0
 10
29.4113295496
 20
20.8577748789
 30
0.0
  0
SPLINE
  5
3EB
100
AcDbEntity
  8
00_COMPONENTS
100
AcDbSpline
 62
7
  6
BYLAYER
 70
0
 71
3
 72
14
 73
10
 74
0
 42
0.0000001
 43
0.0000001
 44
0.0000000001
 40
0.0
 40
0.0
 40
0.0
 40
0.0
 40
0.0891997147
 40
0.1646983054
 40
0.2421689994
 40
0.3378841427
 40
0.4608700473
 40
0.6132725565
 40
1.0
 40
1.0
 40
1.0
 40
1.0
 10
31.2645135263
 20
21.1945166429
 30
0.0
 10
31.2645140951
 20
21.195410878
 30
0.0
 10
31.2646846338
 20
21.1970856857
 30
0.0
 10
31.2659615348
 20
21.1992767834
 30
0.0
 10
31.2682800099
 20
21.200462129
 30
0.0
 10
31.2712903904
 20
21.200636937
 30
0.0
 10
31.2749712413
 20
21.1999819474
 30
0.0
 10
31.2812823995
 20
21.1978795233
 30
0.0
 10
31.286121379
 20
21.1954119003
 30
0.0
 10
31.2895066707
 20
21.1935222552
 30
0.0
  0
SPLINE
  5
3EC
100
AcDbEntity
  8
00_COMPONENTS
100
AcDbSpline
 62
7
  6
BYLAYER
 70
0
 71
3
 72
9
 73
5
 74
0
 42
0.0000001
 43
0.0000001
 44
0.0000000001
 40
0.0
 40
0.0
 40
0.0
 40
0.0
 40
0.4672324187
 40
1.0
 40
1.0
 40
1.0
 40
1.0
 10
31.2895066707
 20
21.1935222552
 30
0.0
 10
31.2948279899
 20
21.1905519337
 30
0.0
 10
31.3057913405
 20
21.1834404498
 30
0.0
 10
31.3162402128
 20
21.1756275158
 30
0.0
 10
31.3217083308
 20
21.1713393836
 30
0.0
  0
SPLINE
  5
3ED
100
AcDbEntity
  8
00_COMPONENTS
100
AcDbSpline
 62
7
  6
BYLAYER
 70
0
 71
3
 72
11
 73
7
 74
0
 42
0.0000001
 43
0.0000001
 44
0.0000000001
 40
0.0
 40
0.0
 40
0.0
 40
0.0
 40
0.2096972008
 40
0.4562056043
 40
0.72390733
 40
1.0
 40
1.0
 40
1.0
 40
1.0
 10
28.8011231776
 20
20.7772
 30
0.0
 10
28.7867224673
 20
20.7772
 30
0.0
 10
28.7554416877
 20
20.7826297946
 30
0.0
 10
28.7088191452
 20
20.8002573092
 30
0.0
 10
28.6608350218
 20
20.825884439
 30
0.0
 10
28.6297254973
 20
20.8466351916
 30
0.0
 10
28.6143826841
 20
20.8577748789
 30
0.0
  0
SPLINE
  5
3EE
100
AcDbEntity
  8
00_COMPONENTS
100
AcDbSpline
 62
7
  6
BYLAYER
 70
0
 71
3
 72
14
 73
10
 74
0
 42
0.0000001
 43
0.0000001
 44
0.0000000001
 40
0.0
 40
0.0
 40
0.0
 40
0.0
 40
0.2432660075
 40
0.3576249214
 40
0.4705845205
 40
0.5865308114
 40
0.7105665065
 40
0.8473945652
 40
1.0
 40
1.0
 40
1.0
 40
1.0
 10
28.0788947611
 20
20.8577748789
 30
0.0
 10
28.0788947611
 20
20.8472005105
 30
0.0
 10
28.0770536843
 20
20.8314227341
 30
0.0
 10
28.0690523753
 20
20.8124591994
 30
0.0
 10
28.0603182908
 20
20.8001923059
 30
0.0
 10
28.0485701331
 20
20.7900908429
 30
0.0
 10
28.0338332529
 20
20.7826122734
 30
0.0
 10
28.016318625
 20
20.7780893234
 30
0.0
 10
28.003702561
 20
20.7772
 30
0.0
 10
27.9970690568
 20
20.7772
 30
0.0
  0
SPLINE
  5
3EF
100
AcDbEntity
  8
00_COMPONENTS
100
AcDbSpline
 62
7
  6
BYLAYER
 70
0
 71
3
 72
11
 73
7
 74
0
 42
0.0000001
 43
0.0000001
 44
0.0000000001
 40
0.0
 40
0.0
 40
0.0
 40
0.0
 40
0.2179759823
 40
0.4665654464
 40
0.7310464264
 40
1.0
 40
1.0
 40
1.0
 40
1.0
 10
27.9335678194
 20
20.7772
 30
0.0
 10
27.9181541671
 20
20.7772
 30
0.0
 10
27.885175713
 20
20.7824207908
 30
0.0
 10
27.8364006519
 20
20.8000288771
 30
0.0
 10
27.7872561662
 20
20.8256793882
 30
0.0
 10
27.7557758624
 20
20.8465731806
 30
0.0
 10
27.7404063498
 20
20.8577748789
 30
0.0
  0
SPLINE
  5
3F0
100
AcDbEntity
  8
00_COMPONENTS
100
AcDbSpline
 62
7
  6
BYLAYER
 70
0
 71
3
 72
13
 73
9
 74
0
 42
0.0000001
 43
0.0000001
 44
0.0000000001
 40
0.0
 40
0.0
 40
0.0
 40
0.0
 40
0.2320631959
 40
0.3451023901
 40
0.4594641713
 40
0.5787753793
 40
0.7068668096
 40
1.0
 40
1.0
 40
1.0
 40
1.0
 10
27.1602852723
 20
20.8577748789
 30
0.0
 10
27.1589917702
 20
20.8469993367
 30
0.0
 10
27.154942144
 20
20.8310036135
 30
0.0
 10
27.1441245494
 20
20.8123010848
 30
0.0
 10
27.1332563588
 20
20.8001030183
 30
0.0
 10
27.1194639027
 20
20.7900804427
 30
0.0
 10
27.0962434627
 20
20.7797098521
 30
0.0
 10
27.0762043948
 20
20.7772
 30
0.0
 10
27.0624954331
 20
20.7772
 30
0.0
  0
SPLINE
  5
3F1
100
AcDbEntity
  8
00_COMPONENTS
100
AcDbSpline
 62
7
  6
BYLAYER
 70
0
 71
3
 72
11
 73
7
 74
0
 42
0.0000001
 43
0.0000001
 44
0.0000000001
 40
0.0
 40
0.0
 40
0.0
 40
0.0
 40
0.225597193
 40
0.476070313
 40
0.7375719865
 40
1.0
 40
1.0
 40
1.0
 40
1.0
 10
26.9941644045
 20
20.7772
 30
0.0
 10
26.9778519114
 20
20.7772
 30
0.0
 10
26.9434147675
 20
20.7822382583
 30
0.0
 10
26.8928625867
 20
20.7998172872
 30
0.0
 10
26.842928198
 20
20.8254863342
 30
0.0
 10
26.8113255009
 20
20.84651447
 30
0.0
 10
26.7960520342
 20
20.8577748789
 30
0.0
  0
SPLINE
  5
3F2
100
AcDbEntity
  8
00_COMPONENTS
100
AcDbSpline
 62
7
  6
BYLAYER
 70
0
 71
3
 72
11
 73
7
 74
0
 42
0.0000001
 43
0.0000001
 44
0.0000000001
 40
0.0
 40
0.0
 40
0.0
 40
0.0
 40
0.2250796044
 40
0.4530464072
 40
0.7050062065
 40
1.0
 40
1.0
 40
1.0
 40
1.0
 10
26.175712874
 20
20.8577748789
 30
0.0
 10
26.1730880665
 20
20.8468001138
 30
0.0
 10
26.1647667003
 20
20.8252061111
 30
0.0
 10
26.1408441209
 20
20.7980589418
 30
0.0
 10
26.1051978332
 20
20.7804772041
 30
0.0
 10
26.0774925471
 20
20.7772
 30
0.0
 10
26.0627031396
 20
20.7772
 30
0.0
  0
SPLINE
  5
3F3
100
AcDbEntity
  8
00_COMPONENTS
100
AcDbSpline
 62
7
  6
BYLAYER
 70
0
 71
3
 72
11
 73
7
 74
0
 42
0.0000001
 43
0.0000001
 44
0.0000000001
 40
0.0
 40
0.0
 40
0.0
 40
0.0
 40
0.2326885627
 40
0.4848707614
 40
0.7435819771
 40
1.0
 40
1.0
 40
1.0
 40
1.0
 10
25.9900623602
 20
20.7772
 30
0.0
 10
25.9729724728
 20
20.7772
 30
0.0
 10
25.9373258751
 20
20.7820757976
 30
0.0
 10
25.8853824376
 20
20.7996199869
 30
0.0
 10
25.835034433
 20
20.8253042957
 30
0.0
 10
25.8035609698
 20
20.8464592222
 30
0.0
 10
25.788506844
 20
20.8577748789
 30
0.0
  0
SPLINE
  5
3F4
100
AcDbEntity
  8
00_COMPONENTS
100
AcDbSpline
 62
7
  6
BYLAYER
 70
0
 71
3
 72
11
 73
7
 74
0
 42
0.0000001
 43
0.0000001
 44
0.0000000001
 40
0.0
 40
0.0
 40
0.0
 40
0.0
 40
0.2207637577
 40
0.4505869244
 40
0.7061181238
 40
1.0
 40
1.0
 40
1.0
 40
1.0
 10
25.1326707566
 20
20.8577748789
 30
0.0
 10
25.1286952834
 20
20.8466226775
 30
0.0
 10
25.1174055244
 20
20.8247849438
 30
0.0
 10
25.0895929479
 20
20.7980296625
 30
0.0
 10
25.0507722035
 20
20.7806186673
 30
0.0
 10
25.0210621291
 20
20.7772
 30
0.0
 10
25.0053011993
 20
20.7772
 30
0.0
  0
SPLINE
  5
3F5
100
AcDbEntity
  8
00_COMPONENTS
100
AcDbSpline
 62
7
  6
BYLAYER
 70
0
 71
3
 72
11
 73
7
 74
0
 42
0.0000001
 43
0.0000001
 44
0.0000000001
 40
0.0
 40
0.0
 40
0.0
 40
0.0
 40
0.2393518353
 40
0.4930848443
 40
0.7491512444
 40
1.0
 40
1.0
 40
1.0
 40
1.0
 10
24.9289035093
 20
20.7772
 30
0.0
 10
24.9111639447
 20
20.7772
 30
0.0
 10
24.8745657802
 20
20.7819286697
 30
0.0
 10
24.8216247327
 20
20.7994347565
 30
0.0
 10
24.7712419421
 20
20.8251327005
 30
0.0
 10
24.7401506651
 20
20.8464077776
 30
0.0
 10
24.7254388064
 20
20.8577748789
 30
0.0
  0
SPLINE
  5
3F6
100
AcDbEntity
  8
00_COMPONENTS
100
AcDbSpline
 62
7
  6
BYLAYER
 70
0
 71
3
 72
11
 73
7
 74
0
 42
0.0000001
 43
0.0000001
 44
0.0000000001
 40
0.0
 40
0.0
 40
0.0
 40
0.0
 40
0.218887623
 40
0.4509124375
 40
0.7087362252
 40
1.0
 40
1.0
 40
1.0
 40
1.0
 10
24.0390971004
 20
20.8577748789
 30
0.0
 10
24.0337758578
 20
20.8464787569
 30
0.0
 10
24.0196452535
 20
20.8245187255
 30
0.0
 10
23.9882510741
 20
20.7980681369
 30
0.0
 10
23.9464910987
 20
20.7807478701
 30
0.0
 10
23.9149525786
 20
20.7772
 30
0.0
 10
23.8983370795
 20
20.7772
 30
0.0
  0
SPLINE
  5
3F7
100
AcDbEntity
  8
00_COMPONENTS
100
AcDbSpline
 62
7
  6
BYLAYER
 70
0
 71
3
 72
10
 73
6
 74
0
 42
0.0000001
 43
0.0000001
 44
0.0000000001
 40
0.0
 40
0.0
 40
0.0
 40
0.0
 40
0.4996034966
 40
0.7537440285
 40
1.0
 40
1.0
 40
1.0
 40
1.0
 10
23.8187639114
 20
20.7772
 30
0.0
 10
23.7817258995
 20
20.7772
 30
0.0
 10
23.7256190321
 20
20.7910344366
 30
0.0
 10
23.659682285
 20
20.8249584341
 30
0.0
 10
23.6291864419
 20
20.8463607154
 30
0.0
 10
23.614938511
 20
20.8577748789
 30
0.0
  0
SPLINE
  5
3F8
100
AcDbEntity
  8
00_COMPONENTS
100
AcDbSpline
 62
7
  6
BYLAYER
 70
0
 71
3
 72
15
 73
11
 74
0
 42
0.0000001
 43
0.0000001
 44
0.0000000001
 40
0.0
 40
0.0
 40
0.0
 40
0.0
 40
0.093404065
 40
0.1794631162
 40
0.2691742326
 40
0.3772686904
 40
0.5104099641
 40
0.6641106114
 40
0.8297167104
 40
1.0
 40
1.0
 40
1.0
 40
1.0
 10
28.0788947611
 20
21.1713393836
 30
0.0
 10
28.0788947611
 20
21.175182501
 30
0.0
 10
28.0797126723
 20
21.1826394423
 30
0.0
 10
28.0849966372
 20
21.1927982746
 30
0.0
 10
28.0951709782
 20
21.1994781515
 30
0.0
 10
28.1089955726
 20
21.2012470807
 30
0.0
 10
28.1251624754
 20
21.198630559
 30
0.0
 10
28.1427356239
 20
21.1922577463
 30
0.0
 10
28.1606489913
 20
21.1829571992
 30
0.0
 10
28.1722439023
 20
21.175398275
 30
0.0
 10
28.1779547611
 20
21.1713393836
 30
0.0
  0
SPLINE
  5
3F9
100
AcDbEntity
  8
00_COMPONENTS
100
AcDbSpline
 62
7
  6
BYLAYER
 70
0
 71
3
 72
11
 73
7
 74
0
 42
0.0000001
 43
0.0000001
 44
0.0000000001
 40
0.0
 40
0.0
 40
0.0
 40
0.0
 40
0.2187992313
 40
0.4531750571
 40
0.7123453181
 40
1.0
 40
1.0
 40
1.0
 40
1.0
 10
22.9033146613
 20
20.8577748789
 30
0.0
 10
22.8966772585
 20
20.8463719106
 30
0.0
 10
22.8798749548
 20
20.8243725807
 30
0.0
 10
22.8451825353
 20
20.7981468082
 30
0.0
 10
22.8007472443
 20
20.7808689637
 30
0.0
 10
22.7675816152
 20
20.7772
 30
0.0
 10
22.7502354455
 20
20.7772
 30
0.0
  0
SPLINE
  5
3FA
100
AcDbEntity
  8
00_COMPONENTS
100
AcDbSpline
 62
7
  6
BYLAYER
 70
0
 71
3
 72
15
 73
11
 74
0
 42
0.0000001
 43
0.0000001
 44
0.0000000001
 40
0.0
 40
0.0
 40
0.0
 40
0.0
 40
0.0914893041
 40
0.1800744893
 40
0.2756354106
 40
0.3892049242
 40
0.524531932
 40
0.6764942309
 40
0.8370885688
 40
1.0
 40
1.0
 40
1.0
 40
1.0
 10
27.1983224721
 20
21.1713393836
 30
0.0
 10
27.1988027437
 20
21.1752558723
 30
0.0
 10
27.2007158687
 20
21.1829290499
 30
0.0
 10
27.2077461663
 20
21.1929343045
 30
0.0
 10
27.2192957756
 20
21.1994141648
 30
0.0
 10
27.2343097847
 20
21.2012584078
 30
0.0
 10
27.251546385
 20
21.1986976018
 30
0.0
 10
27.2698709939
 20
21.1923364843
 30
0.0
 10
27.2881947711
 20
21.1830286205
 30
0.0
 10
27.2999194623
 20
21.1754200902
 30
0.0
 10
27.3056391668
 20
21.1713393836
 30
0.0
  0
SPLINE
  5
3FB
100
AcDbEntity
  8
00_COMPONENTS
100
AcDbSpline
 62
7
  6
BYLAYER
 70
0
 71
3
 72
14
 73
10
 74
0
 42
0.0000001
 43
0.0000001
 44
0.0000000001
 40
0.0
 40
0.0
 40
0.0
 40
0.0
 40
0.0913186174
 40
0.1832881481
 40
0.2843214998
 40
0.4024625009
 40
0.5392440207
 40
0.6891063459
 40
1.0
 40
1.0
 40
1.0
 40
1.0
 10
26.2514977875
 20
21.1713393836
 30
0.0
 10
26.2524725246
 20
21.1753289276
 30
0.0
 10
26.2555054204
 20
21.1831550114
 30
0.0
 10
26.2641301042
 20
21.1929963968
 30
0.0
 10
26.2769675223
 20
21.1993579009
 30
0.0
 10
26.2931025933
 20
21.2012662285
 30
0.0
 10
26.3112786976
 20
21.1987573705
 30
0.0
 10
26.3368519113
 20
21.1901770256
 30
0.0
 10
26.3549167732
 20
21.1795217313
 30
0.0
 10
26.366254432
 20
21.1713393836
 30
0.0
  0
SPLINE
  5
3FC
100
AcDbEntity
  8
00_COMPONENTS
100
AcDbSpline
 62
7
  6
BYLAYER
 70
0
 71
3
 72
9
 73
5
 74
0
 42
0.0000001
 43
0.0000001
 44
0.0000000001
 40
0.0
 40
0.0
 40
0.0
 40
0.0
 40
0.5075647723
 40
1.0
 40
1.0
 40
1.0
 40
1.0
 10
22.6680923991
 20
20.7772
 30
0.0
 10
22.6306565888
 20
20.7772
 30
0.0
 10
22.5566441228
 20
20.7947023944
 30
0.0
 10
22.4932901619
 20
20.8344407519
 30
0.0
 10
22.4654575357
 20
20.8577748789
 30
0.0
  0
SPLINE
  5
3FD
100
AcDbEntity
  8
00_COMPONENTS
100
AcDbSpline
 62
7
  6
BYLAYER
 70
0
 71
3
 72
14
 73
10
 74
0
 42
0.0000001
 43
0.0000001
 44
0.0000000001
 40
0.0
 40
0.0
 40
0.0
 40
0.0
 40
0.0924492553
 40
0.1882479675
 40
0.2942763847
 40
0.4161613827
 40
0.5537157691
 40
0.7011050866
 40
1.0
 40
1.0
 40
1.0
 40
1.0
 10
25.2456266149
 20
21.1713393836
 30
0.0
 10
25.2471031846
 20
21.1753941304
 30
0.0
 10
25.2512383227
 20
21.1833139286
 30
0.0
 10
25.2613254633
 20
21.1930135305
 30
0.0
 10
25.2753713194
 20
21.199307998
 30
0.0
 10
25.292535363
 20
21.2012717617
 30
0.0
 10
25.3115121504
 20
21.1988102354
 30
0.0
 10
25.3375176592
 20
21.1903188792
 30
0.0
 10
25.3557125796
 20
21.1796078077
 30
0.0
 10
25.3669498419
 20
21.1713393836
 30
0.0
  0
SPLINE
  5
3FE
100
AcDbEntity
  8
00_COMPONENTS
100
AcDbSpline
 62
7
  6
BYLAYER
 70
0
 71
3
 72
11
 73
7
 74
0
 42
0.0000001
 43
0.0000001
 44
0.0000000001
 40
0.0
 40
0.0
 40
0.0
 40
0.0
 40
0.2200056739
 40
0.4567807686
 40
0.7166038234
 40
1.0
 40
1.0
 40
1.0
 40
1.0
 10
21.7339674294
 20
20.8577748789
 30
0.0
 10
21.7260651859
 20
20.8462999921
 30
0.0
 10
21.7067829381
 20
20.8243146195
 30
0.0
 10
21.6690703383
 20
20.798250079
 30
0.0
 10
21.6222530168
 20
20.780984756
 30
0.0
 10
21.5876811136
 20
20.7772
 30
0.0
 10
21.569734044
 20
20.7772
 30
0.0
  0
SPLINE
  5
3FF
100
AcDbEntity
  8
00_COMPONENTS
100
AcDbSpline
 62
7
  6
BYLAYER
 70
0
 71
3
 72
14
 73
10
 74
0
 42
0.0000001
 43
0.0000001
 44
0.0000000001
 40
0.0
 40
0.0
 40
0.0
 40
0.0
 40
0.0946144357
 40
0.1945221327
 40
0.3051523539
 40
0.4301634313
 40
0.5680129428
 40
0.7127234213
 40
1.0
 40
1.0
 40
1.0
 40
1.0
 10
24.1883642412
 20
21.1713393836
 30
0.0
 10
24.1903409383
 20
21.1754470433
 30
0.0
 10
24.1955328779
 20
21.1834151934
 30
0.0
 10
24.2069684713
 20
21.1930042446
 30
0.0
 10
24.2221376794
 20
21.1992625808
 30
0.0
 10
24.2402213409
 20
21.2012756743
 30
0.0
 10
24.259858183
 20
21.1988583892
 30
0.0
 10
24.2861085145
 20
21.1904512286
 30
0.0
 10
24.3042916161
 20
21.1796887501
 30
0.0
 10
24.3153307076
 20
21.1713393836
 30
0.0
  0
SPLINE
  5
400
100
AcDbEntity
  8
00_COMPONENTS
100
AcDbSpline
 62
7
  6
BYLAYER
 70
0
 71
3
 72
14
 73
10
 74
0
 42
0.0000001
 43
0.0000001
 44
0.0000000001
 40
0.0
 40
0.0
 40
0.0
 40
0.0
 40
0.0975657778
 40
0.2017390278
 40
0.3166309722
 40
0.444272715
 40
0.5820409919
 40
0.7239273139
 40
1.0
 40
1.0
 40
1.0
 40
1.0
 10
23.0877570715
 20
21.1713393836
 30
0.0
 10
23.0902229544
 20
21.1754863469
 30
0.0
 10
23.096410273
 20
21.1834718348
 30
0.0
 10
23.1090899403
 20
21.1929793969
 30
0.0
 10
23.1252868703
 20
21.1992202009
 30
0.0
 10
23.1441686972
 20
21.2012785146
 30
0.0
 10
23.1643207868
 20
21.1989028513
 30
0.0
 10
23.1906285217
 20
21.190575566
 30
0.0
 10
23.2086577681
 20
21.17976389
 30
0.0
 10
23.2194004859
 20
21.1713393836
 30
0.0
  0
SPLINE
  5
401
100
AcDbEntity
  8
00_COMPONENTS
100
AcDbSpline
 62
7
  6
BYLAYER
 70
0
 71
3
 72
9
 73
5
 74
0
 42
0.0000001
 43
0.0000001
 44
0.0000000001
 40
0.0
 40
0.0
 40
0.0
 40
0.0
 40
0.5145367667
 40
1.0
 40
1.0
 40
1.0
 40
1.0
 10
21.4856462776
 20
20.7772
 30
0.0
 10
21.4480850006
 20
20.7772
 30
0.0
 10
21.3746475296
 20
20.7939881158
 30
0.0
 10
21.3122649469
 20
20.8342682438
 30
0.0
 10
21.2857441247
 20
20.8577748789
 30
0.0
  0
SPLINE
  5
402
100
AcDbEntity
  8
00_COMPONENTS
100
AcDbSpline
 62
7
  6
BYLAYER
 70
0
 71
3
 72
14
 73
10
 74
0
 42
0.0000001
 43
0.0000001
 44
0.0000000001
 40
0.0
 40
0.0
 40
0.0
 40
0.0
 40
0.1011181417
 40
0.2096459336
 40
0.3285141171
 40
0.4583848875
 40
0.5957659238
 40
0.7347169525
 40
1.0
 40
1.0
 40
1.0
 40
1.0
 10
21.9521813909
 20
21.1713393836
 30
0.0
 10
21.9551174395
 20
21.1755128722
 30
0.0
 10
21.9622300368
 20
21.1834958225
 30
0.0
 10
21.9760515009
 20
21.1929451257
 30
0.0
 10
21.9931694919
 20
21.1991798599
 30
0.0
 10
22.0127187493
 20
21.2012806035
 30
0.0
 10
22.0332378875
 20
21.198944447
 30
0.0
 10
22.0594173571
 20
21.1906930591
 30
0.0
 10
22.0771514971
 20
21.179832114
 30
0.0
 10
22.0874998674
 20
21.1713393836
 30
0.0
  0
SPLINE
  5
403
100
AcDbEntity
  8
00_COMPONENTS
100
AcDbSpline
 62
7
  6
BYLAYER
 70
0
 71
3
 72
11
 73
7
 74
0
 42
0.0000001
 43
0.0000001
 44
0.0000000001
 40
0.0
 40
0.0
 40
0.0
 40
0.0
 40
0.2177029302
 40
0.4715230048
 40
0.7440147771
 40
1.0
 40
1.0
 40
1.0
 40
1.0
 10
20.7902796161
 20
21.1713393836
 30
0.0
 10
20.7972496284
 20
21.1799760918
 30
0.0
 10
20.8168140329
 20
21.1954804531
 30
0.0
 10
20.8552689945
 20
21.2034297221
 30
0.0
 10
20.8951865927
 20
21.1945529313
 30
0.0
 10
20.9183863418
 20
21.1798917121
 30
0.0
 10
20.9282432994
 20
21.1713393836
 30
0.0
  0
SPLINE
  5
404
100
AcDbEntity
  8
00_COMPONENTS
100
AcDbSpline
 62
7
  6
BYLAYER
 70
0
 71
3
 72
11
 73
7
 74
0
 42
0.0000001
 43
0.0000001
 44
0.0000000001
 40
0.0
 40
0.0
 40
0.0
 40
0.0
 40
0.2221525819
 40
0.4613283113
 40
0.7212940313
 40
1.0
 40
1.0
 40
1.0
 40
1.0
 10
20.5399548433
 20
20.8577748789
 30
0.0
 10
20.5308565987
 20
20.8462580131
 30
0.0
 10
20.509299349
 20
20.8243198087
 30
0.0
 10
20.4688519527
 20
20.7983691803
 30
0.0
 10
20.4199723254
 20
20.7810972957
 30
0.0
 10
20.3842306099
 20
20.7772
 30
0.0
 10
20.3658172035
 20
20.7772
 30
0.0
  0
SPLINE
  5
405
100
AcDbEntity
  8
00_COMPONENTS
100
AcDbSpline
 62
7
  6
BYLAYER
 70
0
 71
3
 72
12
 73
8
 74
0
 42
0.0000001
 43
0.0000001
 44
0.0000000001
 40
0.0
 40
0.0
 40
0.0
 40
0.0
 40
0.2263725404
 40
0.3528497349
 40
0.4865704446
 40
0.7545150744
 40
1.0
 40
1.0
 40
1.0
 40
1.0
 10
19.610894521
 20
21.1713393836
 30
0.0
 10
19.6187163273
 20
21.1799879787
 30
0.0
 10
19.6338912701
 20
21.1911067349
 30
0.0
 10
19.6578057922
 20
21.1990925264
 30
0.0
 10
19.6850609692
 20
21.2020215538
 30
0.0
 10
19.7186168109
 20
21.1947988648
 30
0.0
 10
19.7411832799
 20
21.1799401774
 30
0.0
 10
19.7504534242
 20
21.1713393836
 30
0.0
  0
SPLINE
  5
406
100
AcDbEntity
  8
00_COMPONENTS
100
AcDbSpline
 62
7
  6
BYLAYER
 70
0
 71
3
 72
11
 73
7
 74
0
 42
0.0000001
 43
0.0000001
 44
0.0000000001
 40
0.0
 40
0.0
 40
0.0
 40
0.0
 40
0.2630929634
 40
0.5215373698
 40
0.7678332183
 40
1.0
 40
1.0
 40
1.0
 40
1.0
 10
20.2804246757
 20
20.7772
 30
0.0
 10
20.2614510702
 20
20.7772
 30
0.0
 10
20.2237294645
 20
20.781431501
 30
0.0
 10
20.1707877781
 20
20.7987827988
 30
0.0
 10
20.1239951464
 20
20.8245585139
 30
0.0
 10
20.0969288599
 20
20.8462570467
 30
0.0
 10
20.0847766094
 20
20.8577748789
 30
0.0
  0
SPLINE
  5
407
100
AcDbEntity
  8
00_COMPONENTS
100
AcDbSpline
 62
7
  6
BYLAYER
 70
0
 71
3
 72
9
 73
5
 74
0
 42
0.0000001
 43
0.0000001
 44
0.0000000001
 40
0.0
 40
0.0
 40
0.0
 40
0.0
 40
0.5277513629
 40
1.0
 40
1.0
 40
1.0
 40
1.0
 10
18.4930479363
 20
21.2005636807
 30
0.0
 10
18.506661348
 20
21.2005636807
 30
0.0
 10
18.5327578052
 20
21.1950177025
 30
0.0
 10
18.5545022165
 20
21.1799751522
 30
0.0
 10
18.563093934
 20
21.1713393836
 30
0.0
  0
SPLINE
  5
408
100
AcDbEntity
  8
00_COMPONENTS
100
AcDbSpline
 62
7
  6
BYLAYER
 70
0
 71
3
 72
9
 73
5
 74
0
 42
0.0000001
 43
0.0000001
 44
0.0000000001
 40
0.0
 40
0.0
 40
0.0
 40
0.0
 40
0.4722490341
 40
1.0
 40
1.0
 40
1.0
 40
1.0
 10
18.4230019385
 20
21.1713393836
 30
0.0
 10
18.4315936634
 20
21.1799751596
 30
0.0
 10
18.4533380762
 20
21.1950177117
 30
0.0
 10
18.4794345346
 20
21.2005636807
 30
0.0
 10
18.4930479363
 20
21.2005636807
 30
0.0
  0
SPLINE
  5
409
100
AcDbEntity
  8
00_COMPONENTS
100
AcDbSpline
 62
7
  6
BYLAYER
 70
0
 71
3
 72
12
 73
8
 74
0
 42
0.0000001
 43
0.0000001
 44
0.0000000001
 40
0.0
 40
0.0
 40
0.0
 40
0.0
 40
0.2454803393
 40
0.5134290616
 40
0.6471434245
 40
0.7736231094
 40
1.0
 40
1.0
 40
1.0
 40
1.0
 10
17.2356424483
 20
21.1713393836
 30
0.0
 10
17.2449124177
 20
21.1799400151
 30
0.0
 10
17.2674788154
 20
21.1947986543
 30
0.0
 10
17.3010343048
 20
21.2020215905
 30
0.0
 10
17.3282894442
 20
21.1990924938
 30
0.0
 10
17.3522041558
 20
21.1911071961
 30
0.0
 10
17.3673793964
 20
21.1799881432
 30
0.0
 10
17.3752013515
 20
21.1713393836
 30
0.0
  0
SPLINE
  5
40A
100
AcDbEntity
  8
00_COMPONENTS
100
AcDbSpline
 62
7
  6
BYLAYER
 70
0
 71
3
 72
11
 73
7
 74
0
 42
0.0000001
 43
0.0000001
 44
0.0000000001
 40
0.0
 40
0.0
 40
0.0
 40
0.0
 40
0.2249945399
 40
0.4665556102
 40
0.7262838244
 40
1.0
 40
1.0
 40
1.0
 40
1.0
 10
19.3303640596
 20
20.8577748789
 30
0.0
 10
19.3201522386
 20
20.8462402481
 30
0.0
 10
19.2965341958
 20
20.8243699561
 30
0.0
 10
19.2536511506
 20
20.7984992059
 30
0.0
 10
19.2030515357
 20
20.781208259
 30
0.0
 10
19.1663889382
 20
20.7772
 30
0.0
 10
19.147647458
 20
20.7772
 30
0.0
  0
SPLINE
  5
40B
100
AcDbEntity
  8
00_COMPONENTS
100
AcDbSpline
 62
7
  6
BYLAYER
 70
0
 71
3
 72
11
 73
7
 74
0
 42
0.0000001
 43
0.0000001
 44
0.0000000001
 40
0.0
 40
0.0
 40
0.0
 40
0.0
 40
0.255980412
 40
0.5284763942
 40
0.782292926
 40
1.0
 40
1.0
 40
1.0
 40
1.0
 10
16.0578525731
 20
21.1713393836
 30
0.0
 10
16.0677093457
 20
21.1798915516
 30
0.0
 10
16.0909090353
 20
21.1945527559
 30
0.0
 10
16.1308263981
 20
21.2034297155
 30
0.0
 10
16.1692816232
 20
21.1954806296
 30
0.0
 10
16.1888461113
 20
21.1799762565
 30
0.0
 10
16.1958162564
 20
21.1713393836
 30
0.0
  0
SPLINE
  5
40C
100
AcDbEntity
  8
00_COMPONENTS
100
AcDbSpline
 62
7
  6
BYLAYER
 70
0
 71
3
 72
11
 73
7
 74
0
 42
0.0000001
 43
0.0000001
 44
0.0000000001
 40
0.0
 40
0.0
 40
0.0
 40
0.0
 40
0.2685008791
 40
0.5277013831
 40
0.7716325355
 40
1.0
 40
1.0
 40
1.0
 40
1.0
 10
19.0616000576
 20
20.7772
 30
0.0
 10
19.0426713348
 20
20.7772
 30
0.0
 10
19.0053464279
 20
20.781319174
 30
0.0
 10
18.9533878271
 20
20.7986375182
 30
0.0
 10
18.9083843919
 20
20.8244523947
 30
0.0
 10
18.8829276039
 20
20.8462413971
 30
0.0
 10
18.8716950779
 20
20.8577748789
 30
0.0
  0
SPLINE
  5
40D
100
AcDbEntity
  8
00_COMPONENTS
100
AcDbSpline
 62
7
  6
BYLAYER
 70
0
 71
3
 72
14
 73
10
 74
0
 42
0.0000001
 43
0.0000001
 44
0.0000000001
 40
0.0
 40
0.0
 40
0.0
 40
0.0
 40
0.2652781
 40
0.4042270026
 40
0.5416146951
 40
0.6714793295
 40
0.7903500595
 40
0.8988791896
 40
1.0
 40
1.0
 40
1.0
 40
1.0
 10
14.8985960051
 20
21.1713393836
 30
0.0
 10
14.9089441825
 20
21.1798319556
 30
0.0
 10
14.9266780214
 20
21.1906926261
 30
0.0
 10
14.9528573196
 20
21.1989444461
 30
0.0
 10
14.9733764204
 20
21.2012806159
 30
0.0
 10
14.9929257734
 20
21.1991798151
 30
0.0
 10
15.0100438277
 20
21.192945549
 30
0.0
 10
15.0238655711
 20
21.1834960355
 30
0.0
 10
15.0309783555
 20
21.1755129824
 30
0.0
 10
15.0339144816
 20
21.1713393836
 30
0.0
  0
SPLINE
  5
40E
100
AcDbEntity
  8
00_COMPONENTS
100
AcDbSpline
 62
7
  6
BYLAYER
 70
0
 71
3
 72
14
 73
10
 74
0
 42
0.0000001
 43
0.0000001
 44
0.0000000001
 40
0.0
 40
0.0
 40
0.0
 40
0.0
 40
0.276067576
 40
0.4179518906
 40
0.555726874
 40
0.6833626148
 40
0.7982571252
 40
0.9024316621
 40
1.0
 40
1.0
 40
1.0
 40
1.0
 10
13.7666953866
 20
21.1713393836
 30
0.0
 10
13.7774379055
 20
21.179763734
 30
0.0
 10
13.7954668576
 20
21.1905751393
 30
0.0
 10
13.8217744239
 20
21.1989028435
 30
0.0
 10
13.8419264927
 20
21.2012785307
 30
0.0
 10
13.8608084166
 20
21.1992201497
 30
0.0
 10
13.8770054319
 20
21.1929798241
 30
0.0
 10
13.8896853617
 20
21.1834720488
 30
0.0
 10
13.8958728535
 20
21.1754864556
 30
0.0
 10
13.898338801
 20
21.1713393836
 30
0.0
  0
SPLINE
  5
40F
100
AcDbEntity
  8
00_COMPONENTS
100
AcDbSpline
 62
7
  6
BYLAYER
 70
0
 71
3
 72
11
 73
7
 74
0
 42
0.0000001
 43
0.0000001
 44
0.0000000001
 40
0.0
 40
0.0
 40
0.0
 40
0.0
 40
0.2283674911
 40
0.4722987441
 40
0.7314994897
 40
1.0
 40
1.0
 40
1.0
 40
1.0
 10
18.1144007947
 20
20.8577748789
 30
0.0
 10
18.1031682672
 20
20.8462413957
 30
0.0
 10
18.0777114708
 20
20.8244523892
 30
0.0
 10
18.0327080132
 20
20.7986374991
 30
0.0
 10
17.9807494098
 20
20.7813191626
 30
0.0
 10
17.9434245118
 20
20.7772
 30
0.0
 10
17.924495815
 20
20.7772
 30
0.0
  0
SPLINE
  5
410
100
AcDbEntity
  8
00_COMPONENTS
100
AcDbSpline
 62
7
  6
BYLAYER
 70
0
 71
3
 72
14
 73
10
 74
0
 42
0.0000001
 43
0.0000001
 44
0.0000000001
 40
0.0
 40
0.0
 40
0.0
 40
0.0
 40
0.2872713047
 40
0.4319799116
 40
0.569836167
 40
0.6948413962
 40
0.8054741806
 40
0.9053831054
 40
1.0
 40
1.0
 40
1.0
 40
1.0
 10
12.6707651649
 20
21.1713393836
 30
0.0
 10
12.6818040536
 20
21.1796885967
 30
0.0
 10
12.6999868706
 20
21.1904508087
 30
0.0
 10
12.7262370355
 20
21.1988583741
 30
0.0
 10
12.7458738748
 20
21.2012756942
 30
0.0
 10
12.7639576311
 20
21.1992625231
 30
0.0
 10
12.7791269501
 20
21.1930046758
 30
0.0
 10
12.7905627861
 20
21.1834154079
 30
0.0
 10
12.7957548828
 20
21.17544715
 30
0.0
 10
12.7977316313
 20
21.1713393836
 30
0.0
  0
SPLINE
  5
411
100
AcDbEntity
  8
00_COMPONENTS
100
AcDbSpline
 62
7
  6
BYLAYER
 70
0
 71
3
 72
11
 73
7
 74
0
 42
0.0000001
 43
0.0000001
 44
0.0000000001
 40
0.0
 40
0.0
 40
0.0
 40
0.0
 40
0.2737165467
 40
0.5334445158
 40
0.7750054863
 40
1.0
 40
1.0
 40
1.0
 40
1.0
 10
17.8384484145
 20
20.7772
 30
0.0
 10
17.819706909
 20
20.7772
 30
0.0
 10
17.7830443029
 20
20.7812082702
 30
0.0
 10
17.732444691
 20
20.7984992253
 30
0.0
 10
17.6895616674
 20
20.8243699617
 30
0.0
 10
17.6659436327
 20
20.8462402495
 30
0.0
 10
17.6557318129
 20
20.8577748789
 30
0.0
  0
SPLINE
  5
412
100
AcDbEntity
  8
00_COMPONENTS
100
AcDbSpline
 62
7
  6
BYLAYER
 70
0
 71
3
 72
14
 73
10
 74
0
 42
0.0000001
 43
0.0000001
 44
0.0000000001
 40
0.0
 40
0.0
 40
0.0
 40
0.0
 40
0.2988894748
 40
0.4462770775
 40
0.5838382283
 40
0.7057175548
 40
0.8117485047
 40
0.9075483754
 40
1.0
 40
1.0
 40
1.0
 40
1.0
 10
11.6191460307
 20
21.1713393836
 30
0.0
 10
11.6303830881
 20
21.179607657
 30
0.0
 10
11.6485777367
 20
21.1903184668
 30
0.0
 10
11.67458308
 20
21.1988102127
 30
0.0
 10
11.693559884
 20
21.2012717856
 30
0.0
 10
11.7107240162
 20
21.1993079343
 30
0.0
 10
11.724770013
 20
21.193013966
 30
0.0
 10
11.7348573731
 20
21.1833141429
 30
0.0
 10
11.7389926501
 20
21.1753942342
 30
0.0
 10
11.7404692576
 20
21.1713393836
 30
0.0
  0
SPLINE
  5
413
100
AcDbEntity
  8
00_COMPONENTS
100
AcDbSpline
 62
7
  6
BYLAYER
 70
0
 71
3
 72
14
 73
10
 74
0
 42
0.0000001
 43
0.0000001
 44
0.0000000001
 40
0.0
 40
0.0
 40
0.0
 40
0.0
 40
0.3108880514
 40
0.4607488407
 40
0.5975371273
 40
0.7156726649
 40
0.8167084781
 40
0.9086790868
 40
1.0
 40
1.0
 40
1.0
 40
1.0
 10
10.6198414405
 20
21.1713393836
 30
0.0
 10
10.6311788946
 20
21.1795215835
 30
0.0
 10
10.6492435003
 20
21.1901766215
 30
0.0
 10
10.6748165485
 20
21.1987573397
 30
0.0
 10
10.6929926904
 20
21.2012662563
 30
0.0
 10
10.7091278389
 20
21.1993578315
 30
0.0
 10
10.7219654331
 20
21.1929968365
 30
0.0
 10
10.7305903093
 20
21.1831552241
 30
0.0
 10
10.7336233234
 20
21.1753290277
 30
0.0
 10
10.734598085
 20
21.1713393836
 30
0.0
  0
SPLINE
  5
414
100
AcDbEntity
  8
00_COMPONENTS
100
AcDbSpline
 62
7
  6
BYLAYER
 70
0
 71
3
 72
11
 73
7
 74
0
 42
0.0000001
 43
0.0000001
 44
0.0000000001
 40
0.0
 40
0.0
 40
0.0
 40
0.0
 40
0.2321668087
 40
0.4784627587
 40
0.7369074026
 40
1.0
 40
1.0
 40
1.0
 40
1.0
 10
16.9013192631
 20
20.8577748789
 30
0.0
 10
16.8891670111
 20
20.8462570453
 30
0.0
 10
16.8621007159
 20
20.8245585084
 30
0.0
 10
16.8153080612
 20
20.7987827799
 30
0.0
 10
16.7623663726
 20
20.7814314894
 30
0.0
 10
16.724644776
 20
20.7772
 30
0.0
 10
16.7056711968
 20
20.7772
 30
0.0
  0
SPLINE
  5
415
100
AcDbEntity
  8
00_COMPONENTS
100
AcDbSpline
 62
7
  6
BYLAYER
 70
0
 71
3
 72
15
 73
11
 74
0
 42
0.0000001
 43
0.0000001
 44
0.0000000001
 40
0.0
 40
0.0
 40
0.0
 40
0.0
 40
0.162907288
 40
0.3234999986
 40
0.4754609735
 40
0.6107947214
 40
0.7243590199
 40
0.819922278
 40
0.9085084478
 40
1.0
 40
1.0
 40
1.0
 40
1.0
 10
9.6804567057
 20
21.1713393836
 30
0.0
 10
9.6861762643
 20
21.1754199861
 30
0.0
 10
9.697900722
 20
21.1830284197
 30
0.0
 10
9.716224237
 20
21.1923361097
 30
0.0
 10
9.7345488791
 20
21.198697566
 30
0.0
 10
9.7517855415
 20
21.2012584385
 30
0.0
 10
9.7667996101
 20
21.1994140911
 30
0.0
 10
9.778349439
 20
21.192934748
 30
0.0
 10
9.7853798962
 20
21.1829292586
 30
0.0
 10
9.7872931171
 20
21.1752559682
 30
0.0
 10
9.7877734004
 20
21.1713393836
 30
0.0
  0
SPLINE
  5
416
100
AcDbEntity
  8
00_COMPONENTS
100
AcDbSpline
 62
7
  6
BYLAYER
 70
0
 71
3
 72
11
 73
7
 74
0
 42
0.0000001
 43
0.0000001
 44
0.0000000001
 40
0.0
 40
0.0
 40
0.0
 40
0.0
 40
0.2787063417
 40
0.5386718132
 40
0.7778474438
 40
1.0
 40
1.0
 40
1.0
 40
1.0
 10
16.620278669
 20
20.7772
 30
0.0
 10
16.6018652381
 20
20.7772
 30
0.0
 10
16.5661235143
 20
20.7810973067
 30
0.0
 10
16.5172438905
 20
20.7983691999
 30
0.0
 10
16.4767965147
 20
20.8243198143
 30
0.0
 10
16.4552392727
 20
20.8462580145
 30
0.0
 10
16.4461410292
 20
20.8577748789
 30
0.0
  0
SPLINE
  5
417
100
AcDbEntity
  8
00_COMPONENTS
100
AcDbSpline
 62
7
  6
BYLAYER
 70
0
 71
3
 72
15
 73
11
 74
0
 42
0.0000001
 43
0.0000001
 44
0.0000000001
 40
0.0
 40
0.0
 40
0.0
 40
0.0
 40
0.1702789934
 40
0.3358834672
 40
0.4895830332
 40
0.6227309879
 40
0.7308205203
 40
0.8205337703
 40
0.9065936986
 40
1.0
 40
1.0
 40
1.0
 40
1.0
 10
8.8081411114
 20
21.1713393836
 30
0.0
 10
8.8138518255
 20
21.1753981721
 30
0.0
 10
8.8254465085
 20
21.1829569995
 30
0.0
 10
8.8433596329
 20
21.1922573781
 30
0.0
 10
8.8609328119
 20
21.1986305136
 30
0.0
 10
8.8770998008
 20
21.2012471145
 30
0.0
 10
8.8909244298
 20
21.1994780761
 30
0.0
 10
8.9010990442
 20
21.1927987204
 30
0.0
 10
8.9063831273
 20
21.1826396434
 30
0.0
 10
8.9072011114
 20
21.1751825927
 30
0.0
 10
8.9072011114
 20
21.1713393836
 30
0.0
  0
SPLINE
  5
418
100
AcDbEntity
  8
00_COMPONENTS
100
AcDbSpline
 62
7
  6
BYLAYER
 70
0
 71
3
 72
9
 73
5
 74
0
 42
0.0000001
 43
0.0000001
 44
0.0000000001
 40
0.0
 40
0.0
 40
0.0
 40
0.0
 40
0.4854633634
 40
1.0
 40
1.0
 40
1.0
 40
1.0
 10
15.7003517478
 20
20.8577748789
 30
0.0
 10
15.6738309185
 20
20.8342682374
 30
0.0
 10
15.6114483342
 20
20.7939881088
 30
0.0
 10
15.5380108625
 20
20.7772
 30
0.0
 10
15.5004495949
 20
20.7772
 30
0.0
  0
SPLINE
  5
419
100
AcDbEntity
  8
00_COMPONENTS
100
AcDbSpline
 62
7
  6
BYLAYER
 70
0
 71
3
 72
15
 73
11
 74
0
 42
0.0000001
 43
0.0000001
 44
0.0000000001
 40
0.0
 40
0.0
 40
0.0
 40
0.0
 40
0.1756028664
 40
0.3448230478
 40
0.5006927322
 40
0.6349837817
 40
0.7426134105
 40
0.8290421945
 40
0.9102414304
 40
1.0
 40
1.0
 40
1.0
 40
1.0
 10
8.009533506
 20
21.1713393836
 30
0.0
 10
8.0148446585
 20
21.17512861
 30
0.0
 10
8.0255344341
 20
21.1822163397
 30
0.0
 10
8.0418816573
 20
21.1911505304
 30
0.0
 10
8.05773972
 20
21.1976090634
 30
0.0
 10
8.0722413272
 20
21.2008788588
 30
0.0
 10
8.0846698065
 20
21.2004732626
 30
0.0
 10
8.0941907531
 20
21.1955832344
 30
0.0
 10
8.0992407736
 20
21.1869800759
 30
0.0
 10
8.0999600806
 20
21.1805438848
 30
0.0
 10
8.099959975
 20
21.1772090165
 30
0.0
  0
SPLINE
  5
41A
100
AcDbEntity
  8
00_COMPONENTS
100
AcDbSpline
 62
7
  6
BYLAYER
 70
0
 71
3
 72
11
 73
7
 74
0
 42
0.0000001
 43
0.0000001
 44
0.0000000001
 40
0.0
 40
0.0
 40
0.0
 40
0.0
 40
0.2833965508
 40
0.5432193544
 40
0.7799943513
 40
1.0
 40
1.0
 40
1.0
 40
1.0
 10
15.4163618285
 20
20.7772
 30
0.0
 10
15.3984147353
 20
20.7772
 30
0.0
 10
15.3638428242
 20
20.7809847668
 30
0.0
 10
15.3170255066
 20
20.7982500988
 30
0.0
 10
15.2793129262
 20
20.8243146252
 30
0.0
 10
15.2600306857
 20
20.8462999935
 30
0.0
 10
15.2521284431
 20
20.8577748789
 30
0.0
  0
SPLINE
  5
41B
100
AcDbEntity
  8
00_COMPONENTS
100
AcDbSpline
 62
7
  6
BYLAYER
 70
0
 71
3
 72
16
 73
12
 74
0
 42
0.0000001
 43
0.0000001
 44
0.0000000001
 40
0.0
 40
0.0
 40
0.0
 40
0.0
 40
0.18102191
 40
0.3540251596
 40
0.512321824
 40
0.6481168003
 40
0.7557866801
 40
0.8390699063
 40
0.8768775521
 40
0.9152157564
 40
1.0
 40
1.0
 40
1.0
 40
1.0
 10
7.2907117754
 20
21.1713393836
 30
0.0
 10
7.2956047254
 20
21.1748706081
 30
0.0
 10
7.3053769881
 20
21.1815035474
 30
0.0
 10
7.3201827486
 20
21.1900494388
 30
0.0
 10
7.334390206
 20
21.1965098105
 30
0.0
 10
7.3473039522
 20
21.2002728195
 30
0.0
 10
7.3583248874
 20
21.2009946482
 30
0.0
 10
7.3658374811
 20
21.1982532125
 30
0.0
 10
7.3695473079
 20
21.1943356996
 30
0.0
 10
7.3720514876
 20
21.1895303462
 30
0.0
 10
7.372570166
 20
21.1853263023
 30
0.0
 10
7.3725702961
 20
21.1825001383
 30
0.0
  0
SPLINE
  5
41C
100
AcDbEntity
  8
00_COMPONENTS
100
AcDbSpline
 62
7
  6
BYLAYER
 70
0
 71
3
 72
9
 73
5
 74
0
 42
0.0000001
 43
0.0000001
 44
0.0000000001
 40
0.0
 40
0.0
 40
0.0
 40
0.0
 40
0.492435359
 40
1.0
 40
1.0
 40
1.0
 40
1.0
 10
14.5206383368
 20
20.8577748789
 30
0.0
 10
14.4928057031
 20
20.8344407456
 30
0.0
 10
14.4294517409
 20
20.7947023873
 30
0.0
 10
14.3554392741
 20
20.7772
 30
0.0
 10
14.3180034734
 20
20.7772
 30
0.0
  0
SPLINE
  5
41D
100
AcDbEntity
  8
00_COMPONENTS
100
AcDbSpline
 62
7
  6
BYLAYER
 70
0
 71
3
 72
16
 73
12
 74
0
 42
0.0000001
 43
0.0000001
 44
0.0000000001
 40
0.0
 40
0.0
 40
0.0
 40
0.0
 40
0.186727502
 40
0.363869343
 40
0.5250355566
 40
0.6628821237
 40
0.7713286744
 40
0.8520031408
 40
0.8868587746
 40
0.9217168727
 40
1.0
 40
1.0
 40
1.0
 40
1.0
 10
6.6571465872
 20
21.1713393836
 30
0.0
 10
6.6616098572
 20
21.1746234761
 30
0.0
 10
6.6704627216
 20
21.1808168276
 30
0.0
 10
6.6837617611
 20
21.1889580586
 30
0.0
 10
6.6963894545
 20
21.1953453844
 30
0.0
 10
6.7078043958
 20
21.1994748861
 30
0.0
 10
6.7174479531
 20
21.2010655224
 30
0.0
 10
6.7242763403
 20
21.1996700398
 30
0.0
 10
6.7277699124
 20
21.1967575782
 30
0.0
 10
6.7301092602
 20
21.192966039
 30
0.0
 10
6.7305681092
 20
21.1894948901
 30
0.0
 10
6.730567967
 20
21.1871717692
 30
0.0
  0
SPLINE
  5
41E
100
AcDbEntity
  8
00_COMPONENTS
100
AcDbSpline
 62
7
  6
BYLAYER
 70
0
 71
3
 72
11
 73
7
 74
0
 42
0.0000001
 43
0.0000001
 44
0.0000000001
 40
0.0
 40
0.0
 40
0.0
 40
0.0
 40
0.2876550564
 40
0.5468250641
 40
0.7812007933
 40
1.0
 40
1.0
 40
1.0
 40
1.0
 10
14.235860427
 20
20.7772
 30
0.0
 10
14.2185142348
 20
20.7772
 30
0.0
 10
14.1853485981
 20
20.7808689743
 30
0.0
 10
14.1409133118
 20
20.7981468283
 30
0.0
 10
14.1062209101
 20
20.8243725863
 30
0.0
 10
14.0894186133
 20
20.8463719119
 30
0.0
 10
14.0827812112
 20
20.8577748789
 30
0.0
  0
SPLINE
  5
41F
100
AcDbEntity
  8
00_COMPONENTS
100
AcDbSpline
 62
7
  6
BYLAYER
 70
0
 71
3
 72
16
 73
12
 74
0
 42
0.0000001
 43
0.0000001
 44
0.0000000001
 40
0.0
 40
0.0
 40
0.0
 40
0.0
 40
0.3736984514
 40
0.5379671594
 40
0.6782417612
 40
0.7881127383
 40
0.8312087558
 40
0.8675184128
 40
0.899380478
 40
0.9301477132
 40
1.0
 40
1.0
 40
1.0
 40
1.0
 10
6.113659755
 20
21.1713393836
 30
0.0
 10
6.1214827989
 20
21.1772563071
 30
0.0
 10
6.1330588662
 20
21.1853986932
 30
0.0
 10
6.1485995279
 20
21.194130864
 30
0.0
 10
6.1585681442
 20
21.198508568
 30
0.0
 10
6.1660878281
 20
21.2005096317
 30
0.0
 10
6.1710848441
 20
21.200582155
 30
0.0
 10
6.173971848
 20
21.1999489595
 30
0.0
 10
6.176258802
 20
21.1986049631
 30
0.0
 10
6.1784336804
 20
21.1957944722
 30
0.0
 10
6.1788397515
 20
21.193021646
 30
0.0
 10
6.1788396634
 20
21.1911881944
 30
0.0
  0
SPLINE
  5
420
100
AcDbEntity
  8
00_COMPONENTS
100
AcDbSpline
 62
7
  6
BYLAYER
 70
0
 71
3
 72
10
 73
6
 74
0
 42
0.0000001
 43
0.0000001
 44
0.0000000001
 40
0.0
 40
0.0
 40
0.0
 40
0.0
 40
0.2462559995
 40
0.5003966356
 40
1.0
 40
1.0
 40
1.0
 40
1.0
 10
13.3711573615
 20
20.8577748789
 30
0.0
 10
13.3569094289
 20
20.846360714
 30
0.0
 10
13.3264135766
 20
20.8249584288
 30
0.0
 10
13.2604768299
 20
20.7910344293
 30
0.0
 10
13.2043699634
 20
20.7772
 30
0.0
 10
13.1673319612
 20
20.7772
 30
0.0
  0
SPLINE
  5
421
100
AcDbEntity
  8
00_COMPONENTS
100
AcDbSpline
 62
7
  6
BYLAYER
 70
0
 71
3
 72
17
 73
13
 74
0
 42
0.0000001
 43
0.0000001
 44
0.0000000001
 40
0.0
 40
0.0
 40
0.0
 40
0.0
 40
0.1980939357
 40
0.383772732
 40
0.551369937
 40
0.6944430375
 40
0.8065011586
 40
0.8499121223
 40
0.8853057003
 40
0.9144891352
 40
0.9408030335
 40
1.0
 40
1.0
 40
1.0
 40
1.0
 10
5.6643875418
 20
21.1713393836
 30
0.0
 10
5.6679823441
 20
21.17415845
 30
0.0
 10
5.6750305501
 20
21.1795150081
 30
0.0
 10
5.6854509575
 20
21.1868070094
 30
0.0
 10
5.6951681039
 20
21.1928766928
 30
0.0
 10
5.7038134373
 20
21.1973922173
 30
0.0
 10
5.7102955124
 20
21.199847742
 30
0.0
 10
5.7146523478
 20
21.2005841168
 30
0.0
 10
5.7171634528
 20
21.2005229739
 30
0.0
 10
5.719199275
 20
21.1998585919
 30
0.0
 10
5.7212240635
 20
21.1980224855
 30
0.0
 10
5.7215814027
 20
21.1958818077
 30
0.0
 10
5.72158234
 20
21.1945166379
 30
0.0
  0
SPLINE
  5
422
100
AcDbEntity
  8
00_COMPONENTS
100
AcDbSpline
 62
7
  6
BYLAYER
 70
0
 71
3
 72
11
 73
7
 74
0
 42
0.0000001
 43
0.0000001
 44
0.0000000001
 40
0.0
 40
0.0
 40
0.0
 40
0.0
 40
0.2912641486
 40
0.5490876818
 40
0.7811124008
 40
1.0
 40
1.0
 40
1.0
 40
1.0
 10
13.087758793
 20
20.7772
 30
0.0
 10
13.0711432727
 20
20.7772
 30
0.0
 10
13.0396047455
 20
20.7807478805
 30
0.0
 10
12.9978447755
 20
20.7980681571
 30
0.0
 10
12.9664506123
 20
20.8245187312
 30
0.0
 10
12.9523200141
 20
20.8464787582
 30
0.0
 10
12.9469987721
 20
20.8577748789
 30
0.0
  0
SPLINE
  5
423
100
AcDbEntity
  8
00_COMPONENTS
100
AcDbSpline
 62
7
  6
BYLAYER
 70
0
 71
3
 72
15
 73
11
 74
0
 42
0.0000001
 43
0.0000001
 44
0.0000000001
 40
0.0
 40
0.0
 40
0.0
 40
0.0
 40
0.2091829883
 40
0.4033504328
 40
0.5783656012
 40
0.7294117979
 40
0.8513905558
 40
0.8998294091
 40
0.9390604949
 40
1.0
 40
1.0
 40
1.0
 40
1.0
 10
4.9123153136
 20
21.1713393836
 30
0.0
 10
4.9146632161
 20
21.1735177559
 30
0.0
 10
4.9192043071
 20
21.1777014556
 30
0.0
 10
4.9257772316
 20
21.1836435011
 30
0.0
 10
4.9317362317
 20
21.18890505
 30
0.0
 10
4.9370006963
 20
21.1933783743
 30
0.0
 10
4.9407306403
 20
21.1964114011
 30
0.0
 10
4.9434608114
 20
21.1984230649
 30
0.0
 10
4.9449305293
 20
21.199463909
 30
0.0
 10
4.9476998253
 20
21.2010850729
 30
0.0
 10
4.9476990765
 20
21.2001520276
 30
0.0
  0
SPLINE
  5
424
100
AcDbEntity
  8
00_COMPONENTS
100
AcDbSpline
 62
7
  6
BYLAYER
 70
0
 71
3
 72
14
 73
10
 74
0
 42
0.0000001
 43
0.0000001
 44
0.0000000001
 40
0.0
 40
0.0
 40
0.0
 40
0.0
 40
0.3414000716
 40
0.4968197516
 40
0.6383290921
 40
0.7625652802
 40
0.8660014294
 40
0.9455781056
 40
1.0
 40
1.0
 40
1.0
 40
1.0
 10
4.934791512
 20
20.8577748789
 30
0.0
 10
4.9220329783
 20
20.8470784666
 30
0.0
 10
4.903234916
 20
20.8317791678
 30
0.0
 10
4.8784192893
 20
20.8129813362
 30
0.0
 10
4.8616840596
 20
20.8010630516
 30
0.0
 10
4.8466162665
 20
20.7912106346
 30
0.0
 10
4.8335961819
 20
20.7837285679
 30
0.0
 10
4.8230825805
 20
20.7789375274
 30
0.0
 10
4.8166363565
 20
20.7772
 30
0.0
 10
4.8139823529
 20
20.7772
 30
0.0
  0
SPLINE
  5
425
100
AcDbEntity
  8
00_COMPONENTS
100
AcDbSpline
 62
7
  6
BYLAYER
 70
0
 71
3
 72
11
 73
7
 74
0
 42
0.0000001
 43
0.0000001
 44
0.0000000001
 40
0.0
 40
0.0
 40
0.0
 40
0.0
 40
0.2508487835
 40
0.5069152883
 40
0.7606485163
 40
1.0
 40
1.0
 40
1.0
 40
1.0
 10
12.2606570661
 20
20.8577748789
 30
0.0
 10
12.2459452057
 20
20.8464077762
 30
0.0
 10
12.2148539194
 20
20.825132695
 30
0.0
 10
12.1644711058
 20
20.7994347388
 30
0.0
 10
12.111530057
 20
20.7819286573
 30
0.0
 10
12.0749319018
 20
20.7772
 30
0.0
 10
12.0571923633
 20
20.7772
 30
0.0
  0
SPLINE
  5
426
100
AcDbEntity
  8
00_COMPONENTS
100
AcDbSpline
 62
7
  6
BYLAYER
 70
0
 71
3
 72
10
 73
6
 74
0
 42
0.0000001
 43
0.0000001
 44
0.0000000001
 40
0.0
 40
0.0
 40
0.0
 40
0.0
 40
0.1671033076
 40
0.3911416107
 40
1.0
 40
1.0
 40
1.0
 40
1.0
 10
5.3588302252
 20
21.2005330116
 30
0.0
 10
5.3578593092
 20
21.2005223402
 30
0.0
 10
5.3556031449
 20
21.2000547259
 30
0.0
 10
5.3501801666
 20
21.1979597756
 30
0.0
 10
5.3459656738
 20
21.1955209504
 30
0.0
 10
5.3429573535
 20
21.1936591303
 30
0.0
  0
LINE
  5
427
100
AcDbEntity
  8
00_COMPONENTS
100
AcDbLine
 62
7
  6
BYLAYER
 10
5.3429573535
 20
21.1936591303
 11
5.3369560599
 21
21.1897446967
  0
SPLINE
  5
428
100
AcDbEntity
  8
00_COMPONENTS
100
AcDbSpline
 62
7
  6
BYLAYER
 70
0
 71
3
 72
9
 73
5
 74
0
 42
0.0000001
 43
0.0000001
 44
0.0000000001
 40
0.0
 40
0.0
 40
0.0
 40
0.0
 40
0.2290081102
 40
1.0
 40
1.0
 40
1.0
 40
1.0
 10
5.3369560599
 20
21.1897446967
 30
0.0
 10
5.3350377656
 20
21.1884367162
 30
0.0
 10
5.3267596478
 20
21.1825809264
 30
0.0
 10
5.3187915132
 20
21.1762982228
 30
0.0
 10
5.3127491802
 20
21.1713393836
 30
0.0
  0
SPLINE
  5
429
100
AcDbEntity
  8
00_COMPONENTS
100
AcDbSpline
 62
7
  6
BYLAYER
 70
0
 71
3
 72
11
 73
7
 74
0
 42
0.0000001
 43
0.0000001
 44
0.0000000001
 40
0.0
 40
0.0
 40
0.0
 40
0.0
 40
0.2938822474
 40
0.5494131926
 40
0.7792362652
 40
1.0
 40
1.0
 40
1.0
 40
1.0
 10
11.9807946732
 20
20.7772
 30
0.0
 10
11.9650337236
 20
20.7772
 30
0.0
 10
11.9353236424
 20
20.7806186775
 30
0.0
 10
11.8965029045
 20
20.7980296829
 30
0.0
 10
11.8686903421
 20
20.8247849494
 30
0.0
 10
11.8574005887
 20
20.8466226787
 30
0.0
 10
11.8534251159
 20
20.8577748789
 30
0.0
  0
SPLINE
  5
42A
100
AcDbEntity
  8
00_COMPONENTS
100
AcDbSpline
 62
7
  6
BYLAYER
 70
0
 71
3
 72
11
 73
7
 74
0
 42
0.0000001
 43
0.0000001
 44
0.0000000001
 40
0.0
 40
0.0
 40
0.0
 40
0.0
 40
0.2564180511
 40
0.5151293722
 40
0.7673117846
 40
1.0
 40
1.0
 40
1.0
 40
1.0
 10
11.1975890285
 20
20.8577748789
 30
0.0
 10
11.182534901
 20
20.8464592209
 30
0.0
 10
11.1510614286
 20
20.8253042902
 30
0.0
 10
11.1007134015
 20
20.7996199695
 30
0.0
 10
11.0487699628
 20
20.782075785
 30
0.0
 10
11.0131233743
 20
20.7772
 30
0.0
 10
10.9960335124
 20
20.7772
 30
0.0
  0
SPLINE
  5
42B
100
AcDbEntity
  8
00_COMPONENTS
100
AcDbSpline
 62
7
  6
BYLAYER
 70
0
 71
3
 72
11
 73
7
 74
0
 42
0.0000001
 43
0.0000001
 44
0.0000000001
 40
0.0
 40
0.0
 40
0.0
 40
0.0
 40
0.2949941598
 40
0.5469537072
 40
0.7749204173
 40
1.0
 40
1.0
 40
1.0
 40
1.0
 10
10.9233927329
 20
20.7772
 30
0.0
 10
10.9086033072
 20
20.7772
 30
0.0
 10
10.8808980146
 20
20.7804772143
 30
0.0
 10
10.8452517345
 20
20.7980589624
 30
0.0
 10
10.8213291672
 20
20.8252061167
 30
0.0
 10
10.8130078057
 20
20.8468001149
 30
0.0
 10
10.8103829985
 20
20.8577748789
 30
0.0
  0
SPLINE
  5
42C
100
AcDbEntity
  8
00_COMPONENTS
100
AcDbSpline
 62
7
  6
BYLAYER
 70
0
 71
3
 72
11
 73
7
 74
0
 42
0.0000001
 43
0.0000001
 44
0.0000000001
 40
0.0
 40
0.0
 40
0.0
 40
0.0
 40
0.2624280419
 40
0.5239298217
 40
0.7744031495
 40
1.0
 40
1.0
 40
1.0
 40
1.0
 10
10.1900438383
 20
20.8577748789
 30
0.0
 10
10.17477037
 20
20.8465144687
 30
0.0
 10
10.1431676637
 20
20.8254863287
 30
0.0
 10
10.0932332531
 20
20.7998172702
 30
0.0
 10
10.0426810713
 20
20.7822382454
 30
0.0
 10
10.0082439364
 20
20.7772
 30
0.0
 10
9.991931468
 20
20.7772
 30
0.0
  0
SPLINE
  5
42D
100
AcDbEntity
  8
00_COMPONENTS
100
AcDbSpline
 62
7
  6
BYLAYER
 70
0
 71
3
 72
13
 73
9
 74
0
 42
0.0000001
 43
0.0000001
 44
0.0000000001
 40
0.0
 40
0.0
 40
0.0
 40
0.0
 40
0.2931335457
 40
0.4212248839
 40
0.5405359439
 40
0.6548977344
 40
0.7679368261
 40
1.0
 40
1.0
 40
1.0
 40
1.0
 10
9.9236004394
 20
20.7772
 30
0.0
 10
9.9098914611
 20
20.7772
 30
0.0
 10
9.8898523845
 20
20.7797098695
 30
0.0
 10
9.8666319345
 20
20.7900804528
 30
0.0
 10
9.8528394997
 20
20.8001030393
 30
0.0
 10
9.8419713153
 20
20.8123010947
 30
0.0
 10
9.8311537252
 20
20.8310036202
 30
0.0
 10
9.8271041022
 20
20.8469993377
 30
0.0
 10
9.8258106002
 20
20.8577748789
 30
0.0
  0
SPLINE
  5
42E
100
AcDbEntity
  8
00_COMPONENTS
100
AcDbSpline
 62
7
  6
BYLAYER
 70
0
 71
3
 72
13
 73
9
 74
0
 42
0.0000001
 43
0.0000001
 44
0.0000000001
 40
0.0
 40
0.0
 40
0.0
 40
0.0
 40
0.2563909252
 40
0.3834483306
 40
0.5094623871
 40
0.6342846227
 40
0.7577693288
 40
1.0
 40
1.0
 40
1.0
 40
1.0
 10
17.5583444735
 20
36.4627839205
 30
0.0
 10
17.2899689805
 20
36.4597480116
 30
0.0
 10
16.8886129648
 20
36.4537178551
 30
0.0
 10
16.3553996912
 20
36.4435269745
 30
0.0
 10
15.9599094209
 20
36.4349329119
 30
0.0
 10
15.5681895078
 20
36.4250654158
 30
0.0
 10
15.0549120223
 20
36.4099111048
 30
0.0
 10
14.6723194535
 20
36.3961501021
 30
0.0
 10
14.4189487934
 20
36.3861085712
 30
0.0
  0
SPLINE
  5
42F
100
AcDbEntity
  8
00_COMPONENTS
100
AcDbSpline
 62
7
  6
BYLAYER
 70
0
 71
3
 72
22
 73
18
 74
0
 42
0.0000001
 43
0.0000001
 44
0.0000000001
 40
0.0
 40
0.0
 40
0.0
 40
0.0
 40
0.2178826396
 40
0.4137310259
 40
0.5844856604
 40
0.7278415933
 40
0.7886324199
 40
0.8418732903
 40
0.8873964345
 40
0.9250975258
 40
0.9549073431
 40
0.9668597789
 40
0.9768741575
 40
0.9850045885
 40
0.991359332
 40
0.9961757893
 40
1.0
 40
1.0
 40
1.0
 40
1.0
 10
19.4277495566
 20
36.4627830841
 30
0.0
 10
19.4253536116
 20
36.5345174152
 30
0.0
 10
19.4202983974
 20
36.6707158361
 30
0.0
 10
19.4110565442
 20
36.8630394686
 30
0.0
 10
19.4005303814
 20
37.030704227
 30
0.0
 10
19.390641488
 20
37.153818697
 30
0.0
 10
19.3820343518
 20
37.2381723949
 30
0.0
 10
19.3757311086
 20
37.2903566469
 30
0.0
 10
19.3692440756
 20
37.3348476568
 30
0.0
 10
19.3626102621
 20
37.3714936409
 30
0.0
 10
19.3566720782
 20
37.3970129026
 30
0.0
 10
19.3516627359
 20
37.4133251874
 30
0.0
 10
19.3481681355
 20
37.4226115723
 30
0.0
 10
19.3446637616
 20
37.4299013311
 30
0.0
 10
19.3411243997
 20
37.4352140596
 30
0.0
 10
19.337484341
 20
37.438668095
 30
0.0
 10
19.334633595
 20
37.4395999966
 30
0.0
 10
19.3333738334
 20
37.4396
 30
0.0
  0
SPLINE
  5
430
100
AcDbEntity
  8
00_COMPONENTS
100
AcDbSpline
 62
7
  6
BYLAYER
 70
0
 71
3
 72
14
 73
10
 74
0
 42
0.0000001
 43
0.0000001
 44
0.0000000001
 40
0.0
 40
0.0
 40
0.0
 40
0.0
 40
0.2422136305
 40
0.3656969139
 40
0.4905130739
 40
0.6165318276
 40
0.7436103616
 40
0.8715196573
 40
1.0
 40
1.0
 40
1.0
 40
1.0
 10
22.5672357177
 20
36.3861044654
 30
0.0
 10
22.3138628564
 20
36.3958292182
 30
0.0
 10
21.9312882537
 20
36.4098313589
 30
0.0
 10
21.4180222448
 20
36.4250583707
 30
0.0
 10
21.026291058
 20
36.4348316839
 30
0.0
 10
20.6307707584
 20
36.4435263887
 30
0.0
 10
20.2320019014
 20
36.4517672328
 30
0.0
 10
19.8306305625
 20
36.4587303563
 30
0.0
 10
19.5622458789
 20
36.4618028036
 30
0.0
 10
19.4277508308
 20
36.4627839522
 30
0.0
  0
SPLINE
  5
431
100
AcDbEntity
  8
00_COMPONENTS
100
AcDbSpline
 62
7
  6
BYLAYER
 70
0
 71
3
 72
22
 73
18
 74
0
 42
0.0000001
 43
0.0000001
 44
0.0000000001
 40
0.0
 40
0.0
 40
0.0
 40
0.0
 40
0.0038246332
 40
0.0086417287
 40
0.0149970947
 40
0.0231280526
 40
0.0331428381
 40
0.0450955541
 40
0.0749055743
 40
0.1126065948
 40
0.1581295594
 40
0.2113702271
 40
0.2721608514
 40
0.4155163712
 40
0.586270476
 40
0.782118113
 40
1.0
 40
1.0
 40
1.0
 40
1.0
 10
17.6527220391
 20
37.4396
 30
0.0
 10
17.6514621342
 20
37.4395999936
 30
0.0
 10
17.6486110565
 20
37.4386680531
 30
0.0
 10
17.6449701415
 20
37.4352141446
 30
0.0
 10
17.6414296173
 20
37.4299014405
 30
0.0
 10
17.6379239691
 20
37.4226116932
 30
0.0
 10
17.6344281109
 20
37.413325311
 30
0.0
 10
17.6294171975
 20
37.3970131344
 30
0.0
 10
17.6234779925
 20
37.3714938447
 30
0.0
 10
17.6168439304
 20
37.3348477956
 30
0.0
 10
17.6103570954
 20
37.2903567566
 30
0.0
 10
17.6040540121
 20
37.2381725095
 30
0.0
 10
17.5954467561
 20
37.1538188192
 30
0.0
 10
17.5855566937
 20
37.0307044313
 30
0.0
 10
17.5750283425
 20
36.8630397992
 30
0.0
 10
17.5657923968
 20
36.6707158945
 30
0.0
 10
17.560741356
 20
36.5345173923
 30
0.0
 10
17.5583451608
 20
36.4627830841
 30
0.0
  0
ENDSEC
  0
SECTION
  2
OBJECTS
  0
DICTIONARY
  5
C
100
AcDbDictionary
280
0
281
1
  3
ACAD_GROUP
350
D
  3
ACAD_MLINESTYLE
350
17
  3
ACAD_LAYOUT
350
1A
  3
ACAD_PLOTSETTINGS
350
19
  3
ACAD_PLOTSTYLENAME
350
E
  0
DICTIONARY
  5
D
102
{ACAD_REACTORS
330
C
102
}
100
AcDbDictionary
280
0
281
1
  0
ACDBDICTIONARYWDFLT
  5
E
102
{ACAD_REACTORS
330
C
102
}
100
AcDbDictionary
281
1
  3
Normal
350
F
100
AcDbDictionaryWithDefault
340
F
  0
DICTIONARY
  5
17
102
{ACAD_REACTORS
330
C
102
}
100
AcDbDictionary
280
0
281
1
  3
Standard
350
18
  0
DICTIONARY
  5
19
102
{ACAD_REACTORS
330
C
102
}
100
AcDbDictionary
281
1
  0
DICTIONARY
  5
1A
102
{ACAD_REACTORS
330
C
102
}
100
AcDbDictionary
281
1
  3
Model
350
432
  3
Layout1
350
433
  0
ACDBPLACEHOLDER
  5
F
102
{ACAD_REACTORS
330
E
102
}
  0
MLINESTYLE
  5
18
102
{ACAD_REACTORS
330
17
102
}
100
AcDbMlineStyle
  2
STANDARD
 70
0
  3

 62
256
 51
90.0
 52
90.0
 71
2
 49
0.5
 62
256
  6
BYLAYER
 49
-0.5
 62
256
  6
BYLAYER
  0
LAYOUT
  5
432
102
{ACAD_REACTORS
330
1A
102
}
100
AcDbPlotSettings
  1

  2
none_device
  4

  6

 40
0.0
 41
0.0
 42
0.0
 43
0.0
 44
210.0
 45
297.0
 46
0.0
 47
0.0
 48
0.0
 49
0.0
140
0.0
141
0.0
142
1.0
143
1.0
 70
1024
 72
1
 73
0
 74
0
  7

 75
0
147
1.0
148
0.0
149
0.0
100
AcDbLayout
  1
Model
 70
0
 71
0
 10
0.0
 20
0.0
 11
210.0
 21
297.0
 12
0.0
 22
0.0
 32
0.0
 14
0.0
 24
0.0
 34
0.0
 15
0.0
 25
0.0
 35
0.0
146
0.0
 13
0.0
 23
0.0
 33
0.0
 16
1.0
 26
0.0
 36
0.0
 17
0.0
 27
1.0
 37
0.0
 76
0
330
21A
345
0
346
0
  0
LAYOUT
  5
433
102
{ACAD_REACTORS
330
1A
102
}
100
AcDbPlotSettings
  1

  2
none_device
  4

  6

 40
0.0
 41
0.0
 42
0.0
 43
0.0
 44
210.0
 45
297.0
 46
0.0
 47
0.0
 48
0.0
 49
0.0
140
0.0
141
0.0
142
1.0
143
1.0
 70
0
 72
1
 73
0
 74
0
  7

 75
0
147
1.0
148
0.0
149
0.0
100
AcDbLayout
  1
Layout1
 70
0
 71
1
 10
0.0
 20
0.0
 11
210.0
 21
297.0
 12
0.0
 22
0.0
 32
0.0
 14
0.0
 24
0.0
 34
0.0
 15
0.0
 25
0.0
 35
0.0
146
0.0
 13
0.0
 23
0.0
 33
0.0
 16
1.0
 26
0.0
 36
0.0
 17
0.0
 27
1.0
 37
0.0
 76
0
330
21B
345
0
346
0
  0
ENDSEC
  0
EOF
