999
DXF file: C:\Users\sesa63760\Dev\_Creo\CAD\MCADID0001251_3D-CAD\drw0001_7.dxf
999
Pro/ENGINEER 2019471 by Parametric Technology Corporation
  0
SECTION
  2
HEADER
  9
$ACADVER
  1
AC1024
  9
$DWGCODEPAGE
  3
ANSI_1252
  9
$EXTMAX
 10
193.1090909091
 20
273.1114285714
 30
0.0
  9
$EXTMIN
 10
0.0
 20
0.0
 30
0.0
  9
$LIMMIN
 10
0.0
 20
0.0
  9
$LIMMAX
 10
193.1090909091
 20
273.1114285714
  9
$VIEWCTR
 10
96.5545454545
 20
136.5557142857
  9
$VIEWSIZE
 40
273.1114285714
  9
$CLAYER
  8
0
  9
$LTSCALE
 40
17.8028190476
  9
$CELTYPE
  6
BYLAYER
  9
$DIMSCALE
 40
1.0
  9
$DIMASZ
 40
2.2989177489
  9
$DIMEXO
 40
1.0
  9
$DIMDLI
 40
12.3001295238
  9
$DIMEXE
 40
1.0
  9
$DIMCEN
 40
2.9131885714
  9
$DIMLFAC
 40
1.0
  9
$DIMBLK
  1
_FILLED
  9
$DIMALT
 70
0
  9
$DIMALTF
 40
0.0393700787
  9
$DIMTXT
 40
3.2184848485
  9
$DIMTOL
 70
1
  9
$DIMLIM
 70
0
  9
$DIMTFAC
 40
1.0
  9
$DIMTP
 40
0.01
  9
$DIMTM
 40
0.01
  9
$DIMGAP
 40
0.625
  9
$DIMDSEP
 70
46
  9
$AUNITS
 70
0
  9
$PDMODE
 70
3
  9
$PDSIZE
 40
0.3125
  9
$HANDSEED
  5
2BB
  9
$TILEMODE
 70
1
  9
$MEASUREMENT
 70
1
  9
$INSUNITS
 70
4
  0
ENDSEC
  0
SECTION
  2
CLASSES
  0
CLASS
  1
ACDBDICTIONARYWDFLT
  2
AcDbDictionaryWithDefault
  3
AutoCAD 2000
 90
0
 91
1
280
0
281
0
  0
CLASS
  1
ACDBPLACEHOLDER
  2
AcDbPlaceHolder
  3
AutoCAD 2000
 90
0
 91
1
280
0
281
0
  0
CLASS
  1
LAYOUT
  2
AcDbLayout
  3
AutoCAD 2000
 90
0
 91
0
280
0
281
0
  0
ENDSEC
  0
SECTION
  2
TABLES
  0
TABLE
  2
VPORT
  5
8
100
AcDbSymbolTable
 70
2
  0
VPORT
  5
1F4
100
AcDbSymbolTableRecord
100
AcDbViewportTableRecord
  2
*ACTIVE
 70
0
 10
0.0
 20
0.0
 11
1.0
 21
1.0
 12
96.5545454545
 22
136.5557142857
 13
0.0
 23
0.0
 14
1.0
 24
1.0
 15
0.0
 25
0.0
 16
0.0
 26
0.0
 36
1.0
 17
0.0
 27
0.0
 37
0.0
 40
273.1114285714
 41
0.7070707071
 42
50.0
 43
0.0
 44
0.0
 50
0.0
 51
0.0
 71
0
 72
100
 73
1
 74
1
 75
0
 76
0
 77
0
 78
0
  0
ENDTAB
  0
TABLE
  2
LTYPE
  5
5
100
AcDbSymbolTable
 70
6
  0
LTYPE
  5
14
100
AcDbSymbolTableRecord
100
AcDbLinetypeTableRecord
  2
BYBLOCK
 70
0
  3

 72
65
 73
0
 40
0.0
  0
LTYPE
  5
15
100
AcDbSymbolTableRecord
100
AcDbLinetypeTableRecord
  2
BYLAYER
 70
0
  3

 72
65
 73
0
 40
0.0
  0
LTYPE
  5
16
100
AcDbSymbolTableRecord
100
AcDbLinetypeTableRecord
  2
CONTINUOUS
 70
64
  3
Solid line
 72
65
 73
0
 40
0.0
  0
LTYPE
  5
1F5
100
AcDbSymbolTableRecord
100
AcDbLinetypeTableRecord
  2
CENTER
 70
64
  3
____ _ ____ _ ____ _ ____ _ ____ _ ____ _ ____
 72
65
 73
4
 40
0.6
 49
0.375
 74
0
 49
-0.075
 74
0
 49
0.075
 74
0
 49
-0.075
 74
0
  0
LTYPE
  5
1F6
100
AcDbSymbolTableRecord
100
AcDbLinetypeTableRecord
  2
HIDDEN
 70
64
  3
- - - - - - - - - - - - - - - - - - - -
 72
65
 73
2
 40
0.2
 49
0.1
 74
0
 49
-0.1
 74
0
  0
LTYPE
  5
1F7
100
AcDbSymbolTableRecord
100
AcDbLinetypeTableRecord
  2
PHANTOM
 70
64
  3
_____ _ _ _____ _ _ _____ _ _ _____
 72
65
 73
6
 40
0.8
 49
0.45
 74
0
 49
-0.05
 74
0
 49
0.1
 74
0
 49
-0.05
 74
0
 49
0.1
 74
0
 49
-0.05
 74
0
  0
LTYPE
  5
1F8
100
AcDbSymbolTableRecord
100
AcDbLinetypeTableRecord
  2
DOT
 70
64
  3
. . . . . . . . . . . . . . . . . . . .
 72
65
 73
2
 40
0.2
 49
0.1
 74
0
 49
-0.1
 74
0
  0
LTYPE
  5
1F9
100
AcDbSymbolTableRecord
100
AcDbLinetypeTableRecord
  2
DASHED
 70
64
  3
- - - - - - - - - - - - - - - - - - - -
 72
65
 73
2
 40
0.2
 49
0.1
 74
0
 49
-0.1
 74
0
  0
ENDTAB
  0
TABLE
  2
LAYER
  5
2
100
AcDbSymbolTable
 70
36
  0
LAYER
  5
10
100
AcDbSymbolTableRecord
100
AcDbLayerTableRecord
  2
0
 70
0
 62
7
  6
CONTINUOUS
370
-3
390
F
  0
LAYER
  5
1FA
100
AcDbSymbolTableRecord
100
AcDbLayerTableRecord
  2
DEFAULT_1
 70
0
 62
7
  6
CENTER
370
-3
390
F
  0
LAYER
  5
1FB
100
AcDbSymbolTableRecord
100
AcDbLayerTableRecord
  2
DEFAULT_2
 70
0
 62
8
  6
HIDDEN
370
-3
390
F
  0
LAYER
  5
1FC
100
AcDbSymbolTableRecord
100
AcDbLayerTableRecord
  2
DEFAULT_3
 70
0
 62
7
  6
PHANTOM
370
-3
390
F
  0
LAYER
  5
1FD
100
AcDbSymbolTableRecord
100
AcDbLayerTableRecord
  2
00_COMPONENTS
 70
0
 62
7
  6
CONTINUOUS
370
-3
390
F
  0
LAYER
  5
1FE
100
AcDbSymbolTableRecord
100
AcDbLayerTableRecord
  2
01_1_DEFAULT_DATUMS
 70
0
 62
7
  6
CONTINUOUS
370
-3
390
F
  0
LAYER
  5
1FF
100
AcDbSymbolTableRecord
100
AcDbLayerTableRecord
  2
01_PLANES
 70
0
 62
7
  6
CONTINUOUS
370
-3
390
F
  0
LAYER
  5
200
100
AcDbSymbolTableRecord
100
AcDbLayerTableRecord
  2
02_COORD_SYS
 70
0
 62
7
  6
CONTINUOUS
370
-3
390
F
  0
LAYER
  5
201
100
AcDbSymbolTableRecord
100
AcDbLayerTableRecord
  2
03_AXES
 70
0
 62
7
  6
CONTINUOUS
370
-3
390
F
  0
LAYER
  5
202
100
AcDbSymbolTableRecord
100
AcDbLayerTableRecord
  2
04_POINTS
 70
0
 62
7
  6
CONTINUOUS
370
-3
390
F
  0
LAYER
  5
203
100
AcDbSymbolTableRecord
100
AcDbLayerTableRecord
  2
05_CURVES
 70
0
 62
7
  6
CONTINUOUS
370
-3
390
F
  0
LAYER
  5
204
100
AcDbSymbolTableRecord
100
AcDbLayerTableRecord
  2
06_SURFS
 70
0
 62
7
  6
CONTINUOUS
370
-3
390
F
  0
LAYER
  5
205
100
AcDbSymbolTableRecord
100
AcDbLayerTableRecord
  2
07_COSMETICS
 70
0
 62
7
  6
CONTINUOUS
370
-3
390
F
  0
LAYER
  5
206
100
AcDbSymbolTableRecord
100
AcDbLayerTableRecord
  2
1
 70
0
 62
7
  6
CONTINUOUS
370
-3
390
F
  0
LAYER
  5
207
100
AcDbSymbolTableRecord
100
AcDbLayerTableRecord
  2
10_NOTES
 70
0
 62
7
  6
CONTINUOUS
370
-3
390
F
  0
LAYER
  5
208
100
AcDbSymbolTableRecord
100
AcDbLayerTableRecord
  2
11_NOTES_PUB
 70
0
 62
7
  6
CONTINUOUS
370
-3
390
F
  0
LAYER
  5
209
100
AcDbSymbolTableRecord
100
AcDbLayerTableRecord
  2
13_REF_GTOL
 70
0
 62
7
  6
CONTINUOUS
370
-3
390
F
  0
LAYER
  5
20A
100
AcDbSymbolTableRecord
100
AcDbLayerTableRecord
  2
16_MISC
 70
0
 62
7
  6
CONTINUOUS
370
-3
390
F
  0
LAYER
  5
20B
100
AcDbSymbolTableRecord
100
AcDbLayerTableRecord
  2
17_NO_PRINT
 70
0
 62
7
  6
CONTINUOUS
370
-3
390
F
  0
LAYER
  5
20C
100
AcDbSymbolTableRecord
100
AcDbLayerTableRecord
  2
18_DATUM_CAMS_JOINTS
 70
0
 62
7
  6
CONTINUOUS
370
-3
390
F
  0
LAYER
  5
20D
100
AcDbSymbolTableRecord
100
AcDbLayerTableRecord
  2
19_DATUM_FUNCTIONAL
 70
0
 62
7
  6
CONTINUOUS
370
-3
390
F
  0
LAYER
  5
20E
100
AcDbSymbolTableRecord
100
AcDbLayerTableRecord
  2
2
 70
0
 62
7
  6
CONTINUOUS
370
-3
390
F
  0
LAYER
  5
20F
100
AcDbSymbolTableRecord
100
AcDbLayerTableRecord
  2
20_DATUM_KINEMATIC_SCHEME
 70
0
 62
7
  6
CONTINUOUS
370
-3
390
F
  0
ENDTAB
  0
TABLE
  2
STYLE
  5
3
100
AcDbSymbolTable
 70
1
  0
STYLE
  5
11
100
AcDbSymbolTableRecord
100
AcDbTextStyleTableRecord
  2
STANDARD
 70
0
 40
0.0
 41
0.8
 50
0.0
 71
0
 42
0.2
  3
txt
  4

  0
STYLE
  5
210
100
AcDbSymbolTableRecord
100
AcDbTextStyleTableRecord
  2
TEXTSTYLE_1
 70
0
 40
0.0
 41
0.8
 50
0.0
 71
0
 42
0.2
  3
gdt
  4

  0
ENDTAB
  0
TABLE
  2
VIEW
  5
6
100
AcDbSymbolTable
 70
0
  0
ENDTAB
  0
TABLE
  2
UCS
  5
7
100
AcDbSymbolTable
 70
0
  0
ENDTAB
  0
TABLE
  2
APPID
  5
9
100
AcDbSymbolTable
 70
1
  0
APPID
  5
211
100
AcDbSymbolTableRecord
100
AcDbRegAppTableRecord
  2
ACAD
 70
0
  0
ENDTAB
  0
TABLE
  2
BLOCK_RECORD
  5
1
100
AcDbSymbolTable
 70
0
  0
BLOCK_RECORD
  5
212
100
AcDbSymbolTableRecord
100
AcDbBlockTableRecord
  2
*Model_Space
  0
BLOCK_RECORD
  5
213
100
AcDbSymbolTableRecord
100
AcDbBlockTableRecord
  2
*Paper_Space
  0
BLOCK_RECORD
  5
214
100
AcDbSymbolTableRecord
100
AcDbBlockTableRecord
  2
_FILLED
  0
ENDTAB
  0
TABLE
  2
DIMSTYLE
  5
A
100
AcDbSymbolTable
 70
1
100
AcDbDimStyleTable
 71
0
  0
DIMSTYLE
105
215
100
AcDbSymbolTableRecord
100
AcDbDimStyleTableRecord
  2
STANDARD
 70
0
  3

  4

 40
1.0
 41
2.2989177489
 42
1.0
 43
0.38
 44
1.0
 45
0.0
 46
0.0
 47
0.01
 48
0.01
140
3.2184848485
141
0.09
142
0.0
143
25.4
144
1.0
145
0.0
146
1.0
147
0.625
 71
1
 72
0
 73
0
 74
0
 75
0
 76
0
 77
1
 78
8
 79
2
170
0
171
1
172
0
173
0
174
0
175
0
176
0
177
0
178
0
270
2
179
2
271
2
272
2
273
2
274
2
275
0
280
0
281
0
282
0
283
1
284
8
285
0
286
0
287
3
288
0
340
11
278
46
341
214
342
214
343
214
344
214
  0
ENDTAB
  0
ENDSEC
  0
SECTION
  2
BLOCKS
  0
BLOCK
  5
20
100
AcDbEntity
  8
0
100
AcDbBlockBegin
  2
*Model_Space
 70
0
 10
0.0
 20
0.0
 30
0.0
  3
*Model_Space
  1

  0
ENDBLK
  5
21
100
AcDbEntity
  8
0
100
AcDbBlockEnd
  0
BLOCK
  5
1C
100
AcDbEntity
  8
0
100
AcDbBlockBegin
  2
*Paper_Space
 70
0
 10
0.0
 20
0.0
 30
0.0
  3
*Paper_Space
  1

  0
ENDBLK
  5
1D
100
AcDbEntity
  8
0
100
AcDbBlockEnd
  0
BLOCK
  5
216
100
AcDbEntity
  8
0
100
AcDbBlockBegin
  2
_FILLED
 70
64
 10
0.0
 20
0.0
  3
_FILLED
  1

  0
SOLID
  5
217
100
AcDbEntity
  8
0
  6
BYBLOCK
 62
0
100
AcDbTrace
 10
0.0
 20
0.0
 11
-1.0
 21
0.25
 12
-1.0
 22
-0.25
 13
-1.0
 23
-0.25
  0
ENDBLK
  5
218
100
AcDbEntity
  8
0
  6
BYBLOCK
 62
0
100
AcDbBlockEnd
  0
ENDSEC
  0
SECTION
  2
ENTITIES
  0
LINE
  5
219
100
AcDbEntity
  8
1
100
AcDbLine
 62
7
  6
CONTINUOUS
 10
77.1088311688
 20
20.2242857143
 11
81.0088311688
 21
20.2242857143
  0
LINE
  5
21A
100
AcDbEntity
  8
1
100
AcDbLine
 62
7
  6
CONTINUOUS
 10
68.8888311688
 20
28.2242857143
 11
66.8888311688
 21
28.2242857143
  0
LINE
  5
21B
100
AcDbEntity
  8
1
100
AcDbLine
 62
7
  6
CONTINUOUS
 10
67.1111350858
 20
31.171928495
 11
69.062270935
 21
31.171928495
  0
LINE
  5
21C
100
AcDbEntity
  8
1
100
AcDbLine
 62
7
  6
CONTINUOUS
 10
118.6888311688
 20
32.5850552297
 11
117.6888311688
 21
32.5850552297
  0
LINE
  5
21D
100
AcDbEntity
  8
1
100
AcDbLine
 62
7
  6
CONTINUOUS
 10
71.0888311688
 20
32.5850552297
 11
70.0888311688
 21
32.5850552297
  0
LINE
  5
21E
100
AcDbEntity
  8
1
100
AcDbLine
 62
7
  6
CONTINUOUS
 10
69.0736743091
 20
34.2766429336
 11
67.1226422848
 21
34.2766429336
  0
LINE
  5
21F
100
AcDbEntity
  8
1
100
AcDbLine
 62
7
  6
CONTINUOUS
 10
41.8888311688
 20
37.2242857143
 11
151.8888311688
 21
37.2242857143
  0
LINE
  5
220
100
AcDbEntity
  8
2
100
AcDbLine
 62
7
  6
CONTINUOUS
 10
126.3362357583
 20
41.2242857143
 11
133.5370175101
 21
41.2242857143
  0
LINE
  5
221
100
AcDbEntity
  8
2
100
AcDbLine
 62
7
  6
CONTINUOUS
 10
133.5414265794
 20
41.2242857143
 11
139.8362357583
 21
41.2242857143
  0
LINE
  5
222
100
AcDbEntity
  8
2
100
AcDbLine
 62
7
  6
CONTINUOUS
 10
139.8406448276
 20
41.2242857143
 11
147.2409126968
 21
41.2242857143
  0
LINE
  5
223
100
AcDbEntity
  8
2
100
AcDbLine
 62
7
  6
CONTINUOUS
 10
147.2409126968
 20
41.3716678533
 11
139.8406448276
 21
41.3716678533
  0
LINE
  5
224
100
AcDbEntity
  8
2
100
AcDbLine
 62
7
  6
CONTINUOUS
 10
133.5370175101
 20
41.3716678533
 11
126.3362357583
 21
41.3716678533
  0
LINE
  5
225
100
AcDbEntity
  8
2
100
AcDbLine
 62
7
  6
CONTINUOUS
 10
139.6906676733
 20
41.3742857143
 11
133.6869946643
 21
41.3742857143
  0
LINE
  5
226
100
AcDbEntity
  8
2
100
AcDbLine
 62
7
  6
CONTINUOUS
 10
139.6888311688
 20
41.5242857143
 11
133.6888311688
 21
41.5242857143
  0
LINE
  5
227
100
AcDbEntity
  8
2
100
AcDbLine
 62
7
  6
CONTINUOUS
 10
126.3240172129
 20
42.0716678533
 11
133.5368042346
 21
42.0716678533
  0
LINE
  5
228
100
AcDbEntity
  8
2
100
AcDbLine
 62
7
  6
CONTINUOUS
 10
139.8408581031
 20
42.0716678533
 11
146.9509632032
 21
42.0716678533
  0
LINE
  5
229
100
AcDbEntity
  8
2
100
AcDbLine
 62
7
  6
CONTINUOUS
 10
133.6867813888
 20
42.0742857143
 11
133.7011743933
 21
42.0742857143
  0
LINE
  5
22A
100
AcDbEntity
  8
2
100
AcDbLine
 62
7
  6
CONTINUOUS
 10
139.6764879443
 20
42.0742857143
 11
139.6908809488
 21
42.0742857143
  0
LINE
  5
22B
100
AcDbEntity
  8
1
100
AcDbLine
 62
7
  6
CONTINUOUS
 10
146.8888311688
 20
42.2242857143
 11
115.8888311688
 21
42.2242857143
  0
LINE
  5
22C
100
AcDbEntity
  8
1
100
AcDbLine
 62
7
  6
CONTINUOUS
 10
71.8388311688
 20
34.4840933354
 11
71.0888311688
 21
34.9171060373
  0
LINE
  5
22D
100
AcDbEntity
  8
1
100
AcDbLine
 62
7
  6
CONTINUOUS
 10
41.8888311688
 20
52.2242857143
 11
151.8888311688
 21
52.2242857143
  0
LINE
  5
22E
100
AcDbEntity
  8
1
100
AcDbLine
 62
7
  6
CONTINUOUS
 10
151.8888311688
 20
52.7242857143
 11
41.8888311688
 21
52.7242857143
  0
LINE
  5
22F
100
AcDbEntity
  8
1
100
AcDbLine
 62
7
  6
CONTINUOUS
 10
126.0480101062
 20
60.28075426
 11
117.6183996468
 21
60.28075426
  0
LINE
  5
230
100
AcDbEntity
  8
1
100
AcDbLine
 62
7
  6
CONTINUOUS
 10
41.8888311688
 20
52.2242857143
 11
41.8888311688
 21
37.2242857143
  0
LINE
  5
231
100
AcDbEntity
  8
1
100
AcDbLine
 62
7
  6
CONTINUOUS
 10
41.8888311688
 20
52.7242857143
 11
41.8888311688
 21
254.2242857143
  0
LINE
  5
232
100
AcDbEntity
  8
1
100
AcDbLine
 62
7
  6
CONTINUOUS
 10
42.8888311688
 20
52.7242857143
 11
42.8888311688
 21
52.2242857143
  0
LINE
  5
233
100
AcDbEntity
  8
1
100
AcDbLine
 62
7
  6
CONTINUOUS
 10
44.1888311688
 20
174.2242857143
 11
44.1888311688
 21
249.7242857143
  0
LINE
  5
234
100
AcDbEntity
  8
1
100
AcDbLine
 62
7
  6
CONTINUOUS
 10
46.1888311688
 20
248.2242857143
 11
46.1888311688
 21
174.2242857143
  0
LINE
  5
235
100
AcDbEntity
  8
1
100
AcDbLine
 62
7
  6
CONTINUOUS
 10
117.6183996468
 20
81.8851201396
 11
126.0480101062
 21
81.8851201396
  0
LINE
  5
236
100
AcDbEntity
  8
1
100
AcDbLine
 62
7
  6
CONTINUOUS
 10
125.6864244569
 20
83.3673730905
 11
113.7537805118
 21
83.3673730905
  0
LINE
  5
237
100
AcDbEntity
  8
1
100
AcDbLine
 62
7
  6
CONTINUOUS
 10
50.4934742676
 20
107.8540828435
 11
50.4934742676
 21
143.8351912306
  0
LINE
  5
238
100
AcDbEntity
  8
1
100
AcDbLine
 62
7
  6
CONTINUOUS
 10
51.8888311688
 20
37.2242857143
 11
51.8888311688
 21
107.8540828435
  0
LINE
  5
239
100
AcDbEntity
  8
1
100
AcDbLine
 62
7
  6
CONTINUOUS
 10
51.8888311688
 20
143.8351912306
 11
51.8888311688
 21
165.9242857143
  0
LINE
  5
23A
100
AcDbEntity
  8
1
100
AcDbLine
 62
7
  6
CONTINUOUS
 10
62.3388311688
 20
246.5242857143
 11
62.3388311688
 21
245.3242857143
  0
LINE
  5
23B
100
AcDbEntity
  8
1
100
AcDbLine
 62
7
  6
CONTINUOUS
 10
116.8290235477
 20
34.0742857142
 11
117.6888311688
 21
32.5850552297
  0
LINE
  5
23C
100
AcDbEntity
  8
1
100
AcDbLine
 62
7
  6
CONTINUOUS
 10
69.54988392
 20
36.7522227401
 11
70.0888311688
 21
32.5850552297
  0
LINE
  5
23D
100
AcDbEntity
  8
1
100
AcDbLine
 62
7
  6
CONTINUOUS
 10
64.3388311688
 20
248.2242857143
 11
64.3388311688
 21
246.5242857143
  0
LINE
  5
23E
100
AcDbEntity
  8
1
100
AcDbLine
 62
7
  6
CONTINUOUS
 10
64.4261064935
 20
246.5242857143
 11
64.4261064935
 21
248.2242857143
  0
LINE
  5
23F
100
AcDbEntity
  8
1
100
AcDbLine
 62
7
  6
CONTINUOUS
 10
65.4759704558
 20
246.5242857143
 11
65.4759704558
 21
248.2242857143
  0
LINE
  5
240
100
AcDbEntity
  8
1
100
AcDbLine
 62
7
  6
CONTINUOUS
 10
66.3388311688
 20
245.3242857143
 11
66.3388311688
 21
248.2242857143
  0
LINE
  5
241
100
AcDbEntity
  8
1
100
AcDbLine
 62
7
  6
CONTINUOUS
 10
66.8888311688
 20
37.2242857143
 11
66.8888311688
 21
28.2242857143
  0
LINE
  5
242
100
AcDbEntity
  8
1
100
AcDbLine
 62
7
  6
CONTINUOUS
 10
66.9575571963
 20
143.8351912306
 11
66.9575571963
 21
107.8540828435
  0
LINE
  5
243
100
AcDbEntity
  8
1
100
AcDbLine
 62
7
  6
CONTINUOUS
 10
68.8888311688
 20
28.2242857143
 11
68.8888311688
 21
28.5427803666
  0
LINE
  5
244
100
AcDbEntity
  8
1
100
AcDbLine
 62
7
  6
CONTINUOUS
 10
71.0888311688
 20
37.2242857143
 11
71.0888311688
 21
34.9171060373
  0
LINE
  5
245
100
AcDbEntity
  8
1
100
AcDbLine
 62
7
  6
CONTINUOUS
 10
79.7888311688
 20
106.0596957143
 11
74.2888311688
 21
106.0596957143
  0
LINE
  5
246
100
AcDbEntity
  8
1
100
AcDbLine
 62
7
  6
CONTINUOUS
 10
74.2888311688
 20
107.7242857143
 11
79.7888311688
 21
107.7242857143
  0
LINE
  5
247
100
AcDbEntity
  8
1
100
AcDbLine
 62
7
  6
CONTINUOUS
 10
50.4934742676
 20
107.8540828435
 11
66.9575571963
 21
107.8540828435
  0
LINE
  5
248
100
AcDbEntity
  8
1
100
AcDbLine
 62
7
  6
CONTINUOUS
 10
74.1088311688
 20
23.2242857143
 11
74.1088311688
 21
34.2242857143
  0
LINE
  5
249
100
AcDbEntity
  8
1
100
AcDbLine
 62
7
  6
CONTINUOUS
 10
74.2888311688
 20
106.0596957143
 11
74.2888311688
 21
107.7242857143
  0
LINE
  5
24A
100
AcDbEntity
  8
1
100
AcDbLine
 62
7
  6
CONTINUOUS
 10
74.2888311688
 20
143.6242857143
 11
74.2888311688
 21
145.2888757143
  0
LINE
  5
24B
100
AcDbEntity
  8
1
100
AcDbLine
 62
7
  6
CONTINUOUS
 10
78.0088311688
 20
37.2242857143
 11
78.0088311688
 21
20.2242857143
  0
LINE
  5
24C
100
AcDbEntity
  8
1
100
AcDbLine
 62
7
  6
CONTINUOUS
 10
80.2888311688
 20
108.2242857143
 11
80.2888311688
 21
143.1242857143
  0
LINE
  5
24D
100
AcDbEntity
  8
1
100
AcDbLine
 62
7
  6
CONTINUOUS
 10
113.7537805118
 20
115.3971015748
 11
125.6864244569
 21
115.3971015748
  0
LINE
  5
24E
100
AcDbEntity
  8
1
100
AcDbLine
 62
7
  6
CONTINUOUS
 10
125.6476373639
 20
119.3831044564
 11
112.5635979504
 21
119.3831044564
  0
LINE
  5
24F
100
AcDbEntity
  8
1
100
AcDbLine
 62
7
  6
CONTINUOUS
 10
81.0088311688
 20
20.2242857143
 11
81.0088311688
 21
37.2242857143
  0
LINE
  5
250
100
AcDbEntity
  8
1
100
AcDbLine
 62
7
  6
CONTINUOUS
 10
81.9534211688
 20
143.1242857143
 11
81.9534211688
 21
108.2242857143
  0
LINE
  5
251
100
AcDbEntity
  8
1
100
AcDbLine
 62
7
  6
CONTINUOUS
 10
79.7888311688
 20
143.6242857143
 11
74.2888311688
 21
143.6242857143
  0
LINE
  5
252
100
AcDbEntity
  8
1
100
AcDbLine
 62
7
  6
CONTINUOUS
 10
50.4934742676
 20
143.8351912306
 11
66.9575571963
 21
143.8351912306
  0
LINE
  5
253
100
AcDbEntity
  8
1
100
AcDbLine
 62
7
  6
CONTINUOUS
 10
74.2888311688
 20
145.2888757143
 11
79.7888311688
 21
145.2888757143
  0
LINE
  5
254
100
AcDbEntity
  8
1
100
AcDbLine
 62
7
  6
CONTINUOUS
 10
112.5635979504
 20
119.3831044564
 11
112.5635979504
 21
151.2209336959
  0
LINE
  5
255
100
AcDbEntity
  8
1
100
AcDbLine
 62
7
  6
CONTINUOUS
 10
113.7537805118
 20
83.3673730905
 11
113.7537805118
 21
115.3971015748
  0
LINE
  5
256
100
AcDbEntity
  8
1
100
AcDbLine
 62
7
  6
CONTINUOUS
 10
112.5635979504
 20
151.2209336959
 11
125.6476373639
 21
151.2209336959
  0
LINE
  5
257
100
AcDbEntity
  8
1
100
AcDbLine
 62
7
  6
CONTINUOUS
 10
115.8888311688
 20
42.2242857143
 11
115.8888311688
 21
37.2242857143
  0
LINE
  5
258
100
AcDbEntity
  8
1
100
AcDbLine
 62
7
  6
CONTINUOUS
 10
117.6183996468
 20
60.28075426
 11
117.6183996468
 21
81.8851201396
  0
LINE
  5
259
100
AcDbEntity
  8
1
100
AcDbLine
 62
7
  6
CONTINUOUS
 10
117.6888311688
 20
34.9171060373
 11
117.6888311688
 21
37.2242857143
  0
LINE
  5
25A
100
AcDbEntity
  8
2
100
AcDbLine
 62
7
  6
CONTINUOUS
 10
126.186258604
 20
41.3716678533
 11
126.1740400586
 21
42.0716678533
  0
LINE
  5
25B
100
AcDbEntity
  8
2
100
AcDbLine
 62
7
  6
CONTINUOUS
 10
126.3240172129
 20
42.0716678533
 11
126.3362357583
 21
41.3716678533
  0
LINE
  5
25C
100
AcDbEntity
  8
1
100
AcDbLine
 62
7
  6
CONTINUOUS
 10
125.6476373639
 20
151.2209336959
 11
125.6476373639
 21
119.3831044564
  0
LINE
  5
25D
100
AcDbEntity
  8
1
100
AcDbLine
 62
7
  6
CONTINUOUS
 10
125.6864244569
 20
115.3971015748
 11
125.6864244569
 21
83.3673730905
  0
LINE
  5
25E
100
AcDbEntity
  8
1
100
AcDbLine
 62
7
  6
CONTINUOUS
 10
125.8888311688
 20
37.2242857143
 11
125.8888311688
 21
42.2242857143
  0
LINE
  5
25F
100
AcDbEntity
  8
1
100
AcDbLine
 62
7
  6
CONTINUOUS
 10
126.0480101062
 20
81.8851201396
 11
126.0480101062
 21
60.28075426
  0
LINE
  5
260
100
AcDbEntity
  8
2
100
AcDbLine
 62
7
  6
CONTINUOUS
 10
126.3240172129
 20
42.0716678533
 11
126.3240172129
 21
42.2242857143
  0
LINE
  5
261
100
AcDbEntity
  8
2
100
AcDbLine
 62
7
  6
CONTINUOUS
 10
126.3362357583
 20
41.2242857143
 11
126.3362357583
 21
41.3716678533
  0
LINE
  5
262
100
AcDbEntity
  8
1
100
AcDbLine
 62
7
  6
CONTINUOUS
 10
127.4388311688
 20
245.3242857143
 11
127.4388311688
 21
248.2242857143
  0
LINE
  5
263
100
AcDbEntity
  8
1
100
AcDbLine
 62
7
  6
CONTINUOUS
 10
128.3016918819
 20
246.5242857143
 11
128.3016918819
 21
248.2242857143
  0
LINE
  5
264
100
AcDbEntity
  8
1
100
AcDbLine
 62
7
  6
CONTINUOUS
 10
129.3515558442
 20
246.5242857143
 11
129.3515558442
 21
248.2242857143
  0
LINE
  5
265
100
AcDbEntity
  8
1
100
AcDbLine
 62
7
  6
CONTINUOUS
 10
129.4388311688
 20
248.2242857143
 11
129.4388311688
 21
246.5242857143
  0
LINE
  5
266
100
AcDbEntity
  8
1
100
AcDbLine
 62
7
  6
CONTINUOUS
 10
130.8888311688
 20
37.2242857143
 11
130.8888311688
 21
41.2242857143
  0
LINE
  5
267
100
AcDbEntity
  8
1
100
AcDbLine
 62
7
  6
CONTINUOUS
 10
131.4388311688
 20
246.5242857143
 11
131.4388311688
 21
245.3242857143
  0
LINE
  5
268
100
AcDbEntity
  8
1
100
AcDbLine
 62
7
  6
CONTINUOUS
 10
118.6888311688
 20
32.5850552297
 11
119.2888311688
 21
37.2242857143
  0
LINE
  5
269
100
AcDbEntity
  8
1
100
AcDbLine
 62
7
  6
CONTINUOUS
 10
71.0888311688
 20
32.5850552297
 11
71.94863879
 21
34.0742857143
  0
LINE
  5
26A
100
AcDbEntity
  8
1
100
AcDbLine
 62
7
  6
CONTINUOUS
 10
48.8888311688
 20
165.9242857143
 11
51.8888311688
 21
165.9242857143
  0
LINE
  5
26B
100
AcDbEntity
  8
1
100
AcDbLine
 62
7
  6
CONTINUOUS
 10
141.8888311688
 20
165.9242857143
 11
144.8888311688
 21
165.9242857143
  0
LINE
  5
26C
100
AcDbEntity
  8
2
100
AcDbLine
 62
7
  6
CONTINUOUS
 10
139.6764879443
 20
42.0742857143
 11
139.6888311688
 21
41.5242857143
  0
LINE
  5
26D
100
AcDbEntity
  8
2
100
AcDbLine
 62
7
  6
CONTINUOUS
 10
133.6867813888
 20
42.0742857143
 11
133.6869946643
 21
41.3742857143
  0
LINE
  5
26E
100
AcDbEntity
  8
2
100
AcDbLine
 62
7
  6
CONTINUOUS
 10
133.5368042346
 20
42.2242857143
 11
133.5370175101
 21
41.2242857143
  0
LINE
  5
26F
100
AcDbEntity
  8
2
100
AcDbLine
 62
7
  6
CONTINUOUS
 10
139.6888311688
 20
41.5242857143
 11
139.6888311688
 21
41.3742857143
  0
LINE
  5
270
100
AcDbEntity
  8
2
100
AcDbLine
 62
7
  6
CONTINUOUS
 10
139.6906676733
 20
41.3742857143
 11
139.6908809488
 21
42.0742857143
  0
LINE
  5
271
100
AcDbEntity
  8
2
100
AcDbLine
 62
7
  6
CONTINUOUS
 10
139.8406448276
 20
41.2242857143
 11
139.8408581031
 21
42.2242855918
  0
LINE
  5
272
100
AcDbEntity
  8
2
100
AcDbLine
 62
7
  6
CONTINUOUS
 10
133.7011743933
 20
42.0742857143
 11
133.6888311688
 21
41.5242857143
  0
LINE
  5
273
100
AcDbEntity
  8
1
100
AcDbLine
 62
7
  6
CONTINUOUS
 10
44.1888311688
 20
174.2242857143
 11
46.1888311688
 21
174.2242857143
  0
LINE
  5
274
100
AcDbEntity
  8
1
100
AcDbLine
 62
7
  6
CONTINUOUS
 10
147.5888311688
 20
174.2242857143
 11
149.5888311688
 21
174.2242857143
  0
LINE
  5
275
100
AcDbEntity
  8
1
100
AcDbLine
 62
7
  6
CONTINUOUS
 10
44.1888311688
 20
174.585680582
 11
46.1888311688
 21
174.585680582
  0
LINE
  5
276
100
AcDbEntity
  8
1
100
AcDbLine
 62
7
  6
CONTINUOUS
 10
147.5888311688
 20
174.585680582
 11
149.5888311688
 21
174.585680582
  0
LINE
  5
277
100
AcDbEntity
  8
1
100
AcDbLine
 62
7
  6
CONTINUOUS
 10
141.8888311688
 20
165.9242857143
 11
141.8888311688
 21
42.2242857143
  0
LINE
  5
278
100
AcDbEntity
  8
1
100
AcDbLine
 62
7
  6
CONTINUOUS
 10
146.8888311688
 20
41.2242857143
 11
146.8888311688
 21
37.2242857143
  0
LINE
  5
279
100
AcDbEntity
  8
2
100
AcDbLine
 62
7
  6
CONTINUOUS
 10
147.2409126968
 20
41.3716678533
 11
147.2409126968
 21
41.2242857143
  0
LINE
  5
27A
100
AcDbEntity
  8
1
100
AcDbLine
 62
7
  6
CONTINUOUS
 10
147.5888311688
 20
174.2242857143
 11
147.5888311688
 21
248.2242857143
  0
LINE
  5
27B
100
AcDbEntity
  8
1
100
AcDbLine
 62
7
  6
CONTINUOUS
 10
149.5888311688
 20
249.7242857143
 11
149.5888311688
 21
174.2242857143
  0
LINE
  5
27C
100
AcDbEntity
  8
1
100
AcDbLine
 62
7
  6
CONTINUOUS
 10
149.5888311688
 20
184.5795888522
 11
147.5888311688
 21
184.5795888522
  0
LINE
  5
27D
100
AcDbEntity
  8
1
100
AcDbLine
 62
7
  6
CONTINUOUS
 10
46.1888311688
 20
184.5795888522
 11
44.1888311688
 21
184.5795888522
  0
LINE
  5
27E
100
AcDbEntity
  8
1
100
AcDbLine
 62
7
  6
CONTINUOUS
 10
150.8888311688
 20
52.2242857143
 11
150.8888311688
 21
52.7242857143
  0
LINE
  5
27F
100
AcDbEntity
  8
1
100
AcDbLine
 62
7
  6
CONTINUOUS
 10
151.8888311688
 20
37.2242857143
 11
151.8888311688
 21
52.2242857143
  0
LINE
  5
280
100
AcDbEntity
  8
1
100
AcDbLine
 62
7
  6
CONTINUOUS
 10
151.8888311688
 20
52.7242857143
 11
151.8888311688
 21
254.2242857143
  0
LINE
  5
281
100
AcDbEntity
  8
2
100
AcDbLine
 62
7
  6
CONTINUOUS
 10
150.1929546636
 20
44.32370982
 11
150.2105412716
 21
45.3312459218
  0
LINE
  5
282
100
AcDbEntity
  8
2
100
AcDbLine
 62
7
  6
CONTINUOUS
 10
150.3605184259
 20
45.3312459218
 11
150.3429318178
 21
44.32370982
  0
LINE
  5
283
100
AcDbEntity
  8
1
100
AcDbLine
 62
7
  6
CONTINUOUS
 10
146.8888311688
 20
42.2242857143
 11
151.8888311688
 21
47.2242857143
  0
LINE
  5
284
100
AcDbEntity
  8
2
100
AcDbLine
 62
7
  6
CONTINUOUS
 10
150.2105412716
 20
45.3312459218
 11
146.9509632032
 21
42.0716678533
  0
LINE
  5
285
100
AcDbEntity
  8
2
100
AcDbLine
 62
7
  6
CONTINUOUS
 10
147.2409126968
 20
41.3716678533
 11
150.1929546636
 21
44.32370982
  0
LINE
  5
286
100
AcDbEntity
  8
2
100
AcDbLine
 62
7
  6
CONTINUOUS
 10
150.2990206807
 20
44.2202616638
 11
147.346978714
 21
41.2682196971
  0
LINE
  5
287
100
AcDbEntity
  8
1
100
AcDbLine
 62
7
  6
CONTINUOUS
 10
117.6888311688
 20
34.9171060373
 11
116.9388311688
 21
34.4840933354
  0
LINE
  5
288
100
AcDbEntity
  8
1
100
AcDbLine
 62
7
  6
CONTINUOUS
 10
62.3388311688
 20
245.3242857143
 11
66.3388311688
 21
245.3242857143
  0
LINE
  5
289
100
AcDbEntity
  8
1
100
AcDbLine
 62
7
  6
CONTINUOUS
 10
127.4388311688
 20
245.3242857143
 11
131.4388311688
 21
245.3242857143
  0
LINE
  5
28A
100
AcDbEntity
  8
1
100
AcDbLine
 62
7
  6
CONTINUOUS
 10
62.3388311688
 20
246.5242857143
 11
65.4759704558
 21
246.5242857143
  0
LINE
  5
28B
100
AcDbEntity
  8
1
100
AcDbLine
 62
7
  6
CONTINUOUS
 10
128.3016918819
 20
246.5242857143
 11
131.4388311688
 21
246.5242857143
  0
LINE
  5
28C
100
AcDbEntity
  8
1
100
AcDbLine
 62
7
  6
CONTINUOUS
 10
147.5888311688
 20
248.2242857143
 11
46.1888311688
 21
248.2242857143
  0
LINE
  5
28D
100
AcDbEntity
  8
1
100
AcDbLine
 62
7
  6
CONTINUOUS
 10
44.1888311688
 20
249.7242857143
 11
41.8888311688
 21
249.7242857143
  0
LINE
  5
28E
100
AcDbEntity
  8
1
100
AcDbLine
 62
7
  6
CONTINUOUS
 10
149.5888311688
 20
249.7242857143
 11
151.8888311688
 21
249.7242857143
  0
LINE
  5
28F
100
AcDbEntity
  8
1
100
AcDbLine
 62
7
  6
CONTINUOUS
 10
41.8888311688
 20
254.2242857143
 11
151.8888311688
 21
254.2242857143
  0
ARC
  5
290
100
AcDbEntity
  8
1
100
AcDbCircle
 62
7
  6
CONTINUOUS
 10
71.1088311688
 20
34.2242857143
 40
3.0
100
AcDbArc
 50
0.0
 51
90.0
  0
ARC
  5
291
100
AcDbEntity
  8
1
100
AcDbCircle
 62
7
  6
CONTINUOUS
 10
77.1088311688
 20
23.2242857143
 40
3.0
100
AcDbArc
 50
180.0
 51
270.0
  0
ARC
  5
292
100
AcDbEntity
  8
1
100
AcDbCircle
 62
7
  6
CONTINUOUS
 10
71.6888311688
 20
34.2242857143
 40
0.3
100
AcDbArc
 50
330.0000000003
 51
59.9999999996
  0
ARC
  5
293
100
AcDbEntity
  8
1
100
AcDbCircle
 62
7
  6
CONTINUOUS
 10
48.8888311688
 20
172.9242857143
 40
7.0
100
AcDbArc
 50
180.0
 51
270.0
  0
ARC
  5
294
100
AcDbEntity
  8
1
100
AcDbCircle
 62
7
  6
CONTINUOUS
 10
79.7888311688
 20
108.2242857143
 40
2.16459
100
AcDbArc
 50
270.0
 51
360.0
  0
ARC
  5
295
100
AcDbEntity
  8
1
100
AcDbCircle
 62
7
  6
CONTINUOUS
 10
79.7888311688
 20
143.1242857143
 40
2.16459
100
AcDbArc
 50
0.0
 51
90.0
  0
ARC
  5
296
100
AcDbEntity
  8
1
100
AcDbCircle
 62
7
  6
CONTINUOUS
 10
79.7888311688
 20
143.1242857143
 40
0.5
100
AcDbArc
 50
0.0
 51
90.0
  0
ARC
  5
297
100
AcDbEntity
  8
1
100
AcDbCircle
 62
7
  6
CONTINUOUS
 10
79.7888311688
 20
108.2242857143
 40
0.5
100
AcDbArc
 50
270.0
 51
360.0
  0
ARC
  5
298
100
AcDbEntity
  8
1
100
AcDbCircle
 62
7
  6
CONTINUOUS
 10
117.0888311688
 20
34.2242857143
 40
0.3
100
AcDbArc
 50
120.0000000004
 51
210.0000000088
  0
ARC
  5
299
100
AcDbEntity
  8
2
100
AcDbCircle
 62
7
  6
CONTINUOUS
 10
126.3240172129
 20
42.0742857143
 40
0.15
100
AcDbArc
 50
90.0
 51
181.0
  0
ARC
  5
29A
100
AcDbEntity
  8
2
100
AcDbCircle
 62
7
  6
CONTINUOUS
 10
126.3362357583
 20
41.3742857143
 40
0.15
100
AcDbArc
 50
181.0000000001
 51
270.0
  0
ARC
  5
29B
100
AcDbEntity
  8
2
100
AcDbCircle
 62
7
  6
CONTINUOUS
 10
133.5370052931
 20
41.3742734989
 40
0.1499885784
100
AcDbArc
 50
270.0046669191
 51
0.0046662569
  0
ARC
  5
29C
100
AcDbEntity
  8
2
100
AcDbCircle
 62
7
  6
CONTINUOUS
 10
133.5367920176
 20
42.0742979297
 40
0.1499885784
100
AcDbArc
 50
359.9953337424
 51
89.9953330802
  0
ARC
  5
29D
100
AcDbEntity
  8
2
100
AcDbCircle
 62
7
  6
CONTINUOUS
 10
150.1929546636
 20
44.326327681
 40
0.15
100
AcDbArc
 50
315.0000000005
 51
359.0
  0
ARC
  5
29E
100
AcDbEntity
  8
2
100
AcDbCircle
 62
7
  6
CONTINUOUS
 10
150.2105412716
 20
45.3338637827
 40
0.15
100
AcDbArc
 50
358.9999999998
 51
135.0
  0
ARC
  5
29F
100
AcDbEntity
  8
2
100
AcDbCircle
 62
7
  6
CONTINUOUS
 10
147.2409126968
 20
41.3742857143
 40
0.15
100
AcDbArc
 50
270.0
 51
315.0
  0
ARC
  5
2A0
100
AcDbEntity
  8
2
100
AcDbCircle
 62
7
  6
CONTINUOUS
 10
139.8408703201
 20
42.0742979297
 40
0.1499885784
100
AcDbArc
 50
90.0046669205
 51
180.0046662583
  0
ARC
  5
2A1
100
AcDbEntity
  8
2
100
AcDbCircle
 62
7
  6
CONTINUOUS
 10
139.8406570446
 20
41.3742734989
 40
0.1499885784
100
AcDbArc
 50
179.9953337424
 51
269.9953330802
  0
ARC
  5
2A2
100
AcDbEntity
  8
1
100
AcDbCircle
 62
7
  6
CONTINUOUS
 10
144.8888311688
 20
172.9242857143
 40
7.0
100
AcDbArc
 50
270.0
 51
360.0
  0
SPLINE
  5
2A3
100
AcDbEntity
  8
2
100
AcDbSpline
 62
7
  6
CONTINUOUS
 70
0
 71
3
 72
18
 73
14
 74
0
 42
0.0000001
 43
0.0000001
 44
0.0000000001
 40
0.0
 40
0.0
 40
0.0
 40
0.0
 40
0.0052820608
 40
0.0209617842
 40
0.0467020969
 40
0.0821546947
 40
0.1268163496
 40
0.1799155389
 40
0.308232562
 40
0.460765444
 40
0.6312777944
 40
0.8133403031
 40
1.0
 40
1.0
 40
1.0
 40
1.0
 10
146.8888315153
 20
42.2242853678
 30
0.0
 10
146.8885507965
 20
42.2242120376
 30
0.0
 10
146.8897566781
 20
42.2226118665
 30
0.0
 10
146.8898733734
 20
42.2207017471
 30
0.0
 10
146.8918414362
 20
42.2164900386
 30
0.0
 10
146.8937834002
 20
42.2111995591
 30
0.0
 10
146.8965646584
 20
42.2043576821
 30
0.0
 10
146.9011618436
 20
42.1928548363
 30
0.0
 10
146.9080801411
 20
42.175845446
 30
0.0
 10
146.9174681272
 20
42.1529068206
 30
0.0
 10
146.9280211733
 20
42.1272444604
 30
0.0
 10
146.9393019485
 20
42.0998578925
 30
0.0
 10
146.9470386643
 20
42.0811400651
 30
0.0
 10
146.9509632032
 20
42.0716678533
 30
0.0
  0
SPLINE
  5
2A4
100
AcDbEntity
  8
2
100
AcDbSpline
 62
7
  6
CONTINUOUS
 70
0
 71
3
 72
18
 73
14
 74
0
 42
0.0000001
 43
0.0000001
 44
0.0000000001
 40
0.0
 40
0.0
 40
0.0
 40
0.0
 40
0.0051355828
 40
0.0196489044
 40
0.0435089459
 40
0.0765566623
 40
0.1185583181
 40
0.1690366495
 40
0.2932667735
 40
0.4446560775
 40
0.6175168608
 40
0.8054114652
 40
1.0
 40
1.0
 40
1.0
 40
1.0
 10
126.1740400586
 20
42.0716678533
 30
0.0
 10
126.1740445413
 20
42.0714110397
 30
0.0
 10
126.1755292329
 20
42.0714682535
 30
0.0
 10
126.1772199386
 20
42.0710809564
 30
0.0
 10
126.181055733
 20
42.0710270463
 30
0.0
 10
126.185884137
 20
42.0708301435
 30
0.0
 10
126.1922056901
 20
42.0707334342
 30
0.0
 10
126.2030232591
 20
42.0706043923
 30
0.0
 10
126.2193458234
 20
42.0705641323
 30
0.0
 10
126.2417709553
 20
42.0706415435
 30
0.0
 10
126.2673864572
 20
42.0708557536
 30
0.0
 10
126.2951590351
 20
42.0711970614
 30
0.0
 10
126.3142864784
 20
42.0714980286
 30
0.0
 10
126.3240172128
 20
42.0716678533
 30
0.0
  0
SPLINE
  5
2A5
100
AcDbEntity
  8
2
100
AcDbSpline
 62
7
  6
CONTINUOUS
 70
0
 71
3
 72
18
 73
14
 74
0
 42
0.0000001
 43
0.0000001
 44
0.0000000001
 40
0.0
 40
0.0
 40
0.0
 40
0.0
 40
0.0050214568
 40
0.0195742997
 40
0.0435504983
 40
0.0767755303
 40
0.1189596983
 40
0.1696201517
 40
0.2943353244
 40
0.4460657757
 40
0.6188335792
 40
0.8059978834
 40
1.0
 40
1.0
 40
1.0
 40
1.0
 10
150.1044752545
 20
45.4399297999
 30
0.0
 10
150.1042954754
 20
45.4397500209
 30
0.0
 10
150.1055230615
 20
45.438792029
 30
0.0
 10
150.1063800694
 20
45.4372884196
 30
0.0
 10
150.1091601395
 20
45.4345143603
 30
0.0
 10
150.1124552887
 20
45.4308804191
 30
0.0
 10
150.1169087664
 20
45.4262397096
 30
0.0
 10
150.1245154907
 20
45.4183034354
 30
0.0
 10
150.136075921
 20
45.4064236392
 30
0.0
 10
150.1519956691
 20
45.3901874426
 30
0.0
 10
150.170200808
 20
45.3717532867
 30
0.0
 10
150.1899621051
 20
45.351851531
 30
0.0
 10
150.2035945172
 20
45.3381905604
 30
0.0
 10
150.2105412716
 20
45.3312459218
 30
0.0
  0
SPLINE
  5
2A6
100
AcDbEntity
  8
2
100
AcDbSpline
 62
7
  6
CONTINUOUS
 70
0
 71
3
 72
18
 73
14
 74
0
 42
0.0000001
 43
0.0000001
 44
0.0000000001
 40
0.0
 40
0.0
 40
0.0
 40
0.0
 40
0.194588527
 40
0.382483123
 40
0.5553439102
 40
0.7067332268
 40
0.8309633563
 40
0.8814416884
 40
0.9234433452
 40
0.956491061
 40
0.9803510998
 40
0.9948644184
 40
1.0
 40
1.0
 40
1.0
 40
1.0
 10
126.3362357583
 20
41.3716678533
 30
0.0
 10
126.3265050238
 20
41.3714980545
 30
0.0
 10
126.3073775813
 20
41.3711970946
 30
0.0
 10
126.2796050045
 20
41.3708557488
 30
0.0
 10
126.2539895022
 20
41.3706415342
 30
0.0
 10
126.2315643691
 20
41.3705641332
 30
0.0
 10
126.2152418039
 20
41.3706043946
 30
0.0
 10
126.2044242345
 20
41.3707334352
 30
0.0
 10
126.1981026813
 20
41.3708301435
 30
0.0
 10
126.1932742774
 20
41.3710270458
 30
0.0
 10
126.1894384834
 20
41.371080956
 30
0.0
 10
126.1877477779
 20
41.3714682531
 30
0.0
 10
126.1862630867
 20
41.3714110397
 30
0.0
 10
126.186258604
 20
41.3716678533
 30
0.0
  0
SPLINE
  5
2A7
100
AcDbEntity
  8
2
100
AcDbSpline
 62
7
  6
CONTINUOUS
 70
0
 71
3
 72
16
 73
12
 74
0
 42
0.0000001
 43
0.0000001
 44
0.0000000001
 40
0.0
 40
0.0
 40
0.0
 40
0.0
 40
0.0066397951
 40
0.0225020586
 40
0.0474888233
 40
0.0814256597
 40
0.1749513227
 40
0.2993074208
 40
0.4499957987
 40
0.6214797596
 40
1.0
 40
1.0
 40
1.0
 40
1.0
 10
133.6869946643
 20
41.3742857143
 30
0.0
 10
133.6867598663
 20
41.3740508447
 30
0.0
 10
133.6854944627
 20
41.3740455929
 30
0.0
 10
133.6832570205
 20
41.373674845
 30
0.0
 10
133.6794563734
 20
41.3735215314
 30
0.0
 10
133.6718774056
 20
41.3731303358
 30
0.0
 10
133.6592595982
 20
41.3727925914
 30
0.0
 10
133.6408409034
 20
41.3724014964
 30
0.0
 10
133.6185042964
 20
41.3720953408
 30
0.0
 10
133.5834608021
 20
41.3717671614
 30
0.0
 10
133.5559501021
 20
41.3716736199
 30
0.0
 10
133.5370175101
 20
41.3716678533
 30
0.0
  0
SPLINE
  5
2A8
100
AcDbEntity
  8
2
100
AcDbSpline
 62
7
  6
CONTINUOUS
 70
0
 71
3
 72
16
 73
12
 74
0
 42
0.0000001
 43
0.0000001
 44
0.0000000001
 40
0.0
 40
0.0
 40
0.0
 40
0.0
 40
0.3785202362
 40
0.5500041971
 40
0.7006925771
 40
0.8250486767
 40
0.9185743406
 40
0.9525111771
 40
0.9774979416
 40
0.993360205
 40
1.0
 40
1.0
 40
1.0
 40
1.0
 10
133.5368042346
 20
42.0716678533
 30
0.0
 10
133.5557368264
 20
42.0716736199
 30
0.0
 10
133.5832475262
 20
42.0717671614
 30
0.0
 10
133.6182910204
 20
42.0720953408
 30
0.0
 10
133.6406276275
 20
42.0724014964
 30
0.0
 10
133.6590463226
 20
42.0727925914
 30
0.0
 10
133.6716641301
 20
42.0731303358
 30
0.0
 10
133.679243098
 20
42.0735215314
 30
0.0
 10
133.683043745
 20
42.073674845
 30
0.0
 10
133.6852811872
 20
42.0740455929
 30
0.0
 10
133.6865465908
 20
42.0740508447
 30
0.0
 10
133.6867813888
 20
42.0742857143
 30
0.0
  0
SPLINE
  5
2A9
100
AcDbEntity
  8
2
100
AcDbSpline
 62
7
  6
CONTINUOUS
 70
0
 71
3
 72
16
 73
12
 74
0
 42
0.0000001
 43
0.0000001
 44
0.0000000001
 40
0.0
 40
0.0
 40
0.0
 40
0.0
 40
0.3785202362
 40
0.5500041971
 40
0.7006925771
 40
0.8250486767
 40
0.9185743406
 40
0.9525111771
 40
0.9774979416
 40
0.993360205
 40
1.0
 40
1.0
 40
1.0
 40
1.0
 10
139.8406448276
 20
41.3716678533
 30
0.0
 10
139.8217122358
 20
41.3716736199
 30
0.0
 10
139.7942015359
 20
41.3717671614
 30
0.0
 10
139.7591580418
 20
41.3720953408
 30
0.0
 10
139.7368214346
 20
41.3724014964
 30
0.0
 10
139.7184027395
 20
41.3727925914
 30
0.0
 10
139.705784932
 20
41.3731303358
 30
0.0
 10
139.6982059642
 20
41.3735215314
 30
0.0
 10
139.6944053171
 20
41.373674845
 30
0.0
 10
139.6921678749
 20
41.3740455929
 30
0.0
 10
139.6909024714
 20
41.3740508447
 30
0.0
 10
139.6906676733
 20
41.3742857143
 30
0.0
  0
SPLINE
  5
2AA
100
AcDbEntity
  8
2
100
AcDbSpline
 62
7
  6
CONTINUOUS
 70
0
 71
3
 72
18
 73
14
 74
0
 42
0.0000001
 43
0.0000001
 44
0.0000000001
 40
0.0
 40
0.0
 40
0.0
 40
0.0
 40
0.0049779465
 40
0.0193965716
 40
0.0431577681
 40
0.0760966412
 40
0.1179780211
 40
0.1683294353
 40
0.2923278304
 40
0.4435800901
 40
0.6164889448
 40
0.8047100408
 40
1.0
 40
1.0
 40
1.0
 40
1.0
 10
147.346978714
 20
41.2682196971
 30
0.0
 10
147.3468048364
 20
41.2680458195
 30
0.0
 10
147.3458753127
 20
41.2692269899
 30
0.0
 10
147.3444217845
 20
41.2700575282
 30
0.0
 10
147.3417362894
 20
41.2727415418
 30
0.0
 10
147.3382179006
 20
41.2759290116
 30
0.0
 10
147.3337202942
 20
41.2802405071
 30
0.0
 10
147.3260218368
 20
41.2876135468
 30
0.0
 10
147.3144807442
 20
41.2988360905
 30
0.0
 10
147.2986731354
 20
41.3143270296
 30
0.0
 10
147.2806578593
 20
41.3321082779
 30
0.0
 10
147.261149238
 20
41.3514696341
 30
0.0
 10
147.2477351335
 20
41.3648474947
 30
0.0
 10
147.2409126968
 20
41.3716678533
 30
0.0
  0
SPLINE
  5
2AB
100
AcDbEntity
  8
2
100
AcDbSpline
 62
7
  6
CONTINUOUS
 70
0
 71
3
 72
11
 73
7
 74
0
 42
0.0000001
 43
0.0000001
 44
0.0000000001
 40
0.0
 40
0.0
 40
0.0
 40
0.0
 40
0.2954028855
 40
0.5544707101
 40
0.7840175265
 40
1.0
 40
1.0
 40
1.0
 40
1.0
 10
139.6888311688
 20
41.3742857143
 30
0.0
 10
139.6888311688
 20
41.3514377725
 30
0.0
 10
139.6987874104
 20
41.3078835507
 30
0.0
 10
139.73678528
 20
41.2585892057
 30
0.0
 10
139.784782629
 20
41.2303661536
 30
0.0
 10
139.8195305898
 20
41.2242857143
 30
0.0
 10
139.8362357583
 20
41.2242857143
 30
0.0
  0
SPLINE
  5
2AC
100
AcDbEntity
  8
2
100
AcDbSpline
 62
7
  6
CONTINUOUS
 70
0
 71
3
 72
11
 73
7
 74
0
 42
0.0000001
 43
0.0000001
 44
0.0000000001
 40
0.0
 40
0.0
 40
0.0
 40
0.0
 40
0.2954065696
 40
0.5544741383
 40
0.7840402782
 40
1.0
 40
1.0
 40
1.0
 40
1.0
 10
133.6888311688
 20
41.3742857143
 30
0.0
 10
133.6888311688
 20
41.3514376443
 30
0.0
 10
133.6788723141
 20
41.3078844258
 30
0.0
 10
133.6408758681
 20
41.2585869859
 30
0.0
 10
133.5928764162
 20
41.2303686382
 30
0.0
 10
133.5581298735
 20
41.2242857143
 30
0.0
 10
133.5414265794
 20
41.2242857143
 30
0.0
  0
SPLINE
  5
2AD
100
AcDbEntity
  8
2
100
AcDbSpline
 62
7
  6
CONTINUOUS
 70
0
 71
3
 72
18
 73
14
 74
0
 42
0.0000001
 43
0.0000001
 44
0.0000000001
 40
0.0
 40
0.0
 40
0.0
 40
0.0
 40
0.1945661565
 40
0.3818536018
 40
0.5544943401
 40
0.7060063301
 40
0.8304628065
 40
0.8810289793
 40
0.9231183229
 40
0.9562689648
 40
0.9802352229
 40
0.9948315399
 40
1.0
 40
1.0
 40
1.0
 40
1.0
 10
150.2105412716
 20
45.3312459218
 30
0.0
 10
150.2202708769
 20
45.3310761426
 30
0.0
 10
150.2393668079
 20
45.330775054
 30
0.0
 10
150.267096877
 20
45.3304348602
 30
0.0
 10
150.2926771048
 20
45.3302201886
 30
0.0
 10
150.3151086624
 20
45.3301425073
 30
0.0
 10
150.3314530777
 20
45.3301816388
 30
0.0
 10
150.3422907085
 20
45.3303104073
 30
0.0
 10
150.3486262785
 20
45.3304069472
 30
0.0
 10
150.3534691227
 20
45.3306044984
 30
0.0
 10
150.3573209028
 20
45.3306572965
 30
0.0
 10
150.3590195656
 20
45.3310475231
 30
0.0
 10
150.3605139145
 20
45.3309874643
 30
0.0
 10
150.3605184259
 20
45.3312459218
 30
0.0
  0
SPLINE
  5
2AE
100
AcDbEntity
  8
2
100
AcDbSpline
 62
7
  6
CONTINUOUS
 70
0
 71
3
 72
18
 73
14
 74
0
 42
0.0000001
 43
0.0000001
 44
0.0000000001
 40
0.0
 40
0.0
 40
0.0
 40
0.0
 40
0.1952862346
 40
0.3834971091
 40
0.5563989736
 40
0.707650729
 40
0.8316546198
 40
0.8820099427
 40
0.9238932803
 40
0.9568338605
 40
0.9805985232
 40
0.9950205532
 40
1.0
 40
1.0
 40
1.0
 40
1.0
 10
150.1929546636
 20
44.32370982
 30
0.0
 10
150.1997769698
 20
44.3168895918
 30
0.0
 10
150.2131905813
 20
44.3035122138
 30
0.0
 10
150.2326984686
 20
44.2841515879
 30
0.0
 10
150.250713118
 20
44.2663709526
 30
0.0
 10
150.2665206467
 20
44.2508800738
 30
0.0
 10
150.2780620419
 20
44.2396572118
 30
0.0
 10
150.2857608902
 20
44.2322837706
 30
0.0
 10
150.2902587641
 20
44.2279720128
 30
0.0
 10
150.2937774291
 20
44.2247843288
 30
0.0
 10
150.2964632175
 20
44.2220999541
 30
0.0
 10
150.2979170516
 20
44.2212693125
 30
0.0
 10
150.2988467507
 20
44.2200877338
 30
0.0
 10
150.2990206807
 20
44.2202616638
 30
0.0
  0
SPLINE
  5
2AF
100
AcDbEntity
  8
2
100
AcDbSpline
 62
7
  6
CONTINUOUS
 70
0
 71
3
 72
18
 73
14
 74
0
 42
0.0000001
 43
0.0000001
 44
0.0000000001
 40
0.0
 40
0.0
 40
0.0
 40
0.0
 40
0.0051268151
 40
0.0196394057
 40
0.0435034306
 40
0.0765560339
 40
0.1185600883
 40
0.1690383149
 40
0.2932656664
 40
0.4446544226
 40
0.6175162692
 40
0.8054114997
 40
1.0
 40
1.0
 40
1.0
 40
1.0
 10
150.3429318178
 20
44.32370982
 30
0.0
 10
150.3429295804
 20
44.3234534154
 30
0.0
 10
150.3414408076
 20
44.3235096026
 30
0.0
 10
150.3397550715
 20
44.3231231733
 30
0.0
 10
150.3359161461
 20
44.3230688782
 30
0.0
 10
150.3310883602
 20
44.3228721749
 30
0.0
 10
150.3247659979
 20
44.3227753978
 30
0.0
 10
150.3139486514
 20
44.3226463857
 30
0.0
 10
150.2976261223
 20
44.3226060902
 30
0.0
 10
150.275201144
 20
44.3226835005
 30
0.0
 10
150.2495855547
 20
44.3228977136
 30
0.0
 10
150.2218128856
 20
44.3232390614
 30
0.0
 10
150.2026854017
 20
44.3235400211
 30
0.0
 10
150.1929546636
 20
44.32370982
 30
0.0
  0
SPLINE
  5
2B0
100
AcDbEntity
  8
2
100
AcDbSpline
 62
7
  6
CONTINUOUS
 70
0
 71
3
 72
16
 73
12
 74
0
 42
0.0000001
 43
0.0000001
 44
0.0000000001
 40
0.0
 40
0.0
 40
0.0
 40
0.0
 40
0.0066397951
 40
0.0225020586
 40
0.0474888232
 40
0.0814256596
 40
0.1749513227
 40
0.2993074208
 40
0.4499957987
 40
0.6214797596
 40
1.0
 40
1.0
 40
1.0
 40
1.0
 10
139.6908809488
 20
42.0742857143
 30
0.0
 10
139.6911157469
 20
42.0740508447
 30
0.0
 10
139.6923811505
 20
42.0740455929
 30
0.0
 10
139.6946185926
 20
42.073674845
 30
0.0
 10
139.6984192397
 20
42.0735215314
 30
0.0
 10
139.7059982075
 20
42.0731303358
 30
0.0
 10
139.7186160149
 20
42.0727925914
 30
0.0
 10
139.7370347098
 20
42.0724014964
 30
0.0
 10
139.7593713167
 20
42.0720953408
 30
0.0
 10
139.794414811
 20
42.0717671614
 30
0.0
 10
139.8219255111
 20
42.0716736199
 30
0.0
 10
139.8408581031
 20
42.0716678533
 30
0.0
  0
SPLINE
  5
2B1
100
AcDbEntity
  8
1
100
AcDbSpline
 62
7
  6
CONTINUOUS
 70
0
 71
3
 72
14
 73
10
 74
0
 42
0.0000001
 43
0.0000001
 44
0.0000000001
 40
0.0
 40
0.0
 40
0.0
 40
0.0
 40
0.3282970487
 40
0.4769233396
 40
0.6090833112
 40
0.7229003617
 40
0.8204659718
 40
0.909360685
 40
1.0
 40
1.0
 40
1.0
 40
1.0
 10
69.0736743091
 20
34.2766429336
 30
0.0
 10
69.0751031655
 20
34.6596525745
 30
0.0
 10
69.0967941222
 20
35.21696671
 30
0.0
 10
69.1943387233
 20
35.921527021
 30
0.0
 10
69.3042590422
 20
36.3698407935
 30
0.0
 10
69.4617239481
 20
36.7412164302
 30
0.0
 10
69.6800972042
 20
37.0228809967
 30
0.0
 10
69.9645503922
 20
37.1930520948
 30
0.0
 10
70.1768872492
 20
37.2242857143
 30
0.0
 10
70.2826328635
 20
37.2242857143
 30
0.0
  0
SPLINE
  5
2B2
100
AcDbEntity
  8
1
100
AcDbSpline
 62
7
  6
CONTINUOUS
 70
0
 71
3
 72
11
 73
7
 74
0
 42
0.0000001
 43
0.0000001
 44
0.0000000001
 40
0.0
 40
0.0
 40
0.0
 40
0.0
 40
0.1733089128
 40
0.4109245562
 40
0.6937140717
 40
1.0
 40
1.0
 40
1.0
 40
1.0
 10
68.8888311688
 20
28.5427803666
 30
0.0
 10
68.8888311688
 20
28.6950469908
 30
0.0
 10
68.9216926003
 20
29.0553276312
 30
0.0
 10
68.9859359449
 20
29.6610312393
 30
0.0
 10
69.0448582928
 20
30.3852544581
 30
0.0
 10
69.061298087
 20
30.9028320082
 30
0.0
 10
69.062270935
 20
31.171928495
 30
0.0
  0
SPLINE
  5
2B3
100
AcDbEntity
  8
1
100
AcDbSpline
 62
7
  6
CONTINUOUS
 70
0
 71
3
 72
12
 73
8
 74
0
 42
0.0000001
 43
0.0000001
 44
0.0000000001
 40
0.0
 40
0.0
 40
0.0
 40
0.0
 40
0.3269888858
 40
0.6214083604
 40
0.8537488449
 40
0.9387400589
 40
1.0
 40
1.0
 40
1.0
 40
1.0
 10
67.1111350858
 20
31.171928495
 30
0.0
 10
67.1100107488
 20
30.864750999
 30
0.0
 10
67.0887286808
 20
30.2808970622
 30
0.0
 10
67.0141074035
 20
29.4820837287
 30
0.0
 10
66.9394984015
 20
28.9121483925
 30
0.0
 10
66.8992469896
 20
28.5588836873
 30
0.0
 10
66.8888311688
 20
28.421653382
 30
0.0
 10
66.8888311688
 20
28.3641046329
 30
0.0
  0
SPLINE
  5
2B4
100
AcDbEntity
  8
1
100
AcDbSpline
 62
7
  6
CONTINUOUS
 70
0
 71
3
 72
14
 73
10
 74
0
 42
0.0000001
 43
0.0000001
 44
0.0000000001
 40
0.0
 40
0.0
 40
0.0
 40
0.0
 40
0.0822640817
 40
0.1664826146
 40
0.2632108834
 40
0.3785542133
 40
0.5133459915
 40
0.6650727039
 40
1.0
 40
1.0
 40
1.0
 40
1.0
 10
68.2159623834
 20
37.2242857143
 30
0.0
 10
68.1223802376
 20
37.2242857143
 30
0.0
 10
67.9298746498
 20
37.1892782695
 30
0.0
 10
67.6787084056
 20
37.0119291541
 30
0.0
 10
67.4859789028
 20
36.7295568627
 30
0.0
 10
67.3427430128
 20
36.3598079519
 30
0.0
 10
67.239963687
 20
35.9133265419
 30
0.0
 10
67.1461226432
 20
35.2120674635
 30
0.0
 10
67.1240720065
 20
34.6576475438
 30
0.0
 10
67.1226422848
 20
34.2766429336
 30
0.0
  0
ELLIPSE
  5
2B5
100
AcDbEntity
  8
2
100
AcDbEllipse
 62
7
  6
CONTINUOUS
 10
133.5511515441
 20
42.0742857143
 30
0.0
 11
0.1082324452
 21
0.1063008162
 31
0.0
 40
0.9778093532
 41
-0.7876143275
 42
0.7831819993
  0
ELLIPSE
  5
2B6
100
AcDbEntity
  8
2
100
AcDbEllipse
 62
7
  6
CONTINUOUS
 10
139.8265107936
 20
42.0742857143
 30
0.0
 11
-0.1082324452
 21
0.1063008162
 31
0.0
 40
0.9778093532
 41
5.5000033079
 42
7.0707996347
  0
ELLIPSE
  5
2B7
100
AcDbEntity
  8
1
100
AcDbEllipse
 62
7
  6
CONTINUOUS
 10
76.8888311688
 20
37.2242857142
 30
0.0
 11
1.7605104184
 21
458.3196920659
 31
0.0
 40
0.0170271624
 41
-4.7058921188
 42
-4.6991176553
  0
ELLIPSE
  5
2B8
100
AcDbEntity
  8
1
100
AcDbEllipse
 62
7
  6
CONTINUOUS
 10
76.8888311688
 20
37.2242857142
 30
0.0
 11
2.2006380231
 21
572.8996150823
 31
0.0
 40
0.0170271624
 41
-4.7071784229
 42
-4.7017589498
  0
ENDSEC
  0
SECTION
  2
OBJECTS
  0
DICTIONARY
  5
C
100
AcDbDictionary
280
0
281
1
  3
ACAD_GROUP
350
D
  3
ACAD_MLINESTYLE
350
17
  3
ACAD_LAYOUT
350
1A
  3
ACAD_PLOTSETTINGS
350
19
  3
ACAD_PLOTSTYLENAME
350
E
  0
DICTIONARY
  5
D
102
{ACAD_REACTORS
330
C
102
}
100
AcDbDictionary
280
0
281
1
  0
ACDBDICTIONARYWDFLT
  5
E
102
{ACAD_REACTORS
330
C
102
}
100
AcDbDictionary
281
1
  3
Normal
350
F
100
AcDbDictionaryWithDefault
340
F
  0
DICTIONARY
  5
17
102
{ACAD_REACTORS
330
C
102
}
100
AcDbDictionary
280
0
281
1
  3
Standard
350
18
  0
DICTIONARY
  5
19
102
{ACAD_REACTORS
330
C
102
}
100
AcDbDictionary
281
1
  0
DICTIONARY
  5
1A
102
{ACAD_REACTORS
330
C
102
}
100
AcDbDictionary
281
1
  3
Model
350
2B9
  3
Layout1
350
2BA
  0
ACDBPLACEHOLDER
  5
F
102
{ACAD_REACTORS
330
E
102
}
  0
MLINESTYLE
  5
18
102
{ACAD_REACTORS
330
17
102
}
100
AcDbMlineStyle
  2
STANDARD
 70
0
  3

 62
256
 51
90.0
 52
90.0
 71
2
 49
0.5
 62
256
  6
BYLAYER
 49
-0.5
 62
256
  6
BYLAYER
  0
LAYOUT
  5
2B9
102
{ACAD_REACTORS
330
1A
102
}
100
AcDbPlotSettings
  1

  2
none_device
  4

  6

 40
0.0
 41
0.0
 42
0.0
 43
0.0
 44
210.0
 45
297.0
 46
0.0
 47
0.0
 48
0.0
 49
0.0
140
0.0
141
0.0
142
1.0
143
1.0
 70
1024
 72
1
 73
0
 74
0
  7

 75
0
147
1.0
148
0.0
149
0.0
100
AcDbLayout
  1
Model
 70
0
 71
0
 10
0.0
 20
0.0
 11
210.0
 21
297.0
 12
0.0
 22
0.0
 32
0.0
 14
0.0
 24
0.0
 34
0.0
 15
0.0
 25
0.0
 35
0.0
146
0.0
 13
0.0
 23
0.0
 33
0.0
 16
1.0
 26
0.0
 36
0.0
 17
0.0
 27
1.0
 37
0.0
 76
0
330
212
345
0
346
0
  0
LAYOUT
  5
2BA
102
{ACAD_REACTORS
330
1A
102
}
100
AcDbPlotSettings
  1

  2
none_device
  4

  6

 40
0.0
 41
0.0
 42
0.0
 43
0.0
 44
210.0
 45
297.0
 46
0.0
 47
0.0
 48
0.0
 49
0.0
140
0.0
141
0.0
142
1.0
143
1.0
 70
0
 72
1
 73
0
 74
0
  7

 75
0
147
1.0
148
0.0
149
0.0
100
AcDbLayout
  1
Layout1
 70
0
 71
1
 10
0.0
 20
0.0
 11
210.0
 21
297.0
 12
0.0
 22
0.0
 32
0.0
 14
0.0
 24
0.0
 34
0.0
 15
0.0
 25
0.0
 35
0.0
146
0.0
 13
0.0
 23
0.0
 33
0.0
 16
1.0
 26
0.0
 36
0.0
 17
0.0
 27
1.0
 37
0.0
 76
0
330
213
345
0
346
0
  0
ENDSEC
  0
EOF
