999
DXF file: C:\Users\sesa63760\Dev\_Creo\CAD\MCADID0000562_3D-CAD\drw0001_6.dxf
999
Pro/ENGINEER 2019471 by Parametric Technology Corporation
  0
SECTION
  2
HEADER
  9
$ACADVER
  1
AC1024
  9
$DWGCODEPAGE
  3
ANSI_1252
  9
$EXTMAX
 10
92.496045499
 20
130.8158357771
 30
0.0
  9
$EXTMIN
 10
0.0
 20
0.0
 30
0.0
  9
$LIMMIN
 10
0.0
 20
0.0
  9
$LIMMAX
 10
92.496045499
 20
130.8158357771
  9
$VIEWCTR
 10
46.2480227495
 20
65.4079178886
  9
$VIEWSIZE
 40
130.8158357771
  9
$CLAYER
  8
0
  9
$LTSCALE
 40
8.5272544803
  9
$CELTYPE
  6
BYLAYER
  9
$DIMSCALE
 40
1.0
  9
$DIMASZ
 40
1.1011433988
  9
$DIMEXO
 40
1.0
  9
$DIMDLI
 40
5.8915576409
  9
$DIMEXE
 40
1.0
  9
$DIMCEN
 40
1.395368915
  9
$DIMLFAC
 40
1.0
  9
$DIMBLK
  1
_FILLED
  9
$DIMALT
 70
0
  9
$DIMALTF
 40
0.0393700787
  9
$DIMTXT
 40
1.5416007583
  9
$DIMTOL
 70
1
  9
$DIMLIM
 70
0
  9
$DIMTFAC
 40
1.0
  9
$DIMTP
 40
0.01
  9
$DIMTM
 40
0.01
  9
$DIMGAP
 40
0.625
  9
$DIMDSEP
 70
46
  9
$AUNITS
 70
0
  9
$PDMODE
 70
3
  9
$PDSIZE
 40
0.3125
  9
$HANDSEED
  5
2B3
  9
$TILEMODE
 70
1
  9
$MEASUREMENT
 70
1
  9
$INSUNITS
 70
4
  0
ENDSEC
  0
SECTION
  2
CLASSES
  0
CLASS
  1
ACDBDICTIONARYWDFLT
  2
AcDbDictionaryWithDefault
  3
AutoCAD 2000
 90
0
 91
1
280
0
281
0
  0
CLASS
  1
ACDBPLACEHOLDER
  2
AcDbPlaceHolder
  3
AutoCAD 2000
 90
0
 91
1
280
0
281
0
  0
CLASS
  1
LAYOUT
  2
AcDbLayout
  3
AutoCAD 2000
 90
0
 91
0
280
0
281
0
  0
ENDSEC
  0
SECTION
  2
TABLES
  0
TABLE
  2
VPORT
  5
8
100
AcDbSymbolTable
 70
2
  0
VPORT
  5
1F4
100
AcDbSymbolTableRecord
100
AcDbViewportTableRecord
  2
*ACTIVE
 70
0
 10
0.0
 20
0.0
 11
1.0
 21
1.0
 12
46.2480227495
 22
65.4079178886
 13
0.0
 23
0.0
 14
1.0
 24
1.0
 15
0.0
 25
0.0
 16
0.0
 26
0.0
 36
1.0
 17
0.0
 27
0.0
 37
0.0
 40
130.8158357771
 41
0.7070707071
 42
50.0
 43
0.0
 44
0.0
 50
0.0
 51
0.0
 71
0
 72
100
 73
1
 74
1
 75
0
 76
0
 77
0
 78
0
  0
ENDTAB
  0
TABLE
  2
LTYPE
  5
5
100
AcDbSymbolTable
 70
6
  0
LTYPE
  5
14
100
AcDbSymbolTableRecord
100
AcDbLinetypeTableRecord
  2
BYBLOCK
 70
0
  3

 72
65
 73
0
 40
0.0
  0
LTYPE
  5
15
100
AcDbSymbolTableRecord
100
AcDbLinetypeTableRecord
  2
BYLAYER
 70
0
  3

 72
65
 73
0
 40
0.0
  0
LTYPE
  5
16
100
AcDbSymbolTableRecord
100
AcDbLinetypeTableRecord
  2
CONTINUOUS
 70
64
  3
Solid line
 72
65
 73
0
 40
0.0
  0
LTYPE
  5
1F5
100
AcDbSymbolTableRecord
100
AcDbLinetypeTableRecord
  2
CENTER
 70
64
  3
____ _ ____ _ ____ _ ____ _ ____ _ ____ _ ____
 72
65
 73
4
 40
0.6
 49
0.375
 74
0
 49
-0.075
 74
0
 49
0.075
 74
0
 49
-0.075
 74
0
  0
LTYPE
  5
1F6
100
AcDbSymbolTableRecord
100
AcDbLinetypeTableRecord
  2
HIDDEN
 70
64
  3
- - - - - - - - - - - - - - - - - - - -
 72
65
 73
2
 40
0.2
 49
0.1
 74
0
 49
-0.1
 74
0
  0
LTYPE
  5
1F7
100
AcDbSymbolTableRecord
100
AcDbLinetypeTableRecord
  2
PHANTOM
 70
64
  3
_____ _ _ _____ _ _ _____ _ _ _____
 72
65
 73
6
 40
0.8
 49
0.45
 74
0
 49
-0.05
 74
0
 49
0.1
 74
0
 49
-0.05
 74
0
 49
0.1
 74
0
 49
-0.05
 74
0
  0
LTYPE
  5
1F8
100
AcDbSymbolTableRecord
100
AcDbLinetypeTableRecord
  2
DOT
 70
64
  3
. . . . . . . . . . . . . . . . . . . .
 72
65
 73
2
 40
0.2
 49
0.1
 74
0
 49
-0.1
 74
0
  0
LTYPE
  5
1F9
100
AcDbSymbolTableRecord
100
AcDbLinetypeTableRecord
  2
DASHED
 70
64
  3
- - - - - - - - - - - - - - - - - - - -
 72
65
 73
2
 40
0.2
 49
0.1
 74
0
 49
-0.1
 74
0
  0
ENDTAB
  0
TABLE
  2
LAYER
  5
2
100
AcDbSymbolTable
 70
36
  0
LAYER
  5
10
100
AcDbSymbolTableRecord
100
AcDbLayerTableRecord
  2
0
 70
0
 62
7
  6
CONTINUOUS
370
-3
390
F
  0
LAYER
  5
1FA
100
AcDbSymbolTableRecord
100
AcDbLayerTableRecord
  2
DEFAULT_1
 70
0
 62
7
  6
CENTER
370
-3
390
F
  0
LAYER
  5
1FB
100
AcDbSymbolTableRecord
100
AcDbLayerTableRecord
  2
DEFAULT_2
 70
0
 62
8
  6
HIDDEN
370
-3
390
F
  0
LAYER
  5
1FC
100
AcDbSymbolTableRecord
100
AcDbLayerTableRecord
  2
DEFAULT_3
 70
0
 62
7
  6
PHANTOM
370
-3
390
F
  0
LAYER
  5
1FD
100
AcDbSymbolTableRecord
100
AcDbLayerTableRecord
  2
00_COMPONENTS
 70
0
 62
7
  6
CONTINUOUS
370
-3
390
F
  0
LAYER
  5
1FE
100
AcDbSymbolTableRecord
100
AcDbLayerTableRecord
  2
01_1_DEFAULT_DATUMS
 70
0
 62
7
  6
CONTINUOUS
370
-3
390
F
  0
LAYER
  5
1FF
100
AcDbSymbolTableRecord
100
AcDbLayerTableRecord
  2
01_PLANES
 70
0
 62
7
  6
CONTINUOUS
370
-3
390
F
  0
LAYER
  5
200
100
AcDbSymbolTableRecord
100
AcDbLayerTableRecord
  2
02_COORD_SYS
 70
0
 62
7
  6
CONTINUOUS
370
-3
390
F
  0
LAYER
  5
201
100
AcDbSymbolTableRecord
100
AcDbLayerTableRecord
  2
03_AXES
 70
0
 62
7
  6
CONTINUOUS
370
-3
390
F
  0
LAYER
  5
202
100
AcDbSymbolTableRecord
100
AcDbLayerTableRecord
  2
04_POINTS
 70
0
 62
7
  6
CONTINUOUS
370
-3
390
F
  0
LAYER
  5
203
100
AcDbSymbolTableRecord
100
AcDbLayerTableRecord
  2
05_CURVES
 70
0
 62
7
  6
CONTINUOUS
370
-3
390
F
  0
LAYER
  5
204
100
AcDbSymbolTableRecord
100
AcDbLayerTableRecord
  2
06_SURFS
 70
0
 62
7
  6
CONTINUOUS
370
-3
390
F
  0
LAYER
  5
205
100
AcDbSymbolTableRecord
100
AcDbLayerTableRecord
  2
07_COSMETICS
 70
0
 62
7
  6
CONTINUOUS
370
-3
390
F
  0
LAYER
  5
206
100
AcDbSymbolTableRecord
100
AcDbLayerTableRecord
  2
10_NOTES
 70
0
 62
7
  6
CONTINUOUS
370
-3
390
F
  0
LAYER
  5
207
100
AcDbSymbolTableRecord
100
AcDbLayerTableRecord
  2
11_NOTES_PUB
 70
0
 62
7
  6
CONTINUOUS
370
-3
390
F
  0
LAYER
  5
208
100
AcDbSymbolTableRecord
100
AcDbLayerTableRecord
  2
13_REF_GTOL
 70
0
 62
7
  6
CONTINUOUS
370
-3
390
F
  0
LAYER
  5
209
100
AcDbSymbolTableRecord
100
AcDbLayerTableRecord
  2
16_MISC
 70
0
 62
7
  6
CONTINUOUS
370
-3
390
F
  0
LAYER
  5
20A
100
AcDbSymbolTableRecord
100
AcDbLayerTableRecord
  2
17_NO_PRINT
 70
0
 62
7
  6
CONTINUOUS
370
-3
390
F
  0
LAYER
  5
20B
100
AcDbSymbolTableRecord
100
AcDbLayerTableRecord
  2
18_DATUM_CAMS_JOINTS
 70
0
 62
7
  6
CONTINUOUS
370
-3
390
F
  0
LAYER
  5
20C
100
AcDbSymbolTableRecord
100
AcDbLayerTableRecord
  2
19_DATUM_FUNCTIONAL
 70
0
 62
7
  6
CONTINUOUS
370
-3
390
F
  0
LAYER
  5
20D
100
AcDbSymbolTableRecord
100
AcDbLayerTableRecord
  2
20_DATUM_KINEMATIC_SCHEME
 70
0
 62
7
  6
CONTINUOUS
370
-3
390
F
  0
ENDTAB
  0
TABLE
  2
STYLE
  5
3
100
AcDbSymbolTable
 70
1
  0
STYLE
  5
11
100
AcDbSymbolTableRecord
100
AcDbTextStyleTableRecord
  2
STANDARD
 70
0
 40
0.0
 41
0.8
 50
0.0
 71
0
 42
0.2
  3
txt
  4

  0
STYLE
  5
20E
100
AcDbSymbolTableRecord
100
AcDbTextStyleTableRecord
  2
TEXTSTYLE_1
 70
0
 40
0.0
 41
0.8
 50
0.0
 71
0
 42
0.2
  3
gdt
  4

  0
ENDTAB
  0
TABLE
  2
VIEW
  5
6
100
AcDbSymbolTable
 70
0
  0
ENDTAB
  0
TABLE
  2
UCS
  5
7
100
AcDbSymbolTable
 70
0
  0
ENDTAB
  0
TABLE
  2
APPID
  5
9
100
AcDbSymbolTable
 70
1
  0
APPID
  5
20F
100
AcDbSymbolTableRecord
100
AcDbRegAppTableRecord
  2
ACAD
 70
0
  0
ENDTAB
  0
TABLE
  2
BLOCK_RECORD
  5
1
100
AcDbSymbolTable
 70
0
  0
BLOCK_RECORD
  5
210
100
AcDbSymbolTableRecord
100
AcDbBlockTableRecord
  2
*Model_Space
  0
BLOCK_RECORD
  5
211
100
AcDbSymbolTableRecord
100
AcDbBlockTableRecord
  2
*Paper_Space
  0
BLOCK_RECORD
  5
212
100
AcDbSymbolTableRecord
100
AcDbBlockTableRecord
  2
_FILLED
  0
ENDTAB
  0
TABLE
  2
DIMSTYLE
  5
A
100
AcDbSymbolTable
 70
1
100
AcDbDimStyleTable
 71
0
  0
DIMSTYLE
105
213
100
AcDbSymbolTableRecord
100
AcDbDimStyleTableRecord
  2
STANDARD
 70
0
  3

  4

 40
1.0
 41
1.1011433988
 42
1.0
 43
0.38
 44
1.0
 45
0.0
 46
0.0
 47
0.01
 48
0.01
140
1.5416007583
141
0.09
142
0.0
143
25.4
144
1.0
145
0.0
146
1.0
147
0.625
 71
1
 72
0
 73
0
 74
0
 75
0
 76
0
 77
1
 78
8
 79
2
170
0
171
1
172
0
173
0
174
0
175
0
176
0
177
0
178
0
270
2
179
2
271
2
272
2
273
2
274
2
275
0
280
0
281
0
282
0
283
1
284
8
285
0
286
0
287
3
288
0
340
11
278
46
341
212
342
212
343
212
344
212
  0
ENDTAB
  0
ENDSEC
  0
SECTION
  2
BLOCKS
  0
BLOCK
  5
20
100
AcDbEntity
  8
0
100
AcDbBlockBegin
  2
*Model_Space
 70
0
 10
0.0
 20
0.0
 30
0.0
  3
*Model_Space
  1

  0
ENDBLK
  5
21
100
AcDbEntity
  8
0
100
AcDbBlockEnd
  0
BLOCK
  5
1C
100
AcDbEntity
  8
0
100
AcDbBlockBegin
  2
*Paper_Space
 70
0
 10
0.0
 20
0.0
 30
0.0
  3
*Paper_Space
  1

  0
ENDBLK
  5
1D
100
AcDbEntity
  8
0
100
AcDbBlockEnd
  0
BLOCK
  5
214
100
AcDbEntity
  8
0
100
AcDbBlockBegin
  2
_FILLED
 70
64
 10
0.0
 20
0.0
  3
_FILLED
  1

  0
SOLID
  5
215
100
AcDbEntity
  8
0
  6
BYBLOCK
 62
0
100
AcDbTrace
 10
0.0
 20
0.0
 11
-1.0
 21
0.25
 12
-1.0
 22
-0.25
 13
-1.0
 23
-0.25
  0
ENDBLK
  5
216
100
AcDbEntity
  8
0
  6
BYBLOCK
 62
0
100
AcDbBlockEnd
  0
ENDSEC
  0
SECTION
  2
ENTITIES
  0
LINE
  5
217
100
AcDbEntity
  8
0
100
AcDbLine
 62
7
  6
CONTINUOUS
 10
24.1986092598
 20
10.8079178886
 11
75.3986092598
 21
10.8079178886
  0
LINE
  5
218
100
AcDbEntity
  8
0
100
AcDbLine
 62
7
  6
CONTINUOUS
 10
21.1986092598
 20
13.8079178886
 11
22.5198198054
 21
12.486707343
  0
LINE
  5
219
100
AcDbEntity
  8
0
100
AcDbLine
 62
7
  6
CONTINUOUS
 10
22.8774429824
 20
12.1290841659
 11
24.1986092598
 21
10.8079178886
  0
LINE
  5
21A
100
AcDbEntity
  8
0
100
AcDbLine
 62
7
  6
CONTINUOUS
 10
28.6800075782
 20
15.2363302352
 11
25.6114123227
 21
18.3049254906
  0
LINE
  5
21B
100
AcDbEntity
  8
0
100
AcDbLine
 62
7
  6
CONTINUOUS
 10
15.6986092598
 20
79.2579270227
 11
15.6986092598
 21
88.7579087544
  0
LINE
  5
21C
100
AcDbEntity
  8
0
100
AcDbLine
 62
7
  6
CONTINUOUS
 10
19.1986092598
 20
69.4079178886
 11
19.1986092598
 21
99.5079178886
  0
LINE
  5
21D
100
AcDbEntity
  8
0
100
AcDbLine
 62
7
  6
CONTINUOUS
 10
21.1986092598
 20
103.0079178886
 11
21.1986092598
 21
13.8079178886
  0
LINE
  5
21E
100
AcDbEntity
  8
0
100
AcDbLine
 62
7
  6
CONTINUOUS
 10
21.6986092598
 20
101.6079178886
 11
21.6986092598
 21
100.0079178886
  0
LINE
  5
21F
100
AcDbEntity
  8
0
100
AcDbLine
 62
7
  6
CONTINUOUS
 10
36.2986092598
 20
89.7814205805
 11
31.2986092598
 21
86.8946692345
  0
LINE
  5
220
100
AcDbEntity
  8
0
100
AcDbLine
 62
7
  6
CONTINUOUS
 10
24.1986092598
 20
68.7079178886
 11
24.1986092598
 21
100.0079178886
  0
LINE
  5
221
100
AcDbEntity
  8
0
100
AcDbLine
 62
7
  6
CONTINUOUS
 10
24.6986092598
 20
103.0079178886
 11
24.6986092598
 21
102.4079215934
  0
LINE
  5
222
100
AcDbEntity
  8
0
100
AcDbLine
 62
7
  6
CONTINUOUS
 10
25.9986092598
 20
99.5079178886
 11
25.9986092598
 21
74.2079178886
  0
LINE
  5
223
100
AcDbEntity
  8
0
100
AcDbLine
 62
7
  6
CONTINUOUS
 10
26.1986092598
 20
103.0079178886
 11
26.1986092598
 21
105.5079178886
  0
LINE
  5
224
100
AcDbEntity
  8
0
100
AcDbLine
 62
7
  6
CONTINUOUS
 10
27.1329158291
 20
103.0079178886
 11
27.1329158291
 21
105.5079178886
  0
LINE
  5
225
100
AcDbEntity
  8
0
100
AcDbLine
 62
7
  6
CONTINUOUS
 10
27.1986092598
 20
105.5079178886
 11
27.1986092598
 21
107.1079178886
  0
LINE
  5
226
100
AcDbEntity
  8
0
100
AcDbLine
 62
7
  6
CONTINUOUS
 10
27.6986092598
 20
103.0079178886
 11
27.6986092598
 21
100.0079178886
  0
LINE
  5
227
100
AcDbEntity
  8
0
100
AcDbLine
 62
7
  6
CONTINUOUS
 10
30.2986092598
 20
107.8987039051
 11
30.2986092598
 21
109.0079178886
  0
LINE
  5
228
100
AcDbEntity
  8
0
100
AcDbLine
 62
7
  6
CONTINUOUS
 10
24.1986092598
 20
68.0079178886
 11
22.8773987141
 21
66.686707343
  0
LINE
  5
229
100
AcDbEntity
  8
0
100
AcDbLine
 62
7
  6
CONTINUOUS
 10
22.5197755371
 20
66.3290841659
 11
21.1986092598
 21
65.0079178886
  0
LINE
  5
22A
100
AcDbEntity
  8
0
100
AcDbLine
 62
7
  6
CONTINUOUS
 10
44.7986092598
 20
86.8946692345
 11
49.7986092598
 21
89.7814205805
  0
LINE
  5
22B
100
AcDbEntity
  8
0
100
AcDbLine
 62
7
  6
CONTINUOUS
 10
36.2986092598
 20
78.2344151967
 11
41.2986092598
 21
81.1211665426
  0
LINE
  5
22C
100
AcDbEntity
  8
0
100
AcDbLine
 62
7
  6
CONTINUOUS
 10
31.2986092598
 20
81.1211665426
 11
31.2986092598
 21
86.8946692345
  0
LINE
  5
22D
100
AcDbEntity
  8
0
100
AcDbLine
 62
7
  6
CONTINUOUS
 10
31.7986092598
 20
109.0079178886
 11
31.7986092598
 21
119.0079178886
  0
LINE
  5
22E
100
AcDbEntity
  8
0
100
AcDbLine
 62
7
  6
CONTINUOUS
 10
32.5486092598
 20
119.0079178886
 11
32.5486092598
 21
120.0079178886
  0
LINE
  5
22F
100
AcDbEntity
  8
0
100
AcDbLine
 62
7
  6
CONTINUOUS
 10
33.1986092598
 20
107.1079178886
 11
33.1986092598
 21
105.5079178886
  0
LINE
  5
230
100
AcDbEntity
  8
0
100
AcDbLine
 62
7
  6
CONTINUOUS
 10
34.1986092598
 20
115.5079178886
 11
34.1986092598
 21
103.0079178886
  0
LINE
  5
231
100
AcDbEntity
  8
0
100
AcDbLine
 62
7
  6
CONTINUOUS
 10
58.2986092598
 20
86.8946692345
 11
63.2986092598
 21
89.7814205805
  0
LINE
  5
232
100
AcDbEntity
  8
0
100
AcDbLine
 62
7
  6
CONTINUOUS
 10
35.6986092598
 20
115.5079178886
 11
35.6986092598
 21
105.5079178886
  0
LINE
  5
233
100
AcDbEntity
  8
0
100
AcDbLine
 62
7
  6
CONTINUOUS
 10
25.6130129665
 20
60.5125109303
 11
28.6792391363
 21
63.5787371001
  0
LINE
  5
234
100
AcDbEntity
  8
0
100
AcDbLine
 62
7
  6
CONTINUOUS
 10
54.7986092598
 20
81.1211665426
 11
49.7986092598
 21
78.2344151967
  0
LINE
  5
235
100
AcDbEntity
  8
0
100
AcDbLine
 62
7
  6
CONTINUOUS
 10
41.2986092598
 20
86.8946692345
 11
41.2986092598
 21
81.1211665426
  0
LINE
  5
236
100
AcDbEntity
  8
0
100
AcDbLine
 62
7
  6
CONTINUOUS
 10
43.0486092598
 20
119.0079178886
 11
43.0486092598
 21
120.0079178886
  0
LINE
  5
237
100
AcDbEntity
  8
0
100
AcDbLine
 62
7
  6
CONTINUOUS
 10
43.7986092598
 20
115.5079178886
 11
43.7986092598
 21
119.0079178886
  0
LINE
  5
238
100
AcDbEntity
  8
0
100
AcDbLine
 62
7
  6
CONTINUOUS
 10
44.7986092598
 20
81.1211665426
 11
44.7986092598
 21
86.8946692345
  0
LINE
  5
239
100
AcDbEntity
  8
0
100
AcDbLine
 62
7
  6
CONTINUOUS
 10
68.2986092598
 20
81.1211665426
 11
63.2986092598
 21
78.2344151967
  0
LINE
  5
23A
100
AcDbEntity
  8
0
100
AcDbLine
 62
7
  6
CONTINUOUS
 10
48.6986092598
 20
115.5079178886
 11
48.6986092598
 21
105.5079178886
  0
LINE
  5
23B
100
AcDbEntity
  8
0
100
AcDbLine
 62
7
  6
CONTINUOUS
 10
50.1986092598
 20
115.5079178886
 11
50.1986092598
 21
103.0079178886
  0
LINE
  5
23C
100
AcDbEntity
  8
0
100
AcDbLine
 62
7
  6
CONTINUOUS
 10
51.1986092598
 20
105.5079178886
 11
51.1986092598
 21
107.1079178886
  0
LINE
  5
23D
100
AcDbEntity
  8
0
100
AcDbLine
 62
7
  6
CONTINUOUS
 10
24.1986092598
 20
68.0079178886
 11
75.3986092598
 21
68.0079178886
  0
LINE
  5
23E
100
AcDbEntity
  8
0
100
AcDbLine
 62
7
  6
CONTINUOUS
 10
78.3986092598
 20
68.7079178886
 11
21.1986092598
 21
68.7079178886
  0
LINE
  5
23F
100
AcDbEntity
  8
0
100
AcDbLine
 62
7
  6
CONTINUOUS
 10
19.1986092598
 20
69.4079178886
 11
21.1986092598
 21
69.4079178886
  0
LINE
  5
240
100
AcDbEntity
  8
0
100
AcDbLine
 62
7
  6
CONTINUOUS
 10
30.7986092598
 20
69.4079178886
 11
68.7986092598
 21
69.4079178886
  0
LINE
  5
241
100
AcDbEntity
  8
0
100
AcDbLine
 62
7
  6
CONTINUOUS
 10
54.2986092598
 20
107.8987039051
 11
54.2986092598
 21
108.5079178886
  0
LINE
  5
242
100
AcDbEntity
  8
0
100
AcDbLine
 62
7
  6
CONTINUOUS
 10
54.6440543213
 20
107.8668746544
 11
54.6440543213
 21
108.5079178886
  0
LINE
  5
243
100
AcDbEntity
  8
0
100
AcDbLine
 62
7
  6
CONTINUOUS
 10
54.7986092598
 20
81.1211665426
 11
54.7986092598
 21
86.8946692345
  0
LINE
  5
244
100
AcDbEntity
  8
0
100
AcDbLine
 62
7
  6
CONTINUOUS
 10
55.0486092598
 20
108.5079178886
 11
55.0486092598
 21
115.0079178886
  0
LINE
  5
245
100
AcDbEntity
  8
0
100
AcDbLine
 62
7
  6
CONTINUOUS
 10
21.1986092598
 20
74.2079178886
 11
19.1986092598
 21
74.2079178886
  0
LINE
  5
246
100
AcDbEntity
  8
0
100
AcDbLine
 62
7
  6
CONTINUOUS
 10
15.6986092598
 20
79.2579178886
 11
19.1986092598
 21
78.6407734561
  0
LINE
  5
247
100
AcDbEntity
  8
0
100
AcDbLine
 62
7
  6
CONTINUOUS
 10
31.2986092598
 20
81.1211665426
 11
36.2986092598
 21
78.2344151967
  0
LINE
  5
248
100
AcDbEntity
  8
0
100
AcDbLine
 62
7
  6
CONTINUOUS
 10
56.2778138877
 20
108.5079178886
 11
56.2778138877
 21
115.0079178886
  0
LINE
  5
249
100
AcDbEntity
  8
0
100
AcDbLine
 62
7
  6
CONTINUOUS
 10
57.1986092598
 20
107.1079178886
 11
57.1986092598
 21
105.5079178886
  0
LINE
  5
24A
100
AcDbEntity
  8
0
100
AcDbLine
 62
7
  6
CONTINUOUS
 10
57.2643026904
 20
105.5079178886
 11
57.2643026904
 21
103.0079178886
  0
LINE
  5
24B
100
AcDbEntity
  8
0
100
AcDbLine
 62
7
  6
CONTINUOUS
 10
57.7986092598
 20
115.0079178886
 11
57.7986092598
 21
117.0079178886
  0
LINE
  5
24C
100
AcDbEntity
  8
0
100
AcDbLine
 62
7
  6
CONTINUOUS
 10
57.914884442
 20
115.0079178886
 11
57.914884442
 21
108.5079178886
  0
LINE
  5
24D
100
AcDbEntity
  8
0
100
AcDbLine
 62
7
  6
CONTINUOUS
 10
58.1986092598
 20
103.0079178886
 11
58.1986092598
 21
105.5079178886
  0
LINE
  5
24E
100
AcDbEntity
  8
0
100
AcDbLine
 62
7
  6
CONTINUOUS
 10
58.2986092598
 20
81.1211665426
 11
58.2986092598
 21
86.8946692345
  0
LINE
  5
24F
100
AcDbEntity
  8
0
100
AcDbLine
 62
7
  6
CONTINUOUS
 10
59.5486440085
 20
108.5079178886
 11
59.5486440085
 21
106.0079178886
  0
LINE
  5
250
100
AcDbEntity
  8
0
100
AcDbLine
 62
7
  6
CONTINUOUS
 10
36.2986092598
 20
77.0079178886
 11
63.2986092598
 21
77.0079178886
  0
LINE
  5
251
100
AcDbEntity
  8
0
100
AcDbLine
 62
7
  6
CONTINUOUS
 10
49.7986092598
 20
78.2344151967
 11
44.7986092598
 21
81.1211665426
  0
LINE
  5
252
100
AcDbEntity
  8
0
100
AcDbLine
 62
7
  6
CONTINUOUS
 10
61.0735264774
 20
106.0079178886
 11
61.0735264774
 21
103.0079178886
  0
LINE
  5
253
100
AcDbEntity
  8
0
100
AcDbLine
 62
7
  6
CONTINUOUS
 10
62.5236920421
 20
103.0079178886
 11
62.5236920421
 21
106.0079178886
  0
LINE
  5
254
100
AcDbEntity
  8
0
100
AcDbLine
 62
7
  6
CONTINUOUS
 10
41.2986092598
 20
86.8946692345
 11
36.2986092598
 21
89.7814205805
  0
LINE
  5
255
100
AcDbEntity
  8
0
100
AcDbLine
 62
7
  6
CONTINUOUS
 10
70.9172109413
 20
63.579505542
 11
73.9858061968
 21
60.5109102865
  0
LINE
  5
256
100
AcDbEntity
  8
0
100
AcDbLine
 62
7
  6
CONTINUOUS
 10
65.7986092598
 20
115.0079178886
 11
65.7986092598
 21
117.0079178886
  0
LINE
  5
257
100
AcDbEntity
  8
0
100
AcDbLine
 62
7
  6
CONTINUOUS
 10
67.1986092598
 20
106.5079178886
 11
67.1986092598
 21
103.0079178886
  0
LINE
  5
258
100
AcDbEntity
  8
0
100
AcDbLine
 62
7
  6
CONTINUOUS
 10
68.2986092598
 20
81.1211665426
 11
68.2986092598
 21
86.8946692345
  0
LINE
  5
259
100
AcDbEntity
  8
0
100
AcDbLine
 62
7
  6
CONTINUOUS
 10
68.5486092598
 20
108.5079178886
 11
68.5486092598
 21
115.0079178886
  0
LINE
  5
25A
100
AcDbEntity
  8
0
100
AcDbLine
 62
7
  6
CONTINUOUS
 10
63.2986092598
 20
78.2344151967
 11
58.2986092598
 21
81.1211665426
  0
LINE
  5
25B
100
AcDbEntity
  8
0
100
AcDbLine
 62
7
  6
CONTINUOUS
 10
69.2986092598
 20
107.3441628667
 11
69.2986092598
 21
108.5079178886
  0
LINE
  5
25C
100
AcDbEntity
  8
0
100
AcDbLine
 62
7
  6
CONTINUOUS
 10
71.8986092598
 20
103.0079178886
 11
71.8986092598
 21
100.0079178886
  0
LINE
  5
25D
100
AcDbEntity
  8
0
100
AcDbLine
 62
7
  6
CONTINUOUS
 10
63.2986092598
 20
91.0079178886
 11
36.2986092598
 21
91.0079178886
  0
LINE
  5
25E
100
AcDbEntity
  8
0
100
AcDbLine
 62
7
  6
CONTINUOUS
 10
49.7986092598
 20
89.7814205805
 11
54.7986092598
 21
86.8946692345
  0
LINE
  5
25F
100
AcDbEntity
  8
0
100
AcDbLine
 62
7
  6
CONTINUOUS
 10
78.3986092598
 20
65.0079178886
 11
77.0773987141
 21
66.3291284342
  0
LINE
  5
260
100
AcDbEntity
  8
0
100
AcDbLine
 62
7
  6
CONTINUOUS
 10
76.7197755371
 20
66.6867516112
 11
75.3986092598
 21
68.0079178886
  0
LINE
  5
261
100
AcDbEntity
  8
0
100
AcDbLine
 62
7
  6
CONTINUOUS
 10
73.5986092598
 20
74.2079178886
 11
73.5986092598
 21
99.5079178886
  0
LINE
  5
262
100
AcDbEntity
  8
0
100
AcDbLine
 62
7
  6
CONTINUOUS
 10
74.8986092598
 20
102.4079178886
 11
74.8986092598
 21
103.0079178886
  0
LINE
  5
263
100
AcDbEntity
  8
0
100
AcDbLine
 62
7
  6
CONTINUOUS
 10
75.1986092598
 20
106.5079178886
 11
75.1986092598
 21
103.0079178886
  0
LINE
  5
264
100
AcDbEntity
  8
0
100
AcDbLine
 62
7
  6
CONTINUOUS
 10
75.3986092598
 20
100.0079178886
 11
75.3986092598
 21
68.7079178886
  0
LINE
  5
265
100
AcDbEntity
  8
0
100
AcDbLine
 62
7
  6
CONTINUOUS
 10
15.6986092598
 20
88.7579178886
 11
19.1986092598
 21
89.375062321
  0
LINE
  5
266
100
AcDbEntity
  8
0
100
AcDbLine
 62
7
  6
CONTINUOUS
 10
63.2986092598
 20
89.7814205805
 11
68.2986092598
 21
86.8946692345
  0
LINE
  5
267
100
AcDbEntity
  8
0
100
AcDbLine
 62
7
  6
CONTINUOUS
 10
77.8986092598
 20
101.6079178886
 11
77.8986092598
 21
100.0079178886
  0
LINE
  5
268
100
AcDbEntity
  8
0
100
AcDbLine
 62
7
  6
CONTINUOUS
 10
78.3986092598
 20
13.8079178886
 11
78.3986092598
 21
103.0079178886
  0
LINE
  5
269
100
AcDbEntity
  8
0
100
AcDbLine
 62
7
  6
CONTINUOUS
 10
78.3986092598
 20
97.0079178886
 11
73.5986092598
 21
97.0079178886
  0
LINE
  5
26A
100
AcDbEntity
  8
0
100
AcDbLine
 62
7
  6
CONTINUOUS
 10
25.9986092598
 20
97.0079178886
 11
21.1986092598
 21
97.0079178886
  0
LINE
  5
26B
100
AcDbEntity
  8
0
100
AcDbLine
 62
7
  6
CONTINUOUS
 10
73.5986092598
 20
99.5079178886
 11
25.9986092598
 21
99.5079178886
  0
LINE
  5
26C
100
AcDbEntity
  8
0
100
AcDbLine
 62
7
  6
CONTINUOUS
 10
19.1986092598
 20
99.5079178886
 11
21.1986092598
 21
99.5079178886
  0
LINE
  5
26D
100
AcDbEntity
  8
0
100
AcDbLine
 62
7
  6
CONTINUOUS
 10
21.1986092598
 20
100.0079178886
 11
27.6986092598
 21
100.0079178886
  0
LINE
  5
26E
100
AcDbEntity
  8
0
100
AcDbLine
 62
7
  6
CONTINUOUS
 10
71.8986092598
 20
100.0079178886
 11
78.3986092598
 21
100.0079178886
  0
LINE
  5
26F
100
AcDbEntity
  8
0
100
AcDbLine
 62
7
  6
CONTINUOUS
 10
21.6986092598
 20
101.6079178886
 11
27.6986092598
 21
101.6079178886
  0
LINE
  5
270
100
AcDbEntity
  8
0
100
AcDbLine
 62
7
  6
CONTINUOUS
 10
71.8986092598
 20
101.6079178886
 11
77.8986092598
 21
101.6079178886
  0
LINE
  5
271
100
AcDbEntity
  8
0
100
AcDbLine
 62
7
  6
CONTINUOUS
 10
74.9052769144
 20
102.4079215934
 11
74.8919416051
 21
102.4079215934
  0
LINE
  5
272
100
AcDbEntity
  8
0
100
AcDbLine
 62
7
  6
CONTINUOUS
 10
24.7052769144
 20
102.4079215934
 11
24.6919416051
 21
102.4079215934
  0
LINE
  5
273
100
AcDbEntity
  8
0
100
AcDbLine
 62
7
  6
CONTINUOUS
 10
21.1986092598
 20
103.0079178886
 11
78.3986092598
 21
103.0079178886
  0
LINE
  5
274
100
AcDbEntity
  8
0
100
AcDbLine
 62
7
  6
CONTINUOUS
 10
26.1986216816
 20
105.5079178886
 11
58.1985968379
 21
105.5079178886
  0
LINE
  5
275
100
AcDbEntity
  8
0
100
AcDbLine
 62
7
  6
CONTINUOUS
 10
33.1986092598
 20
106.0079178886
 11
34.1986092598
 21
106.0079178886
  0
LINE
  5
276
100
AcDbEntity
  8
0
100
AcDbLine
 62
7
  6
CONTINUOUS
 10
57.1986092598
 20
106.0079178886
 11
67.1986092598
 21
106.0079178886
  0
LINE
  5
277
100
AcDbEntity
  8
0
100
AcDbLine
 62
7
  6
CONTINUOUS
 10
67.1986092598
 20
106.5079178886
 11
75.1986092598
 21
106.5079178886
  0
LINE
  5
278
100
AcDbEntity
  8
0
100
AcDbLine
 62
7
  6
CONTINUOUS
 10
27.1986092598
 20
107.1079178886
 11
33.1986092598
 21
107.1079178886
  0
LINE
  5
279
100
AcDbEntity
  8
0
100
AcDbLine
 62
7
  6
CONTINUOUS
 10
51.1986092598
 20
107.1079178886
 11
57.1986092598
 21
107.1079178886
  0
LINE
  5
27A
100
AcDbEntity
  8
0
100
AcDbLine
 62
7
  6
CONTINUOUS
 10
71.2048599485
 20
107.6079203931
 11
71.192358571
 21
107.6079203931
  0
LINE
  5
27B
100
AcDbEntity
  8
0
100
AcDbLine
 62
7
  6
CONTINUOUS
 10
54.2988093173
 20
108.5079178886
 11
56.2778138877
 21
108.5079178886
  0
LINE
  5
27C
100
AcDbEntity
  8
0
100
AcDbLine
 62
7
  6
CONTINUOUS
 10
57.914884442
 20
108.5079178886
 11
69.2984092022
 21
108.5079178886
  0
LINE
  5
27D
100
AcDbEntity
  8
0
100
AcDbLine
 62
7
  6
CONTINUOUS
 10
30.2986236747
 20
109.0079178886
 11
34.1986092598
 21
109.0079178886
  0
LINE
  5
27E
100
AcDbEntity
  8
0
100
AcDbLine
 62
7
  6
CONTINUOUS
 10
55.0486345731
 20
115.0079178886
 11
68.5485839464
 21
115.0079178886
  0
LINE
  5
27F
100
AcDbEntity
  8
0
100
AcDbLine
 62
7
  6
CONTINUOUS
 10
34.1986092598
 20
115.5079178886
 11
50.1986092598
 21
115.5079178886
  0
LINE
  5
280
100
AcDbEntity
  8
0
100
AcDbLine
 62
7
  6
CONTINUOUS
 10
73.984205553
 20
18.3033248468
 11
70.9179793832
 21
15.237098677
  0
LINE
  5
281
100
AcDbEntity
  8
0
100
AcDbLine
 62
7
  6
CONTINUOUS
 10
57.7986213876
 20
117.0079178886
 11
65.7985971319
 21
117.0079178886
  0
LINE
  5
282
100
AcDbEntity
  8
0
100
AcDbLine
 62
7
  6
CONTINUOUS
 10
31.798841694
 20
119.0079178886
 11
43.7983768255
 21
119.0079178886
  0
LINE
  5
283
100
AcDbEntity
  8
0
100
AcDbLine
 62
7
  6
CONTINUOUS
 10
32.5488184505
 20
120.0079178886
 11
43.048400069
 21
120.0079178886
  0
LINE
  5
284
100
AcDbEntity
  8
0
100
AcDbLine
 62
7
  6
CONTINUOUS
 10
75.3986092598
 20
10.8079178886
 11
76.7198198054
 21
12.1291284342
  0
LINE
  5
285
100
AcDbEntity
  8
0
100
AcDbLine
 62
7
  6
CONTINUOUS
 10
77.0774429824
 20
12.4867516112
 11
78.3986092598
 21
13.8079178886
  0
ARC
  5
286
100
AcDbEntity
  8
0
100
AcDbCircle
 62
7
  6
CONTINUOUS
 10
26.1986092598
 20
15.8079178886
 40
5.0
100
AcDbArc
 50
180.0
 51
270.0
  0
ARC
  5
287
100
AcDbEntity
  8
0
100
AcDbCircle
 62
7
  6
CONTINUOUS
 10
24.1986092598
 20
13.8079178886
 40
3.0
100
AcDbArc
 50
180.0
 51
270.0
  0
CIRCLE
  5
288
100
AcDbEntity
  8
0
100
AcDbCircle
 62
7
  6
CONTINUOUS
 10
26.2286092598
 20
15.8379178886
 40
2.6
  0
ARC
  5
289
100
AcDbEntity
  8
0
100
AcDbCircle
 62
7
  6
CONTINUOUS
 10
36.2986092598
 20
84.0079178886
 40
7.0
100
AcDbArc
 50
90.0
 51
270.0
  0
ARC
  5
28A
100
AcDbEntity
  8
0
100
AcDbCircle
 62
7
  6
CONTINUOUS
 10
30.2452291856
 20
101.7080931666
 40
6.2
100
AcDbArc
 50
90.4308306716
 51
119.4320036847
  0
ARC
  5
28B
100
AcDbEntity
  8
0
100
AcDbCircle
 62
7
  6
CONTINUOUS
 10
30.1519893339
 20
101.7080931666
 40
6.2
100
AcDbArc
 50
60.5679963153
 51
89.5691693284
  0
ARC
  5
28C
100
AcDbEntity
  8
0
100
AcDbCircle
 62
7
  6
CONTINUOUS
 10
24.6919416051
 20
96.4079215934
 40
6.0
100
AcDbArc
 50
90.0
 51
119.9265057808
  0
ARC
  5
28D
100
AcDbEntity
  8
0
100
AcDbCircle
 62
7
  6
CONTINUOUS
 10
24.7052769144
 20
96.4079215934
 40
6.0
100
AcDbArc
 50
60.0734942192
 51
90.0
  0
ARC
  5
28E
100
AcDbEntity
  8
0
100
AcDbCircle
 62
7
  6
CONTINUOUS
 10
26.1986092598
 20
63.0079178886
 40
5.0
100
AcDbArc
 50
90.0
 51
180.0
  0
ARC
  5
28F
100
AcDbEntity
  8
0
100
AcDbCircle
 62
7
  6
CONTINUOUS
 10
30.7986092598
 20
74.2079178886
 40
4.8
100
AcDbArc
 50
180.0
 51
270.0
  0
CIRCLE
  5
290
100
AcDbEntity
  8
0
100
AcDbCircle
 62
7
  6
CONTINUOUS
 10
36.2986092598
 20
84.0079178886
 40
4.0
  0
CIRCLE
  5
291
100
AcDbEntity
  8
0
100
AcDbCircle
 62
7
  6
CONTINUOUS
 10
36.2986092598
 20
84.0079178886
 40
3.5
  0
CIRCLE
  5
292
100
AcDbEntity
  8
0
100
AcDbCircle
 62
7
  6
CONTINUOUS
 10
36.2986092598
 20
84.0079178886
 40
2.9
  0
CIRCLE
  5
293
100
AcDbEntity
  8
0
100
AcDbCircle
 62
7
  6
CONTINUOUS
 10
26.2286092598
 20
62.9779178886
 40
2.6
  0
CIRCLE
  5
294
100
AcDbEntity
  8
0
100
AcDbCircle
 62
7
  6
CONTINUOUS
 10
42.1986092598
 20
110.5079178886
 40
2.0
  0
CIRCLE
  5
295
100
AcDbEntity
  8
0
100
AcDbCircle
 62
7
  6
CONTINUOUS
 10
49.7986092598
 20
39.4079178886
 40
25.0
  0
ARC
  5
296
100
AcDbEntity
  8
0
100
AcDbCircle
 62
7
  6
CONTINUOUS
 10
73.3986092598
 20
15.8079178886
 40
5.0
100
AcDbArc
 50
270.0
 51
360.0
  0
CIRCLE
  5
297
100
AcDbEntity
  8
0
100
AcDbCircle
 62
7
  6
CONTINUOUS
 10
49.7986092598
 20
39.4079178886
 40
4.5
  0
ARC
  5
298
100
AcDbEntity
  8
0
100
AcDbCircle
 62
7
  6
CONTINUOUS
 10
75.3986092598
 20
13.8079178886
 40
3.0
100
AcDbArc
 50
270.0
 51
360.0
  0
CIRCLE
  5
299
100
AcDbEntity
  8
0
100
AcDbCircle
 62
7
  6
CONTINUOUS
 10
49.7986092598
 20
39.4079178886
 40
2.65
  0
CIRCLE
  5
29A
100
AcDbEntity
  8
0
100
AcDbCircle
 62
7
  6
CONTINUOUS
 10
73.3686092598
 20
15.8379178886
 40
2.6
  0
CIRCLE
  5
29B
100
AcDbEntity
  8
0
100
AcDbCircle
 62
7
  6
CONTINUOUS
 10
49.7986092598
 20
39.4079178886
 40
1.6
  0
CIRCLE
  5
29C
100
AcDbEntity
  8
0
100
AcDbCircle
 62
7
  6
CONTINUOUS
 10
49.7986092598
 20
39.4079178886
 40
1.2295
  0
ARC
  5
29D
100
AcDbEntity
  8
0
100
AcDbCircle
 62
7
  6
CONTINUOUS
 10
71.192358571
 20
99.8079203931
 40
7.8
100
AcDbArc
 50
90.0
 51
120.7984176416
  0
ARC
  5
29E
100
AcDbEntity
  8
0
100
AcDbCircle
 62
7
  6
CONTINUOUS
 10
71.2048599485
 20
99.8079203931
 40
7.8
100
AcDbArc
 50
59.2015823584
 51
90.0
  0
ARC
  5
29F
100
AcDbEntity
  8
0
100
AcDbCircle
 62
7
  6
CONTINUOUS
 10
63.2986092598
 20
84.0079178886
 40
7.0
100
AcDbArc
 50
270.0
 51
90.0
  0
ARC
  5
2A0
100
AcDbEntity
  8
0
100
AcDbCircle
 62
7
  6
CONTINUOUS
 10
54.2452291856
 20
101.7080931666
 40
6.2
100
AcDbArc
 50
90.4308306716
 51
119.4320036847
  0
ARC
  5
2A1
100
AcDbEntity
  8
0
100
AcDbCircle
 62
7
  6
CONTINUOUS
 10
54.1519893339
 20
101.7080931666
 40
6.2
100
AcDbArc
 50
60.5679963153
 51
89.5691693284
  0
ARC
  5
2A2
100
AcDbEntity
  8
0
100
AcDbCircle
 62
7
  6
CONTINUOUS
 10
74.9052769144
 20
96.4079215934
 40
6.0
100
AcDbArc
 50
60.0734942192
 51
90.0
  0
ARC
  5
2A3
100
AcDbEntity
  8
0
100
AcDbCircle
 62
7
  6
CONTINUOUS
 10
74.8919416051
 20
96.4079215934
 40
6.0
100
AcDbArc
 50
90.0
 51
119.9265057808
  0
ARC
  5
2A4
100
AcDbEntity
  8
0
100
AcDbCircle
 62
7
  6
CONTINUOUS
 10
73.3986092598
 20
63.0079178886
 40
5.0
100
AcDbArc
 50
0.0
 51
90.0
  0
ARC
  5
2A5
100
AcDbEntity
  8
0
100
AcDbCircle
 62
7
  6
CONTINUOUS
 10
68.7986092598
 20
74.2079178886
 40
4.8
100
AcDbArc
 50
270.0
 51
360.0
  0
CIRCLE
  5
2A6
100
AcDbEntity
  8
0
100
AcDbCircle
 62
7
  6
CONTINUOUS
 10
63.2986092598
 20
84.0079178886
 40
4.75
  0
CIRCLE
  5
2A7
100
AcDbEntity
  8
0
100
AcDbCircle
 62
7
  6
CONTINUOUS
 10
49.7986092598
 20
84.0079178886
 40
4.75
  0
CIRCLE
  5
2A8
100
AcDbEntity
  8
0
100
AcDbCircle
 62
7
  6
CONTINUOUS
 10
63.2986092598
 20
84.0079178886
 40
3.5
  0
CIRCLE
  5
2A9
100
AcDbEntity
  8
0
100
AcDbCircle
 62
7
  6
CONTINUOUS
 10
49.7986092598
 20
84.0079178886
 40
3.5
  0
CIRCLE
  5
2AA
100
AcDbEntity
  8
0
100
AcDbCircle
 62
7
  6
CONTINUOUS
 10
63.2986092598
 20
84.0079178886
 40
3.0
  0
CIRCLE
  5
2AB
100
AcDbEntity
  8
0
100
AcDbCircle
 62
7
  6
CONTINUOUS
 10
49.7986092598
 20
84.0079178886
 40
3.0
  0
CIRCLE
  5
2AC
100
AcDbEntity
  8
0
100
AcDbCircle
 62
7
  6
CONTINUOUS
 10
73.3686092598
 20
62.9779178886
 40
2.6
  0
SPLINE
  5
2AD
100
AcDbEntity
  8
0
100
AcDbSpline
 62
7
  6
CONTINUOUS
 70
0
 71
3
 72
17
 73
13
 74
0
 42
0.0000001
 43
0.0000001
 44
0.0000000001
 40
0.0
 40
0.0
 40
0.0
 40
0.0
 40
0.1250282702
 40
0.2500557742
 40
0.3750811642
 40
0.5001006679
 40
0.6251008408
 40
0.7500417335
 40
0.8125567183
 40
0.875059797
 40
0.9375380589
 40
1.0
 40
1.0
 40
1.0
 40
1.0
 10
19.1967491517
 20
85.9579775814
 30
0.0
 10
19.0851373182
 20
85.903818435
 30
0.0
 10
18.8634300196
 20
85.7923281646
 30
0.0
 10
18.5369353217
 20
85.6134889575
 30
0.0
 10
18.2188075706
 20
85.4200598538
 30
0.0
 10
17.9127725477
 20
85.2077541444
 30
0.0
 10
17.6256236381
 20
84.9703984965
 30
0.0
 10
17.4121227685
 20
84.7434457635
 30
0.0
 10
17.2710671627
 20
84.5388070233
 30
0.0
 10
17.1861378794
 20
84.3725040927
 30
0.0
 10
17.1297590242
 20
84.1942274368
 30
0.0
 10
17.1164297147
 20
84.0698951543
 30
0.0
 10
17.1164297147
 20
84.0079178886
 30
0.0
  0
SPLINE
  5
2AE
100
AcDbEntity
  8
0
100
AcDbSpline
 62
7
  6
CONTINUOUS
 70
0
 71
3
 72
33
 73
29
 74
0
 42
0.0000001
 43
0.0000001
 44
0.0000000001
 40
0.0
 40
0.0
 40
0.0
 40
0.0
 40
0.0720262371
 40
0.1431079019
 40
0.2128872054
 40
0.2807792767
 40
0.3137277474
 40
0.3457713982
 40
0.3766424452
 40
0.4059763299
 40
0.4332974023
 40
0.4580773274
 40
0.4800405487
 40
0.4901712663
 40
0.4999940994
 40
0.5098171268
 40
0.5199484369
 40
0.5419135754
 40
0.5666954409
 40
0.5940179959
 40
0.6233528009
 40
0.6542246188
 40
0.6862692167
 40
0.7192184371
 40
0.7871114382
 40
0.8568913325
 40
0.9279734497
 40
1.0
 40
1.0
 40
1.0
 40
1.0
 10
19.1966494273
 20
89.3130506576
 30
0.0
 10
19.0856356757
 20
89.2861154312
 30
0.0
 10
18.8654968639
 20
89.230786906
 30
0.0
 10
18.539798646
 20
89.1416494671
 30
0.0
 10
18.2229553463
 20
89.0454258972
 30
0.0
 10
17.9671030988
 20
88.9569331604
 30
0.0
 10
17.7710967474
 20
88.8793777162
 30
0.0
 10
17.6318537346
 20
88.8182129862
 30
0.0
 10
17.5008503548
 20
88.7528927456
 30
0.0
 10
17.3808719397
 20
88.682807528
 30
0.0
 10
17.2757635301
 20
88.6072361123
 30
0.0
 10
17.1906072014
 20
88.5256187313
 30
0.0
 10
17.1403139889
 20
88.4489907691
 30
0.0
 10
17.1198484098
 20
88.3853151784
 30
0.0
 10
17.1147431891
 20
88.3380087031
 30
0.0
 10
17.1198629835
 20
88.2907027496
 30
0.0
 10
17.140350458
 20
88.227029865
 30
0.0
 10
17.1906619827
 20
88.1504068378
 30
0.0
 10
17.2758355227
 20
88.0687953024
 30
0.0
 10
17.3809559692
 20
87.9932292719
 30
0.0
 10
17.5009424635
 20
87.9231480559
 30
0.0
 10
17.6319516784
 20
87.8578301914
 30
0.0
 10
17.7712004754
 20
87.7966688796
 30
0.0
 10
17.9672128194
 20
87.7191173327
 30
0.0
 10
18.2230698022
 20
87.6306274144
 30
0.0
 10
18.5399171871
 20
87.5344065247
 30
0.0
 10
18.8656183003
 20
87.4452715659
 30
0.0
 10
19.085758543
 20
87.3899437499
 30
0.0
 10
19.1967729944
 20
87.363009301
 30
0.0
  0
SPLINE
  5
2AF
100
AcDbEntity
  8
0
100
AcDbSpline
 62
7
  6
CONTINUOUS
 70
0
 71
3
 72
17
 73
13
 74
0
 42
0.0000001
 43
0.0000001
 44
0.0000000001
 40
0.0
 40
0.0
 40
0.0
 40
0.0
 40
0.1250282712
 40
0.2500557761
 40
0.3750811681
 40
0.500100676
 40
0.6251008584
 40
0.7500417717
 40
0.812556774
 40
0.8750598594
 40
0.9375381027
 40
1.0
 40
1.0
 40
1.0
 40
1.0
 10
19.1967480271
 20
82.0578587388
 30
0.0
 10
19.0851362459
 20
82.112017876
 30
0.0
 10
18.8634290472
 20
82.2235081176
 30
0.0
 10
18.5369345038
 20
82.4023472903
 30
0.0
 10
18.2188069023
 20
82.5957763534
 30
0.0
 10
17.9127720248
 20
82.8080820261
 30
0.0
 10
17.6256232462
 20
83.0454376409
 30
0.0
 10
17.4121224805
 20
83.2723903602
 30
0.0
 10
17.2710669697
 20
83.4770290934
 30
0.0
 10
17.1861377627
 20
83.6433319814
 30
0.0
 10
17.129758998
 20
83.821608525
 30
0.0
 10
17.1164297147
 20
83.9459406923
 30
0.0
 10
17.1164297147
 20
84.0079178886
 30
0.0
  0
SPLINE
  5
2B0
100
AcDbEntity
  8
0
100
AcDbSpline
 62
7
  6
CONTINUOUS
 70
0
 71
3
 72
33
 73
29
 74
0
 42
0.0000001
 43
0.0000001
 44
0.0000000001
 40
0.0
 40
0.0
 40
0.0
 40
0.0
 40
0.0720262371
 40
0.1431079019
 40
0.2128872054
 40
0.2807792767
 40
0.3137277474
 40
0.3457713982
 40
0.3766424452
 40
0.4059763299
 40
0.4332974023
 40
0.4580773274
 40
0.4800405487
 40
0.4901712663
 40
0.4999940994
 40
0.5098171268
 40
0.5199484369
 40
0.5419135754
 40
0.5666954409
 40
0.5940179959
 40
0.6233528009
 40
0.6542246188
 40
0.6862692167
 40
0.7192184371
 40
0.7871114382
 40
0.8568913325
 40
0.9279734497
 40
1.0
 40
1.0
 40
1.0
 40
1.0
 10
19.1966494273
 20
80.6527966198
 30
0.0
 10
19.0856356757
 20
80.6258613933
 30
0.0
 10
18.8654968639
 20
80.5705328682
 30
0.0
 10
18.539798646
 20
80.4813954293
 30
0.0
 10
18.2229553463
 20
80.3851718594
 30
0.0
 10
17.9671030988
 20
80.2966791226
 30
0.0
 10
17.7710967474
 20
80.2191236783
 30
0.0
 10
17.6318537346
 20
80.1579589483
 30
0.0
 10
17.5008503548
 20
80.0926387078
 30
0.0
 10
17.3808719397
 20
80.0225534901
 30
0.0
 10
17.2757635301
 20
79.9469820744
 30
0.0
 10
17.1906072014
 20
79.8653646935
 30
0.0
 10
17.1403139889
 20
79.7887367313
 30
0.0
 10
17.1198484098
 20
79.7250611406
 30
0.0
 10
17.1147431891
 20
79.6777546652
 30
0.0
 10
17.1198629835
 20
79.6304487117
 30
0.0
 10
17.140350458
 20
79.5667758271
 30
0.0
 10
17.1906619827
 20
79.4901527999
 30
0.0
 10
17.2758355227
 20
79.4085412645
 30
0.0
 10
17.3809559692
 20
79.3329752341
 30
0.0
 10
17.5009424635
 20
79.2628940181
 30
0.0
 10
17.6319516784
 20
79.1975761536
 30
0.0
 10
17.7712004754
 20
79.1364148417
 30
0.0
 10
17.9672128194
 20
79.0588632949
 30
0.0
 10
18.2230698022
 20
78.9703733766
 30
0.0
 10
18.5399171871
 20
78.8741524869
 30
0.0
 10
18.8656183003
 20
78.7850175281
 30
0.0
 10
19.085758543
 20
78.7296897121
 30
0.0
 10
19.1967729944
 20
78.7027552631
 30
0.0
  0
ENDSEC
  0
SECTION
  2
OBJECTS
  0
DICTIONARY
  5
C
100
AcDbDictionary
280
0
281
1
  3
ACAD_GROUP
350
D
  3
ACAD_MLINESTYLE
350
17
  3
ACAD_LAYOUT
350
1A
  3
ACAD_PLOTSETTINGS
350
19
  3
ACAD_PLOTSTYLENAME
350
E
  0
DICTIONARY
  5
D
102
{ACAD_REACTORS
330
C
102
}
100
AcDbDictionary
280
0
281
1
  0
ACDBDICTIONARYWDFLT
  5
E
102
{ACAD_REACTORS
330
C
102
}
100
AcDbDictionary
281
1
  3
Normal
350
F
100
AcDbDictionaryWithDefault
340
F
  0
DICTIONARY
  5
17
102
{ACAD_REACTORS
330
C
102
}
100
AcDbDictionary
280
0
281
1
  3
Standard
350
18
  0
DICTIONARY
  5
19
102
{ACAD_REACTORS
330
C
102
}
100
AcDbDictionary
281
1
  0
DICTIONARY
  5
1A
102
{ACAD_REACTORS
330
C
102
}
100
AcDbDictionary
281
1
  3
Model
350
2B1
  3
Layout1
350
2B2
  0
ACDBPLACEHOLDER
  5
F
102
{ACAD_REACTORS
330
E
102
}
  0
MLINESTYLE
  5
18
102
{ACAD_REACTORS
330
17
102
}
100
AcDbMlineStyle
  2
STANDARD
 70
0
  3

 62
256
 51
90.0
 52
90.0
 71
2
 49
0.5
 62
256
  6
BYLAYER
 49
-0.5
 62
256
  6
BYLAYER
  0
LAYOUT
  5
2B1
102
{ACAD_REACTORS
330
1A
102
}
100
AcDbPlotSettings
  1

  2
none_device
  4

  6

 40
0.0
 41
0.0
 42
0.0
 43
0.0
 44
210.0
 45
297.0
 46
0.0
 47
0.0
 48
0.0
 49
0.0
140
0.0
141
0.0
142
1.0
143
1.0
 70
1024
 72
1
 73
0
 74
0
  7

 75
0
147
1.0
148
0.0
149
0.0
100
AcDbLayout
  1
Model
 70
0
 71
0
 10
0.0
 20
0.0
 11
210.0
 21
297.0
 12
0.0
 22
0.0
 32
0.0
 14
0.0
 24
0.0
 34
0.0
 15
0.0
 25
0.0
 35
0.0
146
0.0
 13
0.0
 23
0.0
 33
0.0
 16
1.0
 26
0.0
 36
0.0
 17
0.0
 27
1.0
 37
0.0
 76
0
330
210
345
0
346
0
  0
LAYOUT
  5
2B2
102
{ACAD_REACTORS
330
1A
102
}
100
AcDbPlotSettings
  1

  2
none_device
  4

  6

 40
0.0
 41
0.0
 42
0.0
 43
0.0
 44
210.0
 45
297.0
 46
0.0
 47
0.0
 48
0.0
 49
0.0
140
0.0
141
0.0
142
1.0
143
1.0
 70
0
 72
1
 73
0
 74
0
  7

 75
0
147
1.0
148
0.0
149
0.0
100
AcDbLayout
  1
Layout1
 70
0
 71
1
 10
0.0
 20
0.0
 11
210.0
 21
297.0
 12
0.0
 22
0.0
 32
0.0
 14
0.0
 24
0.0
 34
0.0
 15
0.0
 25
0.0
 35
0.0
146
0.0
 13
0.0
 23
0.0
 33
0.0
 16
1.0
 26
0.0
 36
0.0
 17
0.0
 27
1.0
 37
0.0
 76
0
330
211
345
0
346
0
  0
ENDSEC
  0
EOF
