999
DXF file: C:\Users\sesa63760\Dev\_Creo\CAD\MCADID0003711_3D-CAD\drw0001_7.dxf
999
Pro/ENGINEER 2019471 by Parametric Technology Corporation
  0
SECTION
  2
HEADER
  9
$ACADVER
  1
AC1024
  9
$DWGCODEPAGE
  3
ANSI_1252
  9
$EXTMAX
 10
42.9781402648
 20
60.7833698031
 30
0.0
  9
$EXTMIN
 10
0.0
 20
0.0
 30
0.0
  9
$LIMMIN
 10
0.0
 20
0.0
  9
$LIMMAX
 10
42.9781402648
 20
60.7833698031
  9
$VIEWCTR
 10
21.4890701324
 20
30.3916849015
  9
$VIEWSIZE
 40
60.7833698031
  9
$CLAYER
  8
0
  9
$LTSCALE
 40
3.9621752168
  9
$CELTYPE
  6
BYLAYER
  9
$DIMSCALE
 40
1.0
  9
$DIMASZ
 40
0.511644527
  9
$DIMEXO
 40
1.0
  9
$DIMDLI
 40
2.7375028771
  9
$DIMEXE
 40
1.0
  9
$DIMCEN
 40
0.6483559446
  9
$DIMLFAC
 40
1.0
  9
$DIMBLK
  1
_FILLED
  9
$DIMALT
 70
0
  9
$DIMALTF
 40
0.0393700787
  9
$DIMTXT
 40
0.7163023377
  9
$DIMTOL
 70
1
  9
$DIMLIM
 70
0
  9
$DIMTFAC
 40
1.0
  9
$DIMTP
 40
0.01
  9
$DIMTM
 40
0.01
  9
$DIMGAP
 40
0.625
  9
$DIMDSEP
 70
46
  9
$AUNITS
 70
0
  9
$PDMODE
 70
3
  9
$PDSIZE
 40
0.3125
  9
$HANDSEED
  5
2F3
  9
$TILEMODE
 70
1
  9
$MEASUREMENT
 70
1
  9
$INSUNITS
 70
4
  0
ENDSEC
  0
SECTION
  2
CLASSES
  0
CLASS
  1
ACDBDICTIONARYWDFLT
  2
AcDbDictionaryWithDefault
  3
AutoCAD 2000
 90
0
 91
1
280
0
281
0
  0
CLASS
  1
ACDBPLACEHOLDER
  2
AcDbPlaceHolder
  3
AutoCAD 2000
 90
0
 91
1
280
0
281
0
  0
CLASS
  1
LAYOUT
  2
AcDbLayout
  3
AutoCAD 2000
 90
0
 91
0
280
0
281
0
  0
ENDSEC
  0
SECTION
  2
TABLES
  0
TABLE
  2
VPORT
  5
8
100
AcDbSymbolTable
 70
2
  0
VPORT
  5
1F4
100
AcDbSymbolTableRecord
100
AcDbViewportTableRecord
  2
*ACTIVE
 70
0
 10
0.0
 20
0.0
 11
1.0
 21
1.0
 12
21.4890701324
 22
30.3916849015
 13
0.0
 23
0.0
 14
1.0
 24
1.0
 15
0.0
 25
0.0
 16
0.0
 26
0.0
 36
1.0
 17
0.0
 27
0.0
 37
0.0
 40
60.7833698031
 41
0.7070707071
 42
50.0
 43
0.0
 44
0.0
 50
0.0
 51
0.0
 71
0
 72
100
 73
1
 74
1
 75
0
 76
0
 77
0
 78
0
  0
ENDTAB
  0
TABLE
  2
LTYPE
  5
5
100
AcDbSymbolTable
 70
6
  0
LTYPE
  5
14
100
AcDbSymbolTableRecord
100
AcDbLinetypeTableRecord
  2
BYBLOCK
 70
0
  3

 72
65
 73
0
 40
0.0
  0
LTYPE
  5
15
100
AcDbSymbolTableRecord
100
AcDbLinetypeTableRecord
  2
BYLAYER
 70
0
  3

 72
65
 73
0
 40
0.0
  0
LTYPE
  5
16
100
AcDbSymbolTableRecord
100
AcDbLinetypeTableRecord
  2
CONTINUOUS
 70
64
  3
Solid line
 72
65
 73
0
 40
0.0
  0
LTYPE
  5
1F5
100
AcDbSymbolTableRecord
100
AcDbLinetypeTableRecord
  2
CENTER
 70
64
  3
____ _ ____ _ ____ _ ____ _ ____ _ ____ _ ____
 72
65
 73
4
 40
0.6
 49
0.375
 74
0
 49
-0.075
 74
0
 49
0.075
 74
0
 49
-0.075
 74
0
  0
LTYPE
  5
1F6
100
AcDbSymbolTableRecord
100
AcDbLinetypeTableRecord
  2
HIDDEN
 70
64
  3
- - - - - - - - - - - - - - - - - - - -
 72
65
 73
2
 40
0.2
 49
0.1
 74
0
 49
-0.1
 74
0
  0
LTYPE
  5
1F7
100
AcDbSymbolTableRecord
100
AcDbLinetypeTableRecord
  2
PHANTOM
 70
64
  3
_____ _ _ _____ _ _ _____ _ _ _____
 72
65
 73
6
 40
0.8
 49
0.45
 74
0
 49
-0.05
 74
0
 49
0.1
 74
0
 49
-0.05
 74
0
 49
0.1
 74
0
 49
-0.05
 74
0
  0
LTYPE
  5
1F8
100
AcDbSymbolTableRecord
100
AcDbLinetypeTableRecord
  2
DOT
 70
64
  3
. . . . . . . . . . . . . . . . . . . .
 72
65
 73
2
 40
0.2
 49
0.1
 74
0
 49
-0.1
 74
0
  0
LTYPE
  5
1F9
100
AcDbSymbolTableRecord
100
AcDbLinetypeTableRecord
  2
DASHED
 70
64
  3
- - - - - - - - - - - - - - - - - - - -
 72
65
 73
2
 40
0.2
 49
0.1
 74
0
 49
-0.1
 74
0
  0
ENDTAB
  0
TABLE
  2
LAYER
  5
2
100
AcDbSymbolTable
 70
36
  0
LAYER
  5
10
100
AcDbSymbolTableRecord
100
AcDbLayerTableRecord
  2
0
 70
0
 62
7
  6
CONTINUOUS
370
-3
390
F
  0
LAYER
  5
1FA
100
AcDbSymbolTableRecord
100
AcDbLayerTableRecord
  2
DEFAULT_1
 70
0
 62
7
  6
CENTER
370
-3
390
F
  0
LAYER
  5
1FB
100
AcDbSymbolTableRecord
100
AcDbLayerTableRecord
  2
DEFAULT_2
 70
0
 62
7
  6
HIDDEN
370
-3
390
F
  0
LAYER
  5
1FC
100
AcDbSymbolTableRecord
100
AcDbLayerTableRecord
  2
DEFAULT_3
 70
0
 62
7
  6
PHANTOM
370
-3
390
F
  0
LAYER
  5
1FD
100
AcDbSymbolTableRecord
100
AcDbLayerTableRecord
  2
00_COMPONENTS
 70
0
 62
7
  6
CONTINUOUS
370
-3
390
F
  0
LAYER
  5
1FE
100
AcDbSymbolTableRecord
100
AcDbLayerTableRecord
  2
01_1_DEFAULT_DATUMS
 70
0
 62
7
  6
CONTINUOUS
370
-3
390
F
  0
LAYER
  5
1FF
100
AcDbSymbolTableRecord
100
AcDbLayerTableRecord
  2
01_PLANES
 70
0
 62
7
  6
CONTINUOUS
370
-3
390
F
  0
LAYER
  5
200
100
AcDbSymbolTableRecord
100
AcDbLayerTableRecord
  2
02_COORD_SYS
 70
0
 62
7
  6
CONTINUOUS
370
-3
390
F
  0
LAYER
  5
201
100
AcDbSymbolTableRecord
100
AcDbLayerTableRecord
  2
03_AXES
 70
0
 62
7
  6
CONTINUOUS
370
-3
390
F
  0
LAYER
  5
202
100
AcDbSymbolTableRecord
100
AcDbLayerTableRecord
  2
04_POINTS
 70
0
 62
7
  6
CONTINUOUS
370
-3
390
F
  0
LAYER
  5
203
100
AcDbSymbolTableRecord
100
AcDbLayerTableRecord
  2
05_CURVES
 70
0
 62
7
  6
CONTINUOUS
370
-3
390
F
  0
LAYER
  5
204
100
AcDbSymbolTableRecord
100
AcDbLayerTableRecord
  2
06_SURFS
 70
0
 62
7
  6
CONTINUOUS
370
-3
390
F
  0
LAYER
  5
205
100
AcDbSymbolTableRecord
100
AcDbLayerTableRecord
  2
07_COSMETICS
 70
0
 62
7
  6
CONTINUOUS
370
-3
390
F
  0
LAYER
  5
206
100
AcDbSymbolTableRecord
100
AcDbLayerTableRecord
  2
10_NOTES
 70
0
 62
7
  6
CONTINUOUS
370
-3
390
F
  0
LAYER
  5
207
100
AcDbSymbolTableRecord
100
AcDbLayerTableRecord
  2
11_NOTES_PUB
 70
0
 62
7
  6
CONTINUOUS
370
-3
390
F
  0
LAYER
  5
208
100
AcDbSymbolTableRecord
100
AcDbLayerTableRecord
  2
13_REF_GTOL
 70
0
 62
7
  6
CONTINUOUS
370
-3
390
F
  0
LAYER
  5
209
100
AcDbSymbolTableRecord
100
AcDbLayerTableRecord
  2
16_MISC
 70
0
 62
7
  6
CONTINUOUS
370
-3
390
F
  0
LAYER
  5
20A
100
AcDbSymbolTableRecord
100
AcDbLayerTableRecord
  2
17_NO_PRINT
 70
0
 62
7
  6
CONTINUOUS
370
-3
390
F
  0
LAYER
  5
20B
100
AcDbSymbolTableRecord
100
AcDbLayerTableRecord
  2
18_DATUM_CAMS_JOINTS
 70
0
 62
7
  6
CONTINUOUS
370
-3
390
F
  0
LAYER
  5
20C
100
AcDbSymbolTableRecord
100
AcDbLayerTableRecord
  2
19_DATUM_FUNCTIONAL
 70
0
 62
7
  6
CONTINUOUS
370
-3
390
F
  0
LAYER
  5
20D
100
AcDbSymbolTableRecord
100
AcDbLayerTableRecord
  2
20_DATUM_KINEMATIC_SCHEME
 70
0
 62
7
  6
CONTINUOUS
370
-3
390
F
  0
ENDTAB
  0
TABLE
  2
STYLE
  5
3
100
AcDbSymbolTable
 70
1
  0
STYLE
  5
11
100
AcDbSymbolTableRecord
100
AcDbTextStyleTableRecord
  2
STANDARD
 70
0
 40
0.0
 41
1.0
 50
0.0
 71
0
 42
0.2
  3
ARIAL.TTF
  4

  0
STYLE
  5
20E
100
AcDbSymbolTableRecord
100
AcDbTextStyleTableRecord
  2
TEXTSTYLE_1
 70
0
 40
0.0
 41
0.8
 50
0.0
 71
0
 42
0.2
  3
gdt
  4

  0
ENDTAB
  0
TABLE
  2
VIEW
  5
6
100
AcDbSymbolTable
 70
0
  0
ENDTAB
  0
TABLE
  2
UCS
  5
7
100
AcDbSymbolTable
 70
0
  0
ENDTAB
  0
TABLE
  2
APPID
  5
9
100
AcDbSymbolTable
 70
1
  0
APPID
  5
20F
100
AcDbSymbolTableRecord
100
AcDbRegAppTableRecord
  2
ACAD
 70
0
  0
ENDTAB
  0
TABLE
  2
BLOCK_RECORD
  5
1
100
AcDbSymbolTable
 70
0
  0
BLOCK_RECORD
  5
210
100
AcDbSymbolTableRecord
100
AcDbBlockTableRecord
  2
*Model_Space
  0
BLOCK_RECORD
  5
211
100
AcDbSymbolTableRecord
100
AcDbBlockTableRecord
  2
*Paper_Space
  0
BLOCK_RECORD
  5
212
100
AcDbSymbolTableRecord
100
AcDbBlockTableRecord
  2
_FILLED
  0
ENDTAB
  0
TABLE
  2
DIMSTYLE
  5
A
100
AcDbSymbolTable
 70
1
100
AcDbDimStyleTable
 71
0
  0
DIMSTYLE
105
213
100
AcDbSymbolTableRecord
100
AcDbDimStyleTableRecord
  2
STANDARD
 70
0
  3

  4

 40
1.0
 41
0.511644527
 42
1.0
 43
0.38
 44
1.0
 45
0.0
 46
0.0
 47
0.01
 48
0.01
140
0.7163023377
141
0.09
142
0.0
143
25.4
144
1.0
145
0.0
146
1.0
147
0.625
 71
1
 72
0
 73
0
 74
0
 75
0
 76
0
 77
1
 78
8
 79
2
170
0
171
1
172
0
173
0
174
0
175
0
176
0
177
0
178
0
270
2
179
2
271
2
272
2
273
2
274
2
275
0
280
0
281
0
282
0
283
1
284
8
285
0
286
0
287
3
288
0
340
11
278
46
341
212
342
212
343
212
344
212
  0
ENDTAB
  0
ENDSEC
  0
SECTION
  2
BLOCKS
  0
BLOCK
  5
20
100
AcDbEntity
  8
0
100
AcDbBlockBegin
  2
*Model_Space
 70
0
 10
0.0
 20
0.0
 30
0.0
  3
*Model_Space
  1

  0
ENDBLK
  5
21
100
AcDbEntity
  8
0
100
AcDbBlockEnd
  0
BLOCK
  5
1C
100
AcDbEntity
  8
0
100
AcDbBlockBegin
  2
*Paper_Space
 70
0
 10
0.0
 20
0.0
 30
0.0
  3
*Paper_Space
  1

  0
ENDBLK
  5
1D
100
AcDbEntity
  8
0
100
AcDbBlockEnd
  0
BLOCK
  5
214
100
AcDbEntity
  8
0
100
AcDbBlockBegin
  2
_FILLED
 70
64
 10
0.0
 20
0.0
  3
_FILLED
  1

  0
SOLID
  5
215
100
AcDbEntity
  8
0
  6
BYBLOCK
 62
0
100
AcDbTrace
 10
0.0
 20
0.0
 11
-1.0
 21
0.25
 12
-1.0
 22
-0.25
 13
-1.0
 23
-0.25
  0
ENDBLK
  5
216
100
AcDbEntity
  8
0
  6
BYBLOCK
 62
0
100
AcDbBlockEnd
  0
ENDSEC
  0
SECTION
  2
ENTITIES
  0
LINE
  5
217
100
AcDbEntity
  8
0
100
AcDbLine
 62
7
  6
BYLAYER
 10
4.5634683818
 20
25.8907857488
 11
4.5634683818
 21
34.8907857498
  0
LINE
  5
218
100
AcDbEntity
  8
0
100
AcDbLine
 62
7
  6
BYLAYER
 10
5.3184739498
 20
24.7907857492
 11
5.3184739498
 21
25.2907857494
  0
LINE
  5
219
100
AcDbEntity
  8
0
100
AcDbLine
 62
7
  6
BYLAYER
 10
5.3184739376
 20
35.4907857494
 11
5.3184739376
 21
35.9907857358
  0
LINE
  5
21A
100
AcDbEntity
  8
0
100
AcDbLine
 62
7
  6
BYLAYER
 10
6.9634683818
 20
31.3907857496
 11
6.9634683818
 21
29.3907857496
  0
LINE
  5
21B
100
AcDbEntity
  8
0
100
AcDbLine
 62
7
  6
BYLAYER
 10
7.5634683875
 20
22.8907857494
 11
7.5634683875
 21
23.3907857493
  0
LINE
  5
21C
100
AcDbEntity
  8
0
100
AcDbLine
 62
7
  6
BYLAYER
 10
7.5634683674
 20
37.3907857709
 11
7.5634683674
 21
37.8907857494
  0
LINE
  5
21D
100
AcDbEntity
  8
0
100
AcDbLine
 62
7
  6
BYLAYER
 10
11.1634683818
 20
29.3907857482
 11
11.1634683818
 21
31.3907857495
  0
LINE
  5
21E
100
AcDbEntity
  8
0
100
AcDbLine
 62
7
  6
BYLAYER
 10
12.8154692038
 20
35.9907857358
 11
12.8154692038
 21
35.4907857494
  0
LINE
  5
21F
100
AcDbEntity
  8
0
100
AcDbLine
 62
7
  6
BYLAYER
 10
12.8154692041
 20
25.2907857494
 11
12.8154692041
 21
24.7907857492
  0
LINE
  5
220
100
AcDbEntity
  8
0
100
AcDbLine
 62
7
  6
BYLAYER
 10
13.1634683816
 20
34.4907857491
 11
13.1634683816
 21
26.2907857523
  0
LINE
  5
221
100
AcDbEntity
  8
0
100
AcDbLine
 62
7
  6
BYLAYER
 10
14.0616318492
 20
36.8907857494
 11
14.0616318492
 21
35.4281937572
  0
LINE
  5
222
100
AcDbEntity
  8
0
100
AcDbLine
 62
7
  6
BYLAYER
 10
14.0616320932
 20
25.3533654152
 11
14.0616320932
 21
23.8907857496
  0
LINE
  5
223
100
AcDbEntity
  8
0
100
AcDbLine
 62
7
  6
BYLAYER
 10
13.3442017801
 20
29.5907857493
 11
13.5021741173
 21
30.3907857494
  0
LINE
  5
224
100
AcDbEntity
  8
0
100
AcDbLine
 62
7
  6
BYLAYER
 10
7.5634683816
 20
22.8907857494
 11
35.5634683818
 21
22.8907857494
  0
LINE
  5
225
100
AcDbEntity
  8
0
100
AcDbLine
 62
7
  6
BYLAYER
 10
13.4983157583
 20
28.3799519951
 11
13.6613572521
 21
28.1936698794
  0
LINE
  5
226
100
AcDbEntity
  8
0
100
AcDbLine
 62
7
  6
BYLAYER
 10
13.5021741172
 20
28.7907857494
 11
13.3442017801
 21
29.5907857493
  0
LINE
  5
227
100
AcDbEntity
  8
0
100
AcDbLine
 62
7
  6
BYLAYER
 10
13.9760911297
 20
29.5907857493
 11
13.818118792
 21
30.3907857492
  0
LINE
  5
228
100
AcDbEntity
  8
0
100
AcDbLine
 62
7
  6
BYLAYER
 10
13.818118792
 20
28.7907857496
 11
13.9760911296
 21
29.5907857491
  0
LINE
  5
229
100
AcDbEntity
  8
0
100
AcDbLine
 62
7
  6
BYLAYER
 10
13.4983157582
 20
30.8016195035
 11
13.6613572521
 21
30.9879016195
  0
LINE
  5
22A
100
AcDbEntity
  8
0
100
AcDbLine
 62
7
  6
BYLAYER
 10
20.0634683818
 20
37.9907857494
 11
20.2634683819
 21
38.1907857496
  0
LINE
  5
22B
100
AcDbEntity
  8
0
100
AcDbLine
 62
7
  6
BYLAYER
 10
35.5634683546
 20
23.3907857442
 11
29.8294937829
 21
23.3907857442
  0
LINE
  5
22C
100
AcDbEntity
  8
0
100
AcDbLine
 62
7
  6
BYLAYER
 10
14.2042048801
 20
23.3907857493
 11
7.5634684154
 21
23.3907857493
  0
LINE
  5
22D
100
AcDbEntity
  8
0
100
AcDbLine
 62
7
  6
BYLAYER
 10
14.0616320932
 20
23.8907857496
 11
29.9634683818
 21
23.8907857504
  0
LINE
  5
22E
100
AcDbEntity
  8
0
100
AcDbLine
 62
7
  6
BYLAYER
 10
15.8240304472
 20
23.8905956052
 11
15.8239832985
 21
36.8907857494
  0
LINE
  5
22F
100
AcDbEntity
  8
0
100
AcDbLine
 62
7
  6
BYLAYER
 10
5.3184739398
 20
24.7907857492
 11
12.8154692081
 21
24.7907857492
  0
LINE
  5
230
100
AcDbEntity
  8
0
100
AcDbLine
 62
7
  6
BYLAYER
 10
30.9634683634
 20
24.7907857536
 11
37.8084628176
 21
24.7907857536
  0
LINE
  5
231
100
AcDbEntity
  8
0
100
AcDbLine
 62
7
  6
BYLAYER
 10
37.8084628142
 20
25.2907857494
 11
30.9634683792
 21
25.2907857494
  0
LINE
  5
232
100
AcDbEntity
  8
0
100
AcDbLine
 62
7
  6
BYLAYER
 10
12.8154692047
 20
25.2907857494
 11
5.3184739498
 21
25.2907857494
  0
LINE
  5
233
100
AcDbEntity
  8
0
100
AcDbLine
 62
7
  6
BYLAYER
 10
13.6613572514
 20
28.1936698788
 11
13.8480849789
 21
28.090785749
  0
LINE
  5
234
100
AcDbEntity
  8
0
100
AcDbLine
 62
7
  6
BYLAYER
 10
16.7634534274
 20
22.8907857616
 11
16.7636759213
 21
37.8907857494
  0
LINE
  5
235
100
AcDbEntity
  8
0
100
AcDbLine
 62
7
  6
BYLAYER
 10
13.8480849791
 20
31.0907857499
 11
13.6613572516
 21
30.98790162
  0
LINE
  5
236
100
AcDbEntity
  8
0
100
AcDbLine
 62
7
  6
BYLAYER
 10
22.6634683817
 20
26.1907857494
 11
24.5634683827
 21
26.1907857494
  0
LINE
  5
237
100
AcDbEntity
  8
0
100
AcDbLine
 62
7
  6
BYLAYER
 10
24.6634683818
 20
26.2907857499
 11
22.6634684219
 21
26.2907857452
  0
LINE
  5
238
100
AcDbEntity
  8
0
100
AcDbLine
 62
7
  6
BYLAYER
 10
13.9418895517
 20
26.2907857523
 11
13.1634683816
 21
26.2907857523
  0
LINE
  5
239
100
AcDbEntity
  8
0
100
AcDbLine
 62
7
  6
BYLAYER
 10
21.2118622078
 20
27.3257364721
 11
21.305738124
 21
27.3493643937
  0
LINE
  5
23A
100
AcDbEntity
  8
0
100
AcDbLine
 62
7
  6
BYLAYER
 10
21.2087573898
 20
27.3249771533
 11
21.2118622078
 21
27.3257364721
  0
LINE
  5
23B
100
AcDbEntity
  8
0
100
AcDbLine
 62
7
  6
BYLAYER
 10
22.6634683746
 20
27.2907857469
 11
24.6634683818
 21
27.2907857447
  0
LINE
  5
23C
100
AcDbEntity
  8
0
100
AcDbLine
 62
7
  6
BYLAYER
 10
21.3057381241
 20
27.3493643936
 11
22.4550662233
 21
27.3493643936
  0
LINE
  5
23D
100
AcDbEntity
  8
0
100
AcDbLine
 62
7
  6
BYLAYER
 10
21.1983118479
 20
27.3907857494
 11
20.9634683818
 21
27.3907857494
  0
LINE
  5
23E
100
AcDbEntity
  8
0
100
AcDbLine
 62
7
  6
BYLAYER
 10
22.6634683685
 20
27.3907857494
 11
24.5634683836
 21
27.3907857494
  0
LINE
  5
23F
100
AcDbEntity
  8
0
100
AcDbLine
 62
7
  6
BYLAYER
 10
22.455066229
 20
27.4200750714
 11
21.305738123
 21
27.4200750714
  0
LINE
  5
240
100
AcDbEntity
  8
0
100
AcDbLine
 62
7
  6
BYLAYER
 10
21.2634683818
 20
27.8614964274
 11
22.263468382
 21
27.8614964274
  0
LINE
  5
241
100
AcDbEntity
  8
0
100
AcDbLine
 62
7
  6
BYLAYER
 10
22.2626656783
 20
27.8907857494
 11
21.2634693354
 21
27.8907857494
  0
LINE
  5
242
100
AcDbEntity
  8
0
100
AcDbLine
 62
7
  6
BYLAYER
 10
13.84808498
 20
28.090785749
 11
13.9420542408
 21
28.090785749
  0
LINE
  5
243
100
AcDbEntity
  8
0
100
AcDbLine
 62
7
  6
BYLAYER
 10
20.0634683818
 20
37.9907857494
 11
20.0634683818
 21
37.8907857494
  0
LINE
  5
244
100
AcDbEntity
  8
0
100
AcDbLine
 62
7
  6
BYLAYER
 10
4.8694750701
 20
24.5707857359
 11
5.3184739499
 21
24.79078575
  0
LINE
  5
245
100
AcDbEntity
  8
0
100
AcDbLine
 62
7
  6
BYLAYER
 10
22.3634683818
 20
28.3907857481
 11
21.1634683818
 21
28.3907857482
  0
LINE
  5
246
100
AcDbEntity
  8
0
100
AcDbLine
 62
7
  6
BYLAYER
 10
13.502174117
 20
28.7907857494
 11
13.818118792
 21
28.7907857494
  0
LINE
  5
247
100
AcDbEntity
  8
0
100
AcDbLine
 62
7
  6
BYLAYER
 10
5.3184739556
 20
35.9907857348
 11
4.8694750642
 21
36.2107857506
  0
LINE
  5
248
100
AcDbEntity
  8
0
100
AcDbLine
 62
7
  6
BYLAYER
 10
20.9634683818
 20
27.3907857494
 11
20.9634683818
 21
34.3907857497
  0
LINE
  5
249
100
AcDbEntity
  8
0
100
AcDbLine
 62
7
  6
BYLAYER
 10
21.1634683818
 20
27.6907857503
 11
21.1634683818
 21
32.9607834685
  0
LINE
  5
24A
100
AcDbEntity
  8
0
100
AcDbLine
 62
7
  6
BYLAYER
 10
21.1634683818
 20
32.990785747
 11
21.1634683818
 21
33.0907857496
  0
LINE
  5
24B
100
AcDbEntity
  8
0
100
AcDbLine
 62
7
  6
BYLAYER
 10
21.2634683818
 20
27.7614964284
 11
21.2634683818
 21
27.8614964274
  0
LINE
  5
24C
100
AcDbEntity
  8
0
100
AcDbLine
 62
7
  6
BYLAYER
 10
21.305738124
 20
27.3493643936
 11
21.305738123
 21
27.4200750715
  0
LINE
  5
24D
100
AcDbEntity
  8
0
100
AcDbLine
 62
7
  6
BYLAYER
 10
21.3057381232
 20
33.3614964273
 11
21.3057381235
 21
33.3774944276
  0
LINE
  5
24E
100
AcDbEntity
  8
0
100
AcDbLine
 62
7
  6
BYLAYER
 10
21.2634683822
 20
27.8907857494
 11
21.2634683821
 21
33.020075073
  0
LINE
  5
24F
100
AcDbEntity
  8
0
100
AcDbLine
 62
7
  6
BYLAYER
 10
13.34420178
 20
29.590785749
 11
13.9760911297
 21
29.5907857491
  0
LINE
  5
250
100
AcDbEntity
  8
0
100
AcDbLine
 62
7
  6
BYLAYER
 10
13.8181187921
 20
30.3907857494
 11
13.5021741172
 21
30.3907857494
  0
LINE
  5
251
100
AcDbEntity
  8
0
100
AcDbLine
 62
7
  6
BYLAYER
 10
22.263468382
 20
33.0200750724
 11
22.263468382
 21
32.9200750714
  0
LINE
  5
252
100
AcDbEntity
  8
0
100
AcDbLine
 62
7
  6
BYLAYER
 10
22.2634683834
 20
32.8907857494
 11
22.2634683839
 21
27.8907857494
  0
LINE
  5
253
100
AcDbEntity
  8
0
100
AcDbLine
 62
7
  6
BYLAYER
 10
22.263468382
 20
27.8614964274
 11
22.263468382
 21
27.7614964269
  0
LINE
  5
254
100
AcDbEntity
  8
0
100
AcDbLine
 62
7
  6
BYLAYER
 10
22.3634683818
 20
27.7907857481
 11
22.3634683818
 21
27.6907856888
  0
LINE
  5
255
100
AcDbEntity
  8
0
100
AcDbLine
 62
7
  6
BYLAYER
 10
22.3634683818
 20
27.8178699593
 11
22.3634683818
 21
33.090785747
  0
LINE
  5
256
100
AcDbEntity
  8
0
100
AcDbLine
 62
7
  6
BYLAYER
 10
22.4550662288
 20
33.4322071054
 11
22.4550662289
 21
33.3614964273
  0
LINE
  5
257
100
AcDbEntity
  8
0
100
AcDbLine
 62
7
  6
BYLAYER
 10
22.4550662294
 20
27.4200750715
 11
22.4550662294
 21
27.3493643936
  0
LINE
  5
258
100
AcDbEntity
  8
0
100
AcDbLine
 62
7
  6
BYLAYER
 10
22.5634683821
 20
33.3713788972
 11
22.5634683821
 21
27.4101926012
  0
LINE
  5
259
100
AcDbEntity
  8
0
100
AcDbLine
 62
7
  6
BYLAYER
 10
22.6634683841
 20
26.1907857494
 11
22.6634683841
 21
26.2907857452
  0
LINE
  5
25A
100
AcDbEntity
  8
0
100
AcDbLine
 62
7
  6
BYLAYER
 10
22.6634683836
 20
27.2907857469
 11
22.6634683836
 21
27.3907857494
  0
LINE
  5
25B
100
AcDbEntity
  8
0
100
AcDbLine
 62
7
  6
BYLAYER
 10
22.6634683762
 20
33.3907857494
 11
22.6634683762
 21
33.4907857451
  0
LINE
  5
25C
100
AcDbEntity
  8
0
100
AcDbLine
 62
7
  6
BYLAYER
 10
22.6634683824
 20
34.4907857475
 11
22.6634683824
 21
34.5907857494
  0
LINE
  5
25D
100
AcDbEntity
  8
0
100
AcDbLine
 62
7
  6
BYLAYER
 10
22.741720158
 20
33.3907857494
 11
22.741720158
 21
27.3907857494
  0
LINE
  5
25E
100
AcDbEntity
  8
0
100
AcDbLine
 62
7
  6
BYLAYER
 10
13.84808498
 20
31.0907857499
 11
13.9420542408
 21
31.0907857499
  0
LINE
  5
25F
100
AcDbEntity
  8
0
100
AcDbLine
 62
7
  6
BYLAYER
 10
23.0634683818
 20
37.9907857494
 11
23.0634683818
 21
37.8907857494
  0
LINE
  5
260
100
AcDbEntity
  8
0
100
AcDbLine
 62
7
  6
BYLAYER
 10
23.6634683815
 20
34.5907857494
 11
23.6634683827
 21
33.3907857494
  0
LINE
  5
261
100
AcDbEntity
  8
0
100
AcDbLine
 62
7
  6
BYLAYER
 10
23.6634683812
 20
27.3907857494
 11
23.6634683802
 21
26.1907857494
  0
LINE
  5
262
100
AcDbEntity
  8
0
100
AcDbLine
 62
7
  6
BYLAYER
 10
22.4550662296
 20
27.3493643905
 11
22.5071667672
 21
27.4347197327
  0
LINE
  5
263
100
AcDbEntity
  8
0
100
AcDbLine
 62
7
  6
BYLAYER
 10
38.2574616934
 20
36.2107857632
 11
37.8084628141
 21
35.9907857483
  0
LINE
  5
264
100
AcDbEntity
  8
0
100
AcDbLine
 62
7
  6
BYLAYER
 10
21.1634683818
 20
32.3907857509
 11
22.3634683818
 21
32.3907857599
  0
LINE
  5
265
100
AcDbEntity
  8
0
100
AcDbLine
 62
7
  6
BYLAYER
 10
21.2634683818
 20
32.8907857494
 11
22.2634683818
 21
32.8907857494
  0
LINE
  5
266
100
AcDbEntity
  8
0
100
AcDbLine
 62
7
  6
BYLAYER
 10
22.263468382
 20
32.9200750714
 11
21.2634683821
 21
32.9200750714
  0
LINE
  5
267
100
AcDbEntity
  8
0
100
AcDbLine
 62
7
  6
BYLAYER
 10
37.808462818
 20
24.7907857617
 11
38.2574617001
 21
24.5707857489
  0
LINE
  5
268
100
AcDbEntity
  8
0
100
AcDbLine
 62
7
  6
BYLAYER
 10
22.5071667675
 20
33.3468517662
 11
22.4550662282
 21
33.4322071054
  0
LINE
  5
269
100
AcDbEntity
  8
0
100
AcDbLine
 62
7
  6
BYLAYER
 10
24.6634683818
 20
26.2907857442
 11
24.6634683818
 21
27.2907857541
  0
LINE
  5
26A
100
AcDbEntity
  8
0
100
AcDbLine
 62
7
  6
BYLAYER
 10
24.6634683818
 20
33.4907857435
 11
24.6634683818
 21
34.490785754
  0
LINE
  5
26B
100
AcDbEntity
  8
0
100
AcDbLine
 62
7
  6
BYLAYER
 10
21.3057381232
 20
33.3614964274
 11
22.4550662289
 21
33.3614964274
  0
LINE
  5
26C
100
AcDbEntity
  8
0
100
AcDbLine
 62
7
  6
BYLAYER
 10
22.6634683763
 20
33.3907857494
 11
24.5634683844
 21
33.3907857494
  0
LINE
  5
26D
100
AcDbEntity
  8
0
100
AcDbLine
 62
7
  6
BYLAYER
 10
22.4550662282
 20
33.4322071054
 11
21.3057381235
 21
33.4322071054
  0
LINE
  5
26E
100
AcDbEntity
  8
0
100
AcDbLine
 62
7
  6
BYLAYER
 10
24.6634683818
 20
33.4907857503
 11
22.6634683176
 21
33.4907857451
  0
LINE
  5
26F
100
AcDbEntity
  8
0
100
AcDbLine
 62
7
  6
BYLAYER
 10
20.9634683818
 20
34.3907857497
 11
21.9504945558
 21
34.3907857497
  0
LINE
  5
270
100
AcDbEntity
  8
0
100
AcDbLine
 62
7
  6
BYLAYER
 10
21.2118670245
 20
33.4558347247
 11
21.2087573883
 21
33.4565943459
  0
LINE
  5
271
100
AcDbEntity
  8
0
100
AcDbLine
 62
7
  6
BYLAYER
 10
21.3057381226
 20
33.4322071056
 11
21.2118670245
 21
33.4558347247
  0
LINE
  5
272
100
AcDbEntity
  8
0
100
AcDbLine
 62
7
  6
BYLAYER
 10
13.1634683816
 20
34.4907857491
 11
13.9418895385
 21
34.4907857491
  0
LINE
  5
273
100
AcDbEntity
  8
0
100
AcDbLine
 62
7
  6
BYLAYER
 10
22.66346839
 20
34.4907857475
 11
24.6634683818
 21
34.4907857462
  0
LINE
  5
274
100
AcDbEntity
  8
0
100
AcDbLine
 62
7
  6
BYLAYER
 10
22.6634683811
 20
34.5907857494
 11
24.5634683824
 21
34.5907857494
  0
LINE
  5
275
100
AcDbEntity
  8
0
100
AcDbLine
 62
7
  6
BYLAYER
 10
5.3184739499
 20
35.4907857494
 11
12.8154692033
 21
35.4907857494
  0
LINE
  5
276
100
AcDbEntity
  8
0
100
AcDbLine
 62
7
  6
BYLAYER
 10
30.9634683817
 20
35.4907857494
 11
37.8084628142
 21
35.4907857494
  0
LINE
  5
277
100
AcDbEntity
  8
0
100
AcDbLine
 62
7
  6
BYLAYER
 10
37.8084628255
 20
35.9907857493
 11
30.9634683875
 21
35.9907857493
  0
LINE
  5
278
100
AcDbEntity
  8
0
100
AcDbLine
 62
7
  6
BYLAYER
 10
12.815469331
 20
35.9907857358
 11
5.3184739404
 21
35.9907857358
  0
LINE
  5
279
100
AcDbEntity
  8
0
100
AcDbLine
 62
7
  6
BYLAYER
 10
14.0616318492
 20
36.8907857494
 11
29.9634683818
 21
36.8907857508
  0
LINE
  5
27A
100
AcDbEntity
  8
0
100
AcDbLine
 62
7
  6
BYLAYER
 10
23.0634683819
 20
37.9907857494
 11
22.8634683818
 21
38.1907857496
  0
LINE
  5
27B
100
AcDbEntity
  8
0
100
AcDbLine
 62
7
  6
BYLAYER
 10
28.963468382
 20
22.8907857616
 11
28.9634683821
 21
37.8907857494
  0
LINE
  5
27C
100
AcDbEntity
  8
0
100
AcDbLine
 62
7
  6
BYLAYER
 10
7.5634685309
 20
37.3907857709
 11
14.2042048931
 21
37.3907857709
  0
LINE
  5
27D
100
AcDbEntity
  8
0
100
AcDbLine
 62
7
  6
BYLAYER
 10
29.8294937856
 20
37.3907857494
 11
35.5634683583
 21
37.3907857494
  0
LINE
  5
27E
100
AcDbEntity
  8
0
100
AcDbLine
 62
7
  6
BYLAYER
 10
7.5634683674
 20
37.8907857494
 11
35.5634683818
 21
37.8907857494
  0
LINE
  5
27F
100
AcDbEntity
  8
0
100
AcDbLine
 62
7
  6
BYLAYER
 10
20.0634683818
 20
37.9907857494
 11
23.0634683818
 21
37.9907857494
  0
LINE
  5
280
100
AcDbEntity
  8
0
100
AcDbLine
 62
7
  6
BYLAYER
 10
29.9634683818
 20
23.8907857494
 11
29.9634683818
 21
36.8907857508
  0
LINE
  5
281
100
AcDbEntity
  8
0
100
AcDbLine
 62
7
  6
BYLAYER
 10
20.2634683819
 20
38.1907857494
 11
22.8634683818
 21
38.1907857494
  0
LINE
  5
282
100
AcDbEntity
  8
0
100
AcDbLine
 62
7
  6
BYLAYER
 10
30.9634683765
 20
24.7907857536
 11
30.9634683765
 21
25.2907857494
  0
LINE
  5
283
100
AcDbEntity
  8
0
100
AcDbLine
 62
7
  6
BYLAYER
 10
30.9634683863
 20
35.4907857494
 11
30.9634683863
 21
35.9907857493
  0
LINE
  5
284
100
AcDbEntity
  8
0
100
AcDbLine
 62
7
  6
BYLAYER
 10
31.9634683818
 20
31.3907857509
 11
31.9634683818
 21
29.3907857496
  0
LINE
  5
285
100
AcDbEntity
  8
0
100
AcDbLine
 62
7
  6
BYLAYER
 10
35.5634683746
 20
37.8907857494
 11
35.5634683746
 21
37.3907857494
  0
LINE
  5
286
100
AcDbEntity
  8
0
100
AcDbLine
 62
7
  6
BYLAYER
 10
35.5634683818
 20
23.3907857442
 11
35.5634683818
 21
22.8907857494
  0
LINE
  5
287
100
AcDbEntity
  8
0
100
AcDbLine
 62
7
  6
BYLAYER
 10
36.1634683818
 20
29.3907857479
 11
36.1634683818
 21
31.3907857495
  0
LINE
  5
288
100
AcDbEntity
  8
0
100
AcDbLine
 62
7
  6
BYLAYER
 10
37.8084628142
 20
35.9907857493
 11
37.8084628142
 21
35.4907857494
  0
LINE
  5
289
100
AcDbEntity
  8
0
100
AcDbLine
 62
7
  6
BYLAYER
 10
37.8084628184
 20
25.2907857494
 11
37.8084628184
 21
24.7907857536
  0
LINE
  5
28A
100
AcDbEntity
  8
0
100
AcDbLine
 62
7
  6
BYLAYER
 10
38.5634683818
 20
34.8907857502
 11
38.5634683818
 21
25.8907857487
  0
ARC
  5
28B
100
AcDbEntity
  8
0
100
AcDbCircle
 62
7
  6
BYLAYER
 10
7.5634683818
 20
25.8907857494
 40
3.0
100
AcDbArc
 50
180.0000000058
 51
269.999999147
  0
ARC
  5
28C
100
AcDbEntity
  8
0
100
AcDbCircle
 62
7
  6
BYLAYER
 10
7.5634684284
 20
25.8907858367
 40
2.5000000888
100
AcDbArc
 50
206.1038823662
 51
269.9999997027
  0
ARC
  5
28D
100
AcDbEntity
  8
0
100
AcDbCircle
 62
7
  6
BYLAYER
 10
9.0634683818
 20
29.3907857494
 40
2.1
100
AcDbArc
 50
179.9999999972
 51
359.999999983
  0
ARC
  5
28E
100
AcDbEntity
  8
0
100
AcDbCircle
 62
7
  6
BYLAYER
 10
16.8874934354
 20
23.8907817984
 40
1.0634620651
100
AcDbArc
 50
180.0049086056
 51
181.1571995032
  0
ARC
  5
28F
100
AcDbEntity
  8
0
100
AcDbCircle
 62
7
  6
BYLAYER
 10
12.1634683818
 20
26.2907857494
 40
1.0
100
AcDbArc
 50
270.0
 51
0.0000000822
  0
ARC
  5
290
100
AcDbEntity
  8
0
100
AcDbCircle
 62
7
  6
BYLAYER
 10
5.3184739498
 20
24.7907857494
 40
0.5
100
AcDbArc
 50
90.0
 51
206.1038827649
  0
ARC
  5
291
100
AcDbEntity
  8
0
100
AcDbCircle
 62
7
  6
BYLAYER
 10
21.2634683812
 20
27.7907857506
 40
0.0999999998
100
AcDbArc
 50
89.9994532874
 51
180.0000011766
  0
ARC
  5
292
100
AcDbEntity
  8
0
100
AcDbCircle
 62
7
  6
BYLAYER
 10
21.2633691422
 20
27.3364323979
 40
0.056124135
100
AcDbArc
 50
166.6732980656
 51
171.3539630413
  0
ARC
  5
293
100
AcDbEntity
  8
0
100
AcDbCircle
 62
7
  6
BYLAYER
 10
7.5634683818
 20
34.8907857494
 40
3.0
100
AcDbArc
 50
90.0000042181
 51
179.9999999959
  0
ARC
  5
294
100
AcDbEntity
  8
0
100
AcDbCircle
 62
7
  6
BYLAYER
 10
7.5634686021
 20
34.89078544
 40
2.5000003389
100
AcDbArc
 50
90.00000163
 51
153.8961150904
  0
ARC
  5
295
100
AcDbEntity
  8
0
100
AcDbCircle
 62
7
  6
BYLAYER
 10
9.0634683818
 20
31.3907857494
 40
2.1
100
AcDbArc
 50
0.0000000015
 51
179.9999999972
  0
ARC
  5
296
100
AcDbEntity
  8
0
100
AcDbCircle
 62
7
  6
BYLAYER
 10
16.8860712502
 20
36.8908362528
 40
1.0620879524
100
AcDbArc
 50
167.6723546011
 51
180.0027244736
  0
ARC
  5
297
100
AcDbEntity
  8
0
100
AcDbCircle
 62
7
  6
BYLAYER
 10
12.1634683818
 20
34.4907857494
 40
1.0
100
AcDbArc
 50
0.0
 51
90.0
  0
ARC
  5
298
100
AcDbEntity
  8
0
100
AcDbCircle
 62
7
  6
BYLAYER
 10
5.3184739498
 20
35.9907857492
 40
0.4999999998
100
AcDbArc
 50
153.8961188444
 51
270.0000000084
  0
ARC
  5
299
100
AcDbEntity
  8
0
100
AcDbCircle
 62
7
  6
BYLAYER
 10
21.263468381
 20
32.9907857477
 40
0.0999999998
100
AcDbArc
 50
180.0000004084
 51
270.000000453
  0
ARC
  5
29A
100
AcDbEntity
  8
0
100
AcDbCircle
 62
7
  6
BYLAYER
 10
21.2795625818
 20
33.4514684238
 40
0.0735479734
100
AcDbArc
 50
206.2150465761
 51
212.1014434735
  0
ARC
  5
29B
100
AcDbEntity
  8
0
100
AcDbCircle
 62
7
  6
BYLAYER
 10
21.2158883471
 20
32.9912141348
 40
0.0524199947
100
AcDbArc
 50
180.0608748859
 51
194.2865663233
  0
ARC
  5
29C
100
AcDbEntity
  8
0
100
AcDbCircle
 62
7
  6
BYLAYER
 10
35.5634683818
 20
25.8907857494
 40
3.0
100
AcDbArc
 50
270.0000013577
 51
359.9999999928
  0
ARC
  5
29D
100
AcDbEntity
  8
0
100
AcDbCircle
 62
7
  6
BYLAYER
 10
35.5634683074
 20
25.890785854
 40
2.500000115
100
AcDbArc
 50
270.0000010823
 51
333.8961175849
  0
ARC
  5
29E
100
AcDbEntity
  8
0
100
AcDbCircle
 62
7
  6
BYLAYER
 10
34.0634683818
 20
29.3907857494
 40
2.1
100
AcDbArc
 50
179.9999999972
 51
359.9999999795
  0
ARC
  5
29F
100
AcDbEntity
  8
0
100
AcDbCircle
 62
7
  6
BYLAYER
 10
23.9488045233
 20
27.8858687485
 40
1.685512361
100
AcDbArc
 50
180.4080926068
 51
180.8285194628
  0
ARC
  5
2A0
100
AcDbEntity
  8
0
100
AcDbCircle
 62
7
  6
BYLAYER
 10
22.6634683825
 20
27.6907857474
 40
1.4999999988
100
AcDbArc
 50
179.9999999665
 51
269.9999999673
  0
ARC
  5
2A1
100
AcDbEntity
  8
0
100
AcDbCircle
 62
7
  6
BYLAYER
 10
30.9634683713
 20
26.290785738
 40
1.4999999853
100
AcDbArc
 50
228.1896851453
 51
269.9999996996
  0
ARC
  5
2A2
100
AcDbEntity
  8
0
100
AcDbCircle
 62
7
  6
BYLAYER
 10
22.6647320002
 20
27.7616536597
 40
1.401260745
100
AcDbArc
 50
180.0064289874
 51
194.10885561
  0
ARC
  5
2A3
100
AcDbEntity
  8
0
100
AcDbCircle
 62
7
  6
BYLAYER
 10
22.6634683855
 20
27.6907857505
 40
1.4000000014
100
AcDbArc
 50
194.1152057233
 51
270.0000014931
  0
ARC
  5
2A4
100
AcDbEntity
  8
0
100
AcDbCircle
 62
7
  6
BYLAYER
 10
30.9634683763
 20
26.2907857443
 40
0.9999999927
100
AcDbArc
 50
179.9999996328
 51
270.0000001688
  0
ARC
  5
2A5
100
AcDbEntity
  8
0
100
AcDbCircle
 62
7
  6
BYLAYER
 10
28.9634683819
 20
23.8907857493
 40
0.9999999841
100
AcDbArc
 50
269.9999999989
 51
360.0
  0
ARC
  5
2A6
100
AcDbEntity
  8
0
100
AcDbCircle
 62
7
  6
BYLAYER
 10
37.8084628138
 20
24.7907857494
 40
0.5
100
AcDbArc
 50
333.8961188287
 51
89.999999957
  0
ARC
  5
2A7
100
AcDbEntity
  8
0
100
AcDbCircle
 62
7
  6
BYLAYER
 10
22.6637860909
 20
27.7617132686
 40
0.4003461314
100
AcDbArc
 50
180.0721536161
 51
238.5776437008
  0
ARC
  5
2A8
100
AcDbEntity
  8
0
100
AcDbCircle
 62
7
  6
BYLAYER
 10
22.6634683818
 20
27.6907857494
 40
0.3
100
AcDbArc
 50
180.0000115812
 51
269.9999963532
  0
ARC
  5
2A9
100
AcDbEntity
  8
0
100
AcDbCircle
 62
7
  6
BYLAYER
 10
22.2634683818
 20
27.7907857494
 40
0.1
100
AcDbArc
 50
359.999999249
 51
90.4599017714
  0
ARC
  5
2AA
100
AcDbEntity
  8
0
100
AcDbCircle
 62
7
  6
BYLAYER
 10
24.5634683855
 20
26.2907857424
 40
0.0999999995
100
AcDbArc
 50
269.9999979358
 51
0.000000997
  0
ARC
  5
2AB
100
AcDbEntity
  8
0
100
AcDbCircle
 62
7
  6
BYLAYER
 10
24.5634683852
 20
27.290785761
 40
0.0999999995
100
AcDbArc
 50
359.9999960846
 51
90.0000019328
  0
ARC
  5
2AC
100
AcDbEntity
  8
0
100
AcDbCircle
 62
7
  6
BYLAYER
 10
35.5634683818
 20
34.8907857494
 40
3.0
100
AcDbArc
 50
0.0000000072
 51
89.9999991509
  0
ARC
  5
2AD
100
AcDbEntity
  8
0
100
AcDbCircle
 62
7
  6
BYLAYER
 10
35.5634683353
 20
34.8907856621
 40
2.50000009
100
AcDbArc
 50
26.1038823458
 51
89.9999994725
  0
ARC
  5
2AE
100
AcDbEntity
  8
0
100
AcDbCircle
 62
7
  6
BYLAYER
 10
34.0634683818
 20
31.3907857494
 40
2.1
100
AcDbArc
 50
0.0000000015
 51
179.9999999795
  0
ARC
  5
2AF
100
AcDbEntity
  8
0
100
AcDbCircle
 62
7
  6
BYLAYER
 10
30.9634683875
 20
34.4907857434
 40
1.5000000058
100
AcDbArc
 50
90.0
 51
131.8103149823
  0
ARC
  5
2B0
100
AcDbEntity
  8
0
100
AcDbCircle
 62
7
  6
BYLAYER
 10
22.6634683818
 20
33.0907857494
 40
1.5
100
AcDbArc
 50
89.9999999808
 51
180.0
  0
ARC
  5
2B1
100
AcDbEntity
  8
0
100
AcDbCircle
 62
7
  6
BYLAYER
 10
22.6773943459
 20
33.0183588672
 40
1.4139790372
100
AcDbArc
 50
165.9552348452
 51
179.9304572466
  0
ARC
  5
2B2
100
AcDbEntity
  8
0
100
AcDbCircle
 62
7
  6
BYLAYER
 10
22.6634683826
 20
33.0907857447
 40
1.4000000016
100
AcDbArc
 50
89.9999996935
 51
165.8847941034
  0
ARC
  5
2B3
100
AcDbEntity
  8
0
100
AcDbCircle
 62
7
  6
BYLAYER
 10
30.9634683818
 20
34.4907857481
 40
1.0000000012
100
AcDbArc
 50
90.0000000044
 51
180.0000000194
  0
ARC
  5
2B4
100
AcDbEntity
  8
0
100
AcDbCircle
 62
7
  6
BYLAYER
 10
28.9634683818
 20
36.8907857494
 40
1.0
100
AcDbArc
 50
0.000000079
 51
90.0
  0
ARC
  5
2B5
100
AcDbEntity
  8
0
100
AcDbCircle
 62
7
  6
BYLAYER
 10
37.8084628138
 20
35.9907857494
 40
0.5
100
AcDbArc
 50
270.0000000413
 51
26.1038828931
  0
ARC
  5
2B6
100
AcDbEntity
  8
0
100
AcDbCircle
 62
7
  6
BYLAYER
 10
22.6637862827
 20
33.0198580455
 40
0.4003463899
100
AcDbArc
 50
121.4223659471
 51
179.92784147
  0
ARC
  5
2B7
100
AcDbEntity
  8
0
100
AcDbCircle
 62
7
  6
BYLAYER
 10
22.6634683708
 20
33.0907857929
 40
0.2999999552
100
AcDbArc
 50
89.9999989491
 51
180.0000004496
  0
ARC
  5
2B8
100
AcDbEntity
  8
0
100
AcDbCircle
 62
7
  6
BYLAYER
 10
22.2634683788
 20
32.9907857362
 40
0.0999999997
100
AcDbArc
 50
270.000001728
 51
0.3650700876
  0
ARC
  5
2B9
100
AcDbEntity
  8
0
100
AcDbCircle
 62
7
  6
BYLAYER
 10
24.5634683855
 20
33.4907857424
 40
0.0999999995
100
AcDbArc
 50
269.9999994179
 51
0.000000599
  0
ARC
  5
2BA
100
AcDbEntity
  8
0
100
AcDbCircle
 62
7
  6
BYLAYER
 10
24.5634683852
 20
34.4907857608
 40
0.0999999996
100
AcDbArc
 50
359.9999961275
 51
90.0000015911
  0
SPLINE
  5
2BB
100
AcDbEntity
  8
0
100
AcDbSpline
 62
7
  6
BYLAYER
 70
0
 71
3
 72
15
 73
11
 74
0
 42
0.0000001
 43
0.0000001
 44
0.0000000001
 40
0.0
 40
0.0
 40
0.0
 40
0.0
 40
0.0818253225
 40
0.1787852241
 40
0.2903507431
 40
0.4151253247
 40
0.5510331578
 40
0.6956914492
 40
0.8464527822
 40
1.0
 40
1.0
 40
1.0
 40
1.0
 10
13.4983187226
 20
30.80159739
 30
0.0
 10
13.475634287
 20
30.7756762085
 30
0.0
 10
13.4326456572
 20
30.7132871969
 30
0.0
 10
13.3787141595
 20
30.6033219153
 30
0.0
 10
13.3307934489
 20
30.4712092258
 30
0.0
 10
13.2900367061
 20
30.3197473656
 30
0.0
 10
13.2572952333
 20
30.152162135
 30
0.0
 10
13.2333478845
 20
29.9720729577
 30
0.0
 10
13.2187975023
 20
29.783550357
 30
0.0
 10
13.2155202688
 20
29.6554235396
 30
0.0
 10
13.2155202688
 20
29.5907857494
 30
0.0
  0
SPLINE
  5
2BC
100
AcDbEntity
  8
0
100
AcDbSpline
 62
7
  6
BYLAYER
 70
0
 71
3
 72
15
 73
11
 74
0
 42
0.0000001
 43
0.0000001
 44
0.0000000001
 40
0.0
 40
0.0
 40
0.0
 40
0.0
 40
0.1535521466
 40
0.3043133114
 40
0.4489681934
 40
0.5848735922
 40
0.7096469031
 40
0.8212107529
 40
0.9181714705
 40
1.0
 40
1.0
 40
1.0
 40
1.0
 10
13.2155202688
 20
29.5907857494
 30
0.0
 10
13.2155202688
 20
29.526145826
 30
0.0
 10
13.2187974453
 20
29.3980168732
 30
0.0
 10
13.2333484937
 20
29.2094936007
 30
0.0
 10
13.2572950738
 20
29.029406677
 30
0.0
 10
13.2900371337
 20
28.8618245247
 30
0.0
 10
13.3307910373
 20
28.7103640393
 30
0.0
 10
13.3787128148
 20
28.5782526182
 30
0.0
 10
13.4326435935
 20
28.468285614
 30
0.0
 10
13.4756340912
 20
28.4058959161
 30
0.0
 10
13.4983186058
 20
28.3799729683
 30
0.0
  0
SPLINE
  5
2BD
100
AcDbEntity
  8
0
100
AcDbSpline
 62
7
  6
BYLAYER
 70
0
 71
3
 72
20
 73
16
 74
0
 42
0.0000001
 43
0.0000001
 44
0.0000000001
 40
0.0
 40
0.0
 40
0.0
 40
0.0
 40
0.1745697226
 40
0.3433703878
 40
0.5005622794
 40
0.5733102559
 40
0.6414235823
 40
0.7044341189
 40
0.7620263229
 40
0.8139916032
 40
0.8603073766
 40
0.9012276667
 40
0.9373274725
 40
0.969701094
 40
1.0
 40
1.0
 40
1.0
 40
1.0
 10
14.3611151942
 20
29.5907857494
 30
0.0
 10
14.3611151942
 20
29.6883548208
 30
0.0
 10
14.3547426809
 20
29.8803371519
 30
0.0
 10
14.3263795274
 20
30.1588768058
 30
0.0
 10
14.2870684014
 20
30.3785418933
 30
0.0
 10
14.2463344503
 20
30.5401313519
 30
0.0
 10
14.212812773
 20
30.649097144
 30
0.0
 10
14.1758007197
 20
30.7479432774
 30
0.0
 10
14.1356998394
 20
30.8357650146
 30
0.0
 10
14.0928604854
 20
30.9117722312
 30
0.0
 10
14.047600111
 20
30.9752744188
 30
0.0
 10
14.0003002898
 20
31.0257766201
 30
0.0
 10
13.9510888088
 20
31.0627329926
 30
0.0
 10
13.900217301
 20
31.0855217457
 30
0.0
 10
13.865019394
 20
31.0907857499
 30
0.0
 10
13.8480849791
 20
31.0907857499
 30
0.0
  0
SPLINE
  5
2BE
100
AcDbEntity
  8
0
100
AcDbSpline
 62
7
  6
BYLAYER
 70
0
 71
3
 72
21
 73
17
 74
0
 42
0.0000001
 43
0.0000001
 44
0.0000000001
 40
0.0
 40
0.0
 40
0.0
 40
0.0
 40
0.1905028972
 40
0.3712122469
 40
0.4550144176
 40
0.5331256765
 40
0.604678593
 40
0.6690247257
 40
0.7257799604
 40
0.7749240511
 40
0.817000744
 40
0.8533782681
 40
0.8865719044
 40
0.9200079005
 40
0.9570293338
 40
1.0
 40
1.0
 40
1.0
 40
1.0
 10
14.1047726412
 20
29.5907857494
 30
0.0
 10
14.1047726412
 20
29.695103578
 30
0.0
 10
14.0964835714
 20
29.8984649419
 30
0.0
 10
14.0651580687
 20
30.1460446366
 30
0.0
 10
14.0272286761
 20
30.3298747123
 30
0.0
 10
13.99420253
 20
30.4534649669
 30
0.0
 10
13.9563639123
 20
30.564489893
 30
0.0
 10
13.9142570018
 20
30.6613737985
 30
0.0
 10
13.8684759409
 20
30.7428217194
 30
0.0
 10
13.8195130532
 20
30.8077804049
 30
0.0
 10
13.7677598344
 20
30.8554836905
 30
0.0
 10
13.7131722099
 20
30.8848802255
 30
0.0
 10
13.6562958919
 20
30.894188022
 30
0.0
 10
13.5996254885
 20
30.8820442729
 30
0.0
 10
13.5454243488
 20
30.8501260269
 30
0.0
 10
13.513814906
 20
30.819304658
 30
0.0
 10
13.4983187226
 20
30.80159739
 30
0.0
  0
SPLINE
  5
2BF
100
AcDbEntity
  8
0
100
AcDbSpline
 62
7
  6
BYLAYER
 70
0
 71
3
 72
11
 73
7
 74
0
 42
0.0000001
 43
0.0000001
 44
0.0000000001
 40
0.0
 40
0.0
 40
0.0
 40
0.0
 40
0.2071411121
 40
0.4365618359
 40
0.6995020468
 40
1.0
 40
1.0
 40
1.0
 40
1.0
 10
22.5071667669
 20
27.4347197324
 30
0.0
 10
22.5051296233
 20
27.4359631952
 30
0.0
 10
22.500351191
 20
27.4378493538
 30
0.0
 10
22.4921998116
 20
27.438325775
 30
0.0
 10
22.4831636964
 20
27.4365513129
 30
0.0
 10
22.4771217351
 20
27.434082223
 30
0.0
 10
22.4740137463
 20
27.4325564435
 30
0.0
  0
SPLINE
  5
2C0
100
AcDbEntity
  8
0
100
AcDbSpline
 62
7
  6
BYLAYER
 70
0
 71
3
 72
11
 73
7
 74
0
 42
0.0000001
 43
0.0000001
 44
0.0000000001
 40
0.0
 40
0.0
 40
0.0
 40
0.0
 40
0.2555077659
 40
0.5245918251
 40
0.7794909398
 40
1.0
 40
1.0
 40
1.0
 40
1.0
 10
21.3057379802
 20
27.420075613
 30
0.0
 10
21.2950606663
 20
27.4187331305
 30
0.0
 10
21.2734573027
 20
27.4132834662
 30
0.0
 10
21.2436928563
 20
27.3985191692
 30
0.0
 10
21.2207050173
 20
27.3765864448
 30
0.0
 10
21.2108949465
 20
27.3584032502
 30
0.0
 10
21.208757326
 20
27.3493652835
 30
0.0
  0
SPLINE
  5
2C1
100
AcDbEntity
  8
0
100
AcDbSpline
 62
7
  6
BYLAYER
 70
0
 71
3
 72
9
 73
5
 74
0
 42
0.0000001
 43
0.0000001
 44
0.0000000001
 40
0.0
 40
0.0
 40
0.0
 40
0.0
 40
0.2650468456
 40
1.0
 40
1.0
 40
1.0
 40
1.0
 10
21.2078837448
 20
27.3448650548
 30
0.0
 10
21.2076190363
 20
27.3431196347
 30
0.0
 10
21.2069397543
 20
27.3364900793
 30
0.0
 10
21.2075634566
 20
27.3297250673
 30
0.0
 10
21.2087572731
 20
27.3249776178
 30
0.0
  0
SPLINE
  5
2C2
100
AcDbEntity
  8
0
100
AcDbSpline
 62
7
  6
BYLAYER
 70
0
 71
3
 72
9
 73
5
 74
0
 42
0.0000001
 43
0.0000001
 44
0.0000000001
 40
0.0
 40
0.0
 40
0.0
 40
0.0
 40
0.4999999999
 40
1.0
 40
1.0
 40
1.0
 40
1.0
 10
22.6634683746
 20
27.2907857469
 30
0.0
 10
22.6270508216
 20
27.2908926226
 30
0.0
 10
22.5538693967
 20
27.3008712399
 30
0.0
 10
22.4862062323
 20
27.3304818771
 30
0.0
 10
22.4550662233
 20
27.3493643936
 30
0.0
  0
SPLINE
  5
2C3
100
AcDbEntity
  8
0
100
AcDbSpline
 62
7
  6
BYLAYER
 70
0
 71
3
 72
20
 73
16
 74
0
 42
0.0000001
 43
0.0000001
 44
0.0000000001
 40
0.0
 40
0.0
 40
0.0
 40
0.0
 40
0.0302973969
 40
0.0626688549
 40
0.0987673758
 40
0.139684987
 40
0.1859975947
 40
0.2379606579
 40
0.2955489971
 40
0.3585582807
 40
0.4266722322
 40
0.4994205548
 40
0.6566188733
 40
0.8254290711
 40
1.0
 40
1.0
 40
1.0
 40
1.0
 10
13.9420542406
 20
31.0907769972
 30
0.0
 10
13.958987725
 20
31.0907759286
 30
0.0
 10
13.994183068
 20
31.0855135306
 30
0.0
 10
14.0450537196
 20
31.0627294092
 30
0.0
 10
14.0942603473
 20
31.0257727307
 30
0.0
 10
14.1415602717
 20
30.9752770955
 30
0.0
 10
14.1868202643
 20
30.9117803165
 30
0.0
 10
14.2296563705
 20
30.8357778322
 30
0.0
 10
14.2697601302
 20
30.7479624986
 30
0.0
 10
14.3067709698
 20
30.6491190518
 30
0.0
 10
14.3402935464
 20
30.5401544062
 30
0.0
 10
14.3810333724
 20
30.3785630193
 30
0.0
 10
14.420345844
 20
30.158889913
 30
0.0
 10
14.4487112398
 20
29.8803423598
 30
0.0
 10
14.4550844559
 20
29.6883549933
 30
0.0
 10
14.4550844559
 20
29.5907857494
 30
0.0
  0
SPLINE
  5
2C4
100
AcDbEntity
  8
0
100
AcDbSpline
 62
7
  6
BYLAYER
 70
0
 71
3
 72
20
 73
16
 74
0
 42
0.0000001
 43
0.0000001
 44
0.0000000001
 40
0.0
 40
0.0
 40
0.0
 40
0.0
 40
0.030298906
 40
0.0626725275
 40
0.0987723333
 40
0.1396926234
 40
0.1860083968
 40
0.2379736771
 40
0.2955658811
 40
0.3585764177
 40
0.4266897441
 40
0.4994377206
 40
0.6566296122
 40
0.8254302774
 40
1.0
 40
1.0
 40
1.0
 40
1.0
 10
13.8480849789
 20
28.090785749
 30
0.0
 10
13.8650193938
 20
28.090785749
 30
0.0
 10
13.9002173008
 20
28.0960497531
 30
0.0
 10
13.9510888087
 20
28.1188385063
 30
0.0
 10
14.0003002896
 20
28.1557948787
 30
0.0
 10
14.0476001108
 20
28.20629708
 30
0.0
 10
14.0928604852
 20
28.2697992676
 30
0.0
 10
14.1356998392
 20
28.3458064842
 30
0.0
 10
14.1758007195
 20
28.4336282214
 30
0.0
 10
14.2128127728
 20
28.5324743548
 30
0.0
 10
14.2463344501
 20
28.6414401469
 30
0.0
 10
14.2870684012
 20
28.8030296055
 30
0.0
 10
14.3263795272
 20
29.022694693
 30
0.0
 10
14.3547426807
 20
29.3012343469
 30
0.0
 10
14.361115194
 20
29.493216678
 30
0.0
 10
14.361115194
 20
29.5907857494
 30
0.0
  0
SPLINE
  5
2C5
100
AcDbEntity
  8
0
100
AcDbSpline
 62
7
  6
BYLAYER
 70
0
 71
3
 72
9
 73
5
 74
0
 42
0.0000001
 43
0.0000001
 44
0.0000000001
 40
0.0
 40
0.0
 40
0.0
 40
0.0
 40
0.5015097994
 40
1.0
 40
1.0
 40
1.0
 40
1.0
 10
21.2634683818
 20
27.761496429
 30
0.0
 10
21.2512559364
 20
27.761496429
 30
0.0
 10
21.2269078821
 20
27.7579099605
 30
0.0
 10
21.2039538549
 20
27.7484273898
 30
0.0
 10
21.1939214308
 20
27.7415933791
 30
0.0
  0
SPLINE
  5
2C6
100
AcDbEntity
  8
0
100
AcDbSpline
 62
7
  6
BYLAYER
 70
0
 71
3
 72
9
 73
5
 74
0
 42
0.0000001
 43
0.0000001
 44
0.0000000001
 40
0.0
 40
0.0
 40
0.0
 40
0.0
 40
0.5432459296
 40
1.0
 40
1.0
 40
1.0
 40
1.0
 10
21.1939214308
 20
27.7415933791
 30
0.0
 10
21.1848061679
 20
27.7353841316
 30
0.0
 10
21.1701753831
 20
27.7203440207
 30
0.0
 10
21.1634683816
 20
27.7000589383
 30
0.0
 10
21.1634683818
 20
27.6907857496
 30
0.0
  0
SPLINE
  5
2C7
100
AcDbEntity
  8
0
100
AcDbSpline
 62
7
  6
BYLAYER
 70
0
 71
3
 72
9
 73
5
 74
0
 42
0.0000001
 43
0.0000001
 44
0.0000000001
 40
0.0
 40
0.0
 40
0.0
 40
0.0
 40
0.45261784
 40
1.0
 40
1.0
 40
1.0
 40
1.0
 10
22.3634683818
 20
27.6907857469
 30
0.0
 10
22.3634683752
 20
27.6995816668
 30
0.0
 10
22.357962695
 20
27.7192214834
 30
0.0
 10
22.3439075462
 20
27.7336827214
 30
0.0
 10
22.3353222045
 20
27.7399635385
 30
0.0
  0
SPLINE
  5
2C8
100
AcDbEntity
  8
0
100
AcDbSpline
 62
7
  6
BYLAYER
 70
0
 71
3
 72
9
 73
5
 74
0
 42
0.0000001
 43
0.0000001
 44
0.0000000001
 40
0.0
 40
0.0
 40
0.0
 40
0.0
 40
0.2472235448
 40
1.0
 40
1.0
 40
1.0
 40
1.0
 10
22.3353222045
 20
27.7399635385
 30
0.0
 10
22.3302853161
 20
27.7436483976
 30
0.0
 10
22.3083413871
 20
27.7563702194
 30
0.0
 10
22.2824713392
 20
27.7614964274
 30
0.0
 10
22.263468382
 20
27.7614964274
 30
0.0
  0
SPLINE
  5
2C9
100
AcDbEntity
  8
0
100
AcDbSpline
 62
7
  6
BYLAYER
 70
0
 71
3
 72
9
 73
5
 74
0
 42
0.0000001
 43
0.0000001
 44
0.0000000001
 40
0.0
 40
0.0
 40
0.0
 40
0.0
 40
0.2631315393
 40
1.0
 40
1.0
 40
1.0
 40
1.0
 10
22.4550662289
 20
27.4200750714
 30
0.0
 10
22.4566113358
 20
27.4213407312
 30
0.0
 10
22.4625924753
 20
27.4260107365
 30
0.0
 10
22.4690421392
 20
27.4301205841
 30
0.0
 10
22.4740648867
 20
27.4325815248
 30
0.0
  0
SPLINE
  5
2CA
100
AcDbEntity
  8
0
100
AcDbSpline
 62
7
  6
BYLAYER
 70
0
 71
3
 72
9
 73
5
 74
0
 42
0.0000001
 43
0.0000001
 44
0.0000000001
 40
0.0
 40
0.0
 40
0.0
 40
0.0
 40
0.4999660385
 40
1.0
 40
1.0
 40
1.0
 40
1.0
 10
14.0616300084
 20
36.8907699556
 30
0.0
 10
14.0616300084
 20
36.9782257751
 30
0.0
 10
14.0875317372
 20
37.1537693945
 30
0.0
 10
14.1584163501
 20
37.3162605536
 30
0.0
 10
14.2042048931
 20
37.3907857709
 30
0.0
  0
SPLINE
  5
2CB
100
AcDbEntity
  8
0
100
AcDbSpline
 62
7
  6
BYLAYER
 70
0
 71
3
 72
11
 73
7
 74
0
 42
0.0000001
 43
0.0000001
 44
0.0000000001
 40
0.0
 40
0.0
 40
0.0
 40
0.0
 40
0.2531925197
 40
0.5049549912
 40
0.7541173241
 40
1.0
 40
1.0
 40
1.0
 40
1.0
 10
12.815469331
 20
35.9907857146
 30
0.0
 10
12.9342871364
 20
35.9907857061
 30
0.0
 10
13.1720069019
 20
35.9657828731
 30
0.0
 10
13.5108057171
 20
35.8548987327
 30
0.0
 10
13.8153553489
 20
35.6761687176
 30
0.0
 10
13.9868024358
 20
35.5160254951
 30
0.0
 10
14.0616307444
 20
35.4281904878
 30
0.0
  0
SPLINE
  5
2CC
100
AcDbEntity
  8
0
100
AcDbSpline
 62
7
  6
BYLAYER
 70
0
 71
3
 72
13
 73
9
 74
0
 42
0.0000001
 43
0.0000001
 44
0.0000000001
 40
0.0
 40
0.0
 40
0.0
 40
0.0
 40
0.1093317979
 40
0.2206947497
 40
0.3356981763
 40
0.4558809267
 40
0.7156160536
 40
1.0
 40
1.0
 40
1.0
 40
1.0
 10
14.9438247496
 20
37.8907857496
 30
0.0
 10
14.9098493775
 20
37.8907857497
 30
0.0
 10
14.8411503568
 20
37.8853651497
 30
0.0
 10
14.7393005378
 20
37.8610759702
 30
0.0
 10
14.6390930723
 20
37.8205640003
 30
0.0
 10
14.5057294738
 20
37.7430428105
 30
0.0
 10
14.3502447369
 20
37.6038720966
 30
0.0
 10
14.2504676903
 20
37.4660828827
 30
0.0
 10
14.2042048903
 20
37.3907857651
 30
0.0
  0
SPLINE
  5
2CD
100
AcDbEntity
  8
0
100
AcDbSpline
 62
7
  6
BYLAYER
 70
0
 71
3
 72
15
 73
11
 74
0
 42
0.0000001
 43
0.0000001
 44
0.0000000001
 40
0.0
 40
0.0
 40
0.0
 40
0.0
 40
0.1217878116
 40
0.2441719703
 40
0.3672502976
 40
0.4914285614
 40
0.6168646207
 40
0.7435437075
 40
0.8713438592
 40
1.0
 40
1.0
 40
1.0
 40
1.0
 10
16.763675921
 20
37.8907857496
 30
0.0
 10
16.7111579534
 20
37.8907857497
 30
0.0
 10
16.6056327286
 20
37.8812744331
 30
0.0
 10
16.4521239775
 20
37.8392435452
 30
0.0
 10
16.3074399693
 20
37.7703980934
 30
0.0
 10
16.1757628227
 20
37.6768913603
 30
0.0
 10
16.0606797422
 20
37.5614143608
 30
0.0
 10
15.9654102951
 20
37.427213845
 30
0.0
 10
15.8925724828
 20
37.2781546217
 30
0.0
 10
15.8603323463
 20
37.1717911752
 30
0.0
 10
15.8484722072
 20
37.1175939308
 30
0.0
  0
SPLINE
  5
2CE
100
AcDbEntity
  8
0
100
AcDbSpline
 62
7
  6
BYLAYER
 70
0
 71
3
 72
21
 73
17
 74
0
 42
0.0000001
 43
0.0000001
 44
0.0000000001
 40
0.0
 40
0.0
 40
0.0
 40
0.0
 40
0.0429693451
 40
0.0799903845
 40
0.1134257264
 40
0.1466185482
 40
0.1829941463
 40
0.2250696497
 40
0.2742105752
 40
0.3309657622
 40
0.3953109933
 40
0.4668661393
 40
0.5449787049
 40
0.6287830241
 40
0.8094986376
 40
1.0
 40
1.0
 40
1.0
 40
1.0
 10
13.4983186058
 20
28.3799729683
 30
0.0
 10
13.5138137366
 20
28.3622657582
 30
0.0
 10
13.5454240671
 20
28.3314465549
 30
0.0
 10
13.5996230959
 20
28.2995282301
 30
0.0
 10
13.6562923607
 20
28.2873827818
 30
0.0
 10
13.71316639
 20
28.2966909984
 30
0.0
 10
13.7677544837
 20
28.3260819331
 30
0.0
 10
13.8195036234
 20
28.3737847802
 30
0.0
 10
13.8684703176
 20
28.4387372042
 30
0.0
 10
13.9142474594
 20
28.5201850049
 30
0.0
 10
13.9563596939
 20
28.6170670695
 30
0.0
 10
13.9941965378
 20
28.7280942375
 30
0.0
 10
14.0272267261
 20
28.8516864411
 30
0.0
 10
14.0651567366
 20
29.0355218286
 30
0.0
 10
14.0964835259
 20
29.2831049417
 30
0.0
 10
14.1047726412
 20
29.4864688204
 30
0.0
 10
14.1047726412
 20
29.5907857494
 30
0.0
  0
SPLINE
  5
2CF
100
AcDbEntity
  8
0
100
AcDbSpline
 62
7
  6
BYLAYER
 70
0
 71
3
 72
9
 73
5
 74
0
 42
0.0000001
 43
0.0000001
 44
0.0000000001
 40
0.0
 40
0.0
 40
0.0
 40
0.0
 40
0.2629261227
 40
1.0
 40
1.0
 40
1.0
 40
1.0
 10
22.263468382
 20
27.8614964284
 30
0.0
 10
22.2700292281
 20
27.8614966617
 30
0.0
 10
22.2948971699
 20
27.8597641385
 30
0.0
 10
22.3197070225
 20
27.8511610059
 30
0.0
 10
22.3346561904
 20
27.8404464934
 30
0.0
  0
SPLINE
  5
2D0
100
AcDbEntity
  8
0
100
AcDbSpline
 62
7
  6
BYLAYER
 70
0
 71
3
 72
9
 73
5
 74
0
 42
0.0000001
 43
0.0000001
 44
0.0000000001
 40
0.0
 40
0.0
 40
0.0
 40
0.0
 40
0.2650690086
 40
1.0
 40
1.0
 40
1.0
 40
1.0
 10
22.3346561904
 20
27.8404464934
 30
0.0
 10
22.3371638428
 20
27.8386491845
 30
0.0
 10
22.3462656933
 20
27.8314059282
 30
0.0
 10
22.3538640086
 20
27.8220984618
 30
0.0
 10
22.3576899382
 20
27.814447636
 30
0.0
  0
SPLINE
  5
2D1
100
AcDbEntity
  8
0
100
AcDbSpline
 62
7
  6
BYLAYER
 70
0
 71
3
 72
9
 73
5
 74
0
 42
0.0000001
 43
0.0000001
 44
0.0000000001
 40
0.0
 40
0.0
 40
0.0
 40
0.0
 40
0.2570137031
 40
1.0
 40
1.0
 40
1.0
 40
1.0
 10
22.3576899382
 20
27.814447636
 30
0.0
 10
22.3586320278
 20
27.8125637112
 30
0.0
 10
22.3619030977
 20
27.8050455835
 30
0.0
 10
22.363468382
 20
27.7967652154
 30
0.0
 10
22.3634683817
 20
27.7906760916
 30
0.0
  0
SPLINE
  5
2D2
100
AcDbEntity
  8
0
100
AcDbSpline
 62
7
  6
BYLAYER
 70
0
 71
3
 72
14
 73
10
 74
0
 42
0.0000001
 43
0.0000001
 44
0.0000000001
 40
0.0
 40
0.0
 40
0.0
 40
0.0
 40
0.4283311357
 40
0.599845555
 40
0.7413250552
 40
0.8521906584
 40
0.9320491178
 40
0.9808435374
 40
1.0
 40
1.0
 40
1.0
 40
1.0
 10
22.2633349158
 20
27.8738636877
 30
0.0
 10
22.2633350463
 20
27.8762906286
 30
0.0
 10
22.2633279295
 20
27.8796919145
 30
0.0
 10
22.263276735
 20
27.8838865178
 30
0.0
 10
22.2632212245
 20
27.886299086
 30
0.0
 10
22.2631437581
 20
27.8881498846
 30
0.0
 10
22.2630302005
 20
27.8895719507
 30
0.0
 10
22.2629080742
 20
27.8902756594
 30
0.0
 10
22.2627742315
 20
27.8907857494
 30
0.0
 10
22.2626656903
 20
27.8907857494
 30
0.0
  0
SPLINE
  5
2D3
100
AcDbEntity
  8
0
100
AcDbSpline
 62
7
  6
BYLAYER
 70
0
 71
3
 72
14
 73
10
 74
0
 42
0.0000001
 43
0.0000001
 44
0.0000000001
 40
0.0
 40
0.0
 40
0.0
 40
0.0
 40
0.0199693536
 40
0.069447871
 40
0.150501677
 40
0.262868143
 40
0.4055378527
 40
0.5772992189
 40
1.0
 40
1.0
 40
1.0
 40
1.0
 10
21.2634693354
 20
27.8907857494
 30
0.0
 10
21.2636651831
 20
27.8907857494
 30
0.0
 10
21.2639392972
 20
27.8899046811
 30
0.0
 10
21.2640569455
 20
27.8886303056
 30
0.0
 10
21.2641488266
 20
27.8861406194
 30
0.0
 10
21.2640962386
 20
27.8828910939
 30
0.0
 10
21.2639912928
 20
27.8786889521
 30
0.0
 10
21.2637906431
 20
27.8714706964
 30
0.0
 10
21.2636160374
 20
27.8656394056
 30
0.0
 10
21.2634685408
 20
27.8614964275
 30
0.0
  0
SPLINE
  5
2D4
100
AcDbEntity
  8
0
100
AcDbSpline
 62
7
  6
BYLAYER
 70
0
 71
3
 72
13
 73
9
 74
0
 42
0.0000001
 43
0.0000001
 44
0.0000000001
 40
0.0
 40
0.0
 40
0.0
 40
0.0
 40
0.2903905747
 40
0.5599945542
 40
0.6830221252
 40
0.7967571731
 40
0.9015759944
 40
1.0
 40
1.0
 40
1.0
 40
1.0
 10
21.2634683818
 20
27.8614964274
 30
0.0
 10
21.2505846868
 20
27.8614973302
 30
0.0
 10
21.2256115869
 20
27.8581450608
 30
0.0
 10
21.1974632317
 20
27.8454002892
 30
0.0
 10
21.1802309523
 20
27.830785446
 30
0.0
 10
21.1707967751
 20
27.8187677562
 30
0.0
 10
21.1648879092
 20
27.8058490996
 30
0.0
 10
21.1634683819
 20
27.7967922277
 30
0.0
 10
21.163468382
 20
27.7924254714
 30
0.0
  0
SPLINE
  5
2D5
100
AcDbEntity
  8
0
100
AcDbSpline
 62
7
  6
BYLAYER
 70
0
 71
3
 72
10
 73
6
 74
0
 42
0.0000001
 43
0.0000001
 44
0.0000000001
 40
0.0
 40
0.0
 40
0.0
 40
0.0
 40
0.2658858446
 40
0.6501070016
 40
1.0
 40
1.0
 40
1.0
 40
1.0
 10
21.2634683821
 20
32.9200750717
 30
0.0
 10
21.2559588217
 20
32.920070681
 30
0.0
 10
21.2375643064
 20
32.9215115627
 30
0.0
 10
21.2101790562
 20
32.9294506563
 30
0.0
 10
21.1921257206
 20
32.9404182369
 30
0.0
 10
21.1847695874
 20
32.9470171478
 30
0.0
  0
SPLINE
  5
2D6
100
AcDbEntity
  8
0
100
AcDbSpline
 62
7
  6
BYLAYER
 70
0
 71
3
 72
9
 73
5
 74
0
 42
0.0000001
 43
0.0000001
 44
0.0000000001
 40
0.0
 40
0.0
 40
0.0
 40
0.0
 40
0.2582110762
 40
1.0
 40
1.0
 40
1.0
 40
1.0
 10
21.1847695874
 20
32.9470171478
 30
0.0
 10
21.1833960418
 20
32.948249304
 30
0.0
 10
21.1782496537
 20
32.9532080312
 30
0.0
 10
21.173829231
 20
32.9589403567
 30
0.0
 10
21.1711627736
 20
32.9635218481
 30
0.0
  0
SPLINE
  5
2D7
100
AcDbEntity
  8
0
100
AcDbSpline
 62
7
  6
BYLAYER
 70
0
 71
3
 72
9
 73
5
 74
0
 42
0.0000001
 43
0.0000001
 44
0.0000000001
 40
0.0
 40
0.0
 40
0.0
 40
0.0
 40
0.2548058814
 40
1.0
 40
1.0
 40
1.0
 40
1.0
 10
21.1711627736
 20
32.9635218481
 30
0.0
 10
21.1704797743
 20
32.9646953735
 30
0.0
 10
21.1679522857
 20
32.9693875987
 30
0.0
 10
21.1660614942
 20
32.9744281572
 30
0.0
 10
21.1650895133
 20
32.9782783579
 30
0.0
  0
SPLINE
  5
2D8
100
AcDbEntity
  8
0
100
AcDbSpline
 62
7
  6
BYLAYER
 70
0
 71
3
 72
9
 73
5
 74
0
 42
0.0000001
 43
0.0000001
 44
0.0000000001
 40
0.0
 40
0.0
 40
0.0
 40
0.0
 40
0.4549010823
 40
1.0
 40
1.0
 40
1.0
 40
1.0
 10
21.1634683818
 20
33.0907857286
 30
0.0
 10
21.1634683819
 20
33.0818112989
 30
0.0
 10
21.1696351358
 20
33.0620376238
 30
0.0
 10
21.1836910438
 20
33.0472599959
 30
0.0
 10
21.192442201
 20
33.04100994
 30
0.0
  0
SPLINE
  5
2D9
100
AcDbEntity
  8
0
100
AcDbSpline
 62
7
  6
BYLAYER
 70
0
 71
3
 72
9
 73
5
 74
0
 42
0.0000001
 43
0.0000001
 44
0.0000000001
 40
0.0
 40
0.0
 40
0.0
 40
0.0
 40
0.4997920327
 40
1.0
 40
1.0
 40
1.0
 40
1.0
 10
21.192442201
 20
33.04100994
 30
0.0
 10
21.2025894915
 20
33.033762769
 30
0.0
 10
21.226023828
 20
33.0236935407
 30
0.0
 10
21.2509884822
 20
33.0200750517
 30
0.0
 10
21.2634683821
 20
33.0200750518
 30
0.0
  0
SPLINE
  5
2DA
100
AcDbEntity
  8
0
100
AcDbSpline
 62
7
  6
BYLAYER
 70
0
 71
3
 72
9
 73
5
 74
0
 42
0.0000001
 43
0.0000001
 44
0.0000000001
 40
0.0
 40
0.0
 40
0.0
 40
0.0
 40
0.4722333632
 40
1.0
 40
1.0
 40
1.0
 40
1.0
 10
22.3634667234
 20
32.9914229178
 30
0.0
 10
22.3635415277
 20
32.9822204641
 30
0.0
 10
22.3579062779
 20
32.9624676173
 30
0.0
 10
22.3438642561
 20
32.9480267048
 30
0.0
 10
22.3355906367
 20
32.9419170454
 30
0.0
  0
SPLINE
  5
2DB
100
AcDbEntity
  8
0
100
AcDbSpline
 62
7
  6
BYLAYER
 70
0
 71
3
 72
9
 73
5
 74
0
 42
0.0000001
 43
0.0000001
 44
0.0000000001
 40
0.0
 40
0.0
 40
0.0
 40
0.0
 40
0.2348764998
 40
1.0
 40
1.0
 40
1.0
 40
1.0
 10
22.3355906367
 20
32.9419170454
 30
0.0
 10
22.3307994049
 20
32.9383789573
 30
0.0
 10
22.3089212818
 20
32.9253445503
 30
0.0
 10
22.2828703786
 20
32.9201026865
 30
0.0
 10
22.263468382
 20
32.9200750714
 30
0.0
  0
SPLINE
  5
2DC
100
AcDbEntity
  8
0
100
AcDbSpline
 62
7
  6
BYLAYER
 70
0
 71
3
 72
15
 73
11
 74
0
 42
0.0000001
 43
0.0000001
 44
0.0000000001
 40
0.0
 40
0.0
 40
0.0
 40
0.0
 40
0.1287260433
 40
0.2570696002
 40
0.3841260802
 40
0.5098007828
 40
0.6339845598
 40
0.7568169145
 40
0.8788237366
 40
1.0
 40
1.0
 40
1.0
 40
1.0
 10
15.8242482648
 20
23.8693045776
 30
0.0
 10
15.825551215
 20
23.8049629634
 30
0.0
 10
15.8399852551
 20
23.676417807
 30
0.0
 10
15.89571845
 20
23.4915711088
 30
0.0
 10
15.9840336361
 20
23.3214814722
 30
0.0
 10
16.1014618948
 20
23.172656236
 30
0.0
 10
16.2436219825
 20
23.0503943757
 30
0.0
 10
16.4055758597
 20
22.9594084719
 30
0.0
 10
16.5811074058
 20
22.9035893585
 30
0.0
 10
16.7030246775
 20
22.8907958417
 30
0.0
 10
16.7636050742
 20
22.8907857612
 30
0.0
  0
SPLINE
  5
2DD
100
AcDbEntity
  8
0
100
AcDbSpline
 62
7
  6
BYLAYER
 70
0
 71
3
 72
15
 73
11
 74
0
 42
0.0000001
 43
0.0000001
 44
0.0000000001
 40
0.0
 40
0.0
 40
0.0
 40
0.0
 40
0.109245621
 40
0.2205545448
 40
0.3355051435
 40
0.4555569521
 40
0.582017298
 40
0.7155891415
 40
0.8557451607
 40
1.0
 40
1.0
 40
1.0
 40
1.0
 10
14.9438247495
 20
22.8907857494
 30
0.0
 10
14.909854651
 20
22.8907890414
 30
0.0
 10
14.8411570367
 20
22.8962315132
 30
0.0
 10
14.7393032576
 20
22.920496871
 30
0.0
 10
14.6390333022
 20
22.9608349943
 30
0.0
 10
14.5416166012
 20
23.0176495502
 30
0.0
 10
14.4482492578
 20
23.0906294834
 30
0.0
 10
14.359737074
 20
23.1784572127
 30
0.0
 10
14.2772867078
 20
23.2791818808
 30
0.0
 10
14.2276867276
 20
23.3525668033
 30
0.0
 10
14.2042048801
 20
23.3907857493
 30
0.0
  0
SPLINE
  5
2DE
100
AcDbEntity
  8
0
100
AcDbSpline
 62
7
  6
BYLAYER
 70
0
 71
3
 72
18
 73
14
 74
0
 42
0.0000001
 43
0.0000001
 44
0.0000000001
 40
0.0
 40
0.0
 40
0.0
 40
0.0
 40
0.0041424167
 40
0.0164995307
 40
0.0370233342
 40
0.0656595897
 40
0.1023535273
 40
0.1470471083
 40
0.2599563853
 40
0.4032271116
 40
0.5756313379
 40
0.7753429421
 40
1.0
 40
1.0
 40
1.0
 40
1.0
 10
22.2634683818
 20
32.8907857494
 30
0.0
 10
22.2635088271
 20
32.8907857494
 30
0.0
 10
22.2634319447
 20
32.8910441836
 30
0.0
 10
22.2635160625
 20
32.8913119329
 30
0.0
 10
22.2634722949
 20
32.8919657818
 30
0.0
 10
22.2634884219
 20
32.8927806127
 30
0.0
 10
22.2634706218
 20
32.8938638371
 30
0.0
 10
22.2634474851
 20
32.8957564306
 30
0.0
 10
22.2633968312
 20
32.8986964429
 30
0.0
 10
22.2633523981
 20
32.9028796157
 30
0.0
 10
22.263346661
 20
32.9079121914
 30
0.0
 10
22.2633888185
 20
32.9137386398
 30
0.0
 10
22.2634386153
 20
32.9178817914
 30
0.0
 10
22.263468382
 20
32.9200750713
 30
0.0
  0
SPLINE
  5
2DF
100
AcDbEntity
  8
0
100
AcDbSpline
 62
7
  6
BYLAYER
 70
0
 71
3
 72
11
 73
7
 74
0
 42
0.0000001
 43
0.0000001
 44
0.0000000001
 40
0.0
 40
0.0
 40
0.0
 40
0.0
 40
0.2458804048
 40
0.4950439804
 40
0.746806886
 40
1.0
 40
1.0
 40
1.0
 40
1.0
 10
14.0616298412
 20
25.353385085
 30
0.0
 10
13.9868032079
 20
25.2655497963
 30
0.0
 10
13.8153592048
 20
25.1054030797
 30
0.0
 10
13.5108080647
 20
24.9266744136
 30
0.0
 10
13.1720082581
 20
24.8157886243
 30
0.0
 10
12.9342874917
 20
24.7907857837
 30
0.0
 10
12.8154692081
 20
24.7907857838
 30
0.0
  0
SPLINE
  5
2E0
100
AcDbEntity
  8
0
100
AcDbSpline
 62
7
  6
BYLAYER
 70
0
 71
3
 72
9
 73
5
 74
0
 42
0.0000001
 43
0.0000001
 44
0.0000000001
 40
0.0
 40
0.0
 40
0.0
 40
0.0
 40
0.238516617
 40
1.0
 40
1.0
 40
1.0
 40
1.0
 10
21.2172580556
 20
33.4123832764
 30
0.0
 10
21.2186058827
 20
33.4101965561
 30
0.0
 10
21.2247462076
 20
33.4013313124
 30
0.0
 10
21.2325763692
 20
33.3937061062
 30
0.0
 10
21.2390211352
 20
33.3886346704
 30
0.0
  0
SPLINE
  5
2E1
100
AcDbEntity
  8
0
100
AcDbSpline
 62
7
  6
BYLAYER
 70
0
 71
3
 72
9
 73
5
 74
0
 42
0.0000001
 43
0.0000001
 44
0.0000000001
 40
0.0
 40
0.0
 40
0.0
 40
0.0
 40
0.4906047363
 40
1.0
 40
1.0
 40
1.0
 40
1.0
 10
21.2390211352
 20
33.3886346704
 30
0.0
 10
21.2483601117
 20
33.381285758
 30
0.0
 10
21.2697663907
 20
33.3691831371
 30
0.0
 10
21.2935042489
 20
33.3631027821
 30
0.0
 10
21.3057381232
 20
33.3614964275
 30
0.0
  0
SPLINE
  5
2E2
100
AcDbEntity
  8
0
100
AcDbSpline
 62
7
  6
BYLAYER
 70
0
 71
3
 72
9
 73
5
 74
0
 42
0.0000001
 43
0.0000001
 44
0.0000000001
 40
0.0
 40
0.0
 40
0.0
 40
0.0
 40
0.5000345289
 40
1.0
 40
1.0
 40
1.0
 40
1.0
 10
14.2042048801
 20
23.3907857493
 30
0.0
 10
14.1584176621
 20
23.4653088131
 30
0.0
 10
14.0875285963
 20
23.6277940696
 30
0.0
 10
14.06164094
 20
23.8033326543
 30
0.0
 10
14.0616320932
 20
23.8907857467
 30
0.0
  0
SPLINE
  5
2E3
100
AcDbEntity
  8
0
100
AcDbSpline
 62
7
  6
BYLAYER
 70
0
 71
3
 72
10
 73
6
 74
0
 42
0.0000001
 43
0.0000001
 44
0.0000000001
 40
0.0
 40
0.0
 40
0.0
 40
0.0
 40
0.5459620616
 40
0.7894597416
 40
1.0
 40
1.0
 40
1.0
 40
1.0
 10
21.3057381235
 20
33.3774944278
 30
0.0
 10
21.2881258616
 20
33.3785781978
 30
0.0
 10
21.2625433894
 20
33.383700322
 30
0.0
 10
21.2334272589
 20
33.3980219043
 30
0.0
 10
21.2218022624
 20
33.4073182961
 30
0.0
 10
21.2172580556
 20
33.4123832764
 30
0.0
  0
SPLINE
  5
2E4
100
AcDbEntity
  8
0
100
AcDbSpline
 62
7
  6
BYLAYER
 70
0
 71
3
 72
17
 73
13
 74
0
 42
0.0000001
 43
0.0000001
 44
0.0000000001
 40
0.0
 40
0.0
 40
0.0
 40
0.0
 40
0.1321392119
 40
0.1979400873
 40
0.2633560031
 40
0.3924786193
 40
0.5189875846
 40
0.6426051912
 40
0.7634904576
 40
0.8822409485
 40
0.9411962071
 40
1.0
 40
1.0
 40
1.0
 40
1.0
 10
12.8154692027
 20
25.2907857494
 30
0.0
 10
12.8889999322
 20
25.2907857476
 30
0.0
 10
12.9994679003
 20
25.3003999628
 30
0.0
 10
13.1426593809
 20
25.3322339751
 30
0.0
 10
13.2809096443
 20
25.3760803051
 30
0.0
 10
13.4434107285
 20
25.4528524192
 30
0.0
 10
13.615259069
 20
25.5774935247
 30
0.0
 10
13.7566997189
 20
25.7297834062
 30
0.0
 10
13.8621235987
 20
25.9039427807
 30
0.0
 10
13.9164809211
 20
26.0624564407
 30
0.0
 10
13.9383059214
 20
26.1924701813
 30
0.0
 10
13.9417766904
 20
26.2580637463
 30
0.0
 10
13.9418841495
 20
26.2907857704
 30
0.0
  0
SPLINE
  5
2E5
100
AcDbEntity
  8
0
100
AcDbSpline
 62
7
  6
BYLAYER
 70
0
 71
3
 72
9
 73
5
 74
0
 42
0.0000001
 43
0.0000001
 44
0.0000000001
 40
0.0
 40
0.0
 40
0.0
 40
0.0
 40
0.2453755109
 40
1.0
 40
1.0
 40
1.0
 40
1.0
 10
22.263468382
 20
33.0200750725
 30
0.0
 10
22.2694296663
 20
33.0200750725
 30
0.0
 10
22.2936485644
 20
33.0215982176
 30
0.0
 10
22.3178803891
 20
33.029632715
 30
0.0
 10
22.3330162765
 20
33.0399774261
 30
0.0
  0
SPLINE
  5
2E6
100
AcDbEntity
  8
0
100
AcDbSpline
 62
7
  6
BYLAYER
 70
0
 71
3
 72
11
 73
7
 74
0
 42
0.0000001
 43
0.0000001
 44
0.0000000001
 40
0.0
 40
0.0
 40
0.0
 40
0.0
 40
0.2867077067
 40
0.5485296827
 40
0.7845091712
 40
1.0
 40
1.0
 40
1.0
 40
1.0
 10
22.3330162765
 20
33.0399774261
 30
0.0
 10
22.337869102
 20
33.0432941181
 30
0.0
 10
22.3465532317
 20
33.0505851162
 30
0.0
 10
22.3564578079
 20
33.0634470697
 30
0.0
 10
22.3622050377
 20
33.0770732012
 30
0.0
 10
22.363468378
 20
33.0863678486
 30
0.0
 10
22.3634683818
 20
33.090785747
 30
0.0
  0
SPLINE
  5
2E7
100
AcDbEntity
  8
0
100
AcDbSpline
 62
7
  6
BYLAYER
 70
0
 71
3
 72
11
 73
7
 74
0
 42
0.0000001
 43
0.0000001
 44
0.0000000001
 40
0.0
 40
0.0
 40
0.0
 40
0.0
 40
0.1878644762
 40
0.4125662361
 40
0.6858539013
 40
1.0
 40
1.0
 40
1.0
 40
1.0
 10
22.507166767
 20
33.3468517665
 30
0.0
 10
22.5041110352
 20
33.3449865622
 30
0.0
 10
22.4962309136
 20
33.3426912131
 30
0.0
 10
22.4830477966
 20
33.3446877211
 30
0.0
 10
22.4688578552
 20
33.3511688309
 30
0.0
 10
22.4596973309
 20
33.3577029036
 30
0.0
 10
22.4550662289
 20
33.3614964274
 30
0.0
  0
SPLINE
  5
2E8
100
AcDbEntity
  8
0
100
AcDbSpline
 62
7
  6
BYLAYER
 70
0
 71
3
 72
9
 73
5
 74
0
 42
0.0000001
 43
0.0000001
 44
0.0000000001
 40
0.0
 40
0.0
 40
0.0
 40
0.0
 40
0.2333399167
 40
1.0
 40
1.0
 40
1.0
 40
1.0
 10
21.2087590077
 20
33.456593889
 30
0.0
 10
21.2082938118
 20
33.4547438892
 30
0.0
 10
21.2068707006
 20
33.4466733312
 30
0.0
 10
21.2076363851
 20
33.4382988277
 30
0.0
 10
21.2091137589
 20
33.4322078662
 30
0.0
  0
LINE
  5
2E9
100
AcDbEntity
  8
0
100
AcDbLine
 62
7
  6
BYLAYER
 10
21.3057381235
 20
33.3774944276
 11
21.3057381235
 21
33.4322071054
  0
SPLINE
  5
2EA
100
AcDbEntity
  8
0
100
AcDbSpline
 62
7
  6
BYLAYER
 70
0
 71
3
 72
9
 73
5
 74
0
 42
0.0000001
 43
0.0000001
 44
0.0000000001
 40
0.0
 40
0.0
 40
0.0
 40
0.0
 40
0.2442114285
 40
1.0
 40
1.0
 40
1.0
 40
1.0
 10
21.2087595136
 20
33.4322071267
 30
0.0
 10
21.2090257921
 20
33.4310910237
 30
0.0
 10
21.2102509573
 20
33.4265533631
 30
0.0
 10
21.2120124718
 20
33.4221658157
 30
0.0
 10
21.2135795769
 20
33.418979234
 30
0.0
  0
SPLINE
  5
2EB
100
AcDbEntity
  8
0
100
AcDbSpline
 62
7
  6
BYLAYER
 70
0
 71
3
 72
11
 73
7
 74
0
 42
0.0000001
 43
0.0000001
 44
0.0000000001
 40
0.0
 40
0.0
 40
0.0
 40
0.0
 40
0.266630268
 40
0.5243186045
 40
0.7688166984
 40
1.0
 40
1.0
 40
1.0
 40
1.0
 10
14.0616318492
 20
35.4281937572
 30
0.0
 10
14.0616318478
 20
35.3440147928
 30
0.0
 10
14.0553414619
 20
35.1784201714
 30
0.0
 10
14.0296446927
 20
34.9369228439
 30
0.0
 10
13.9919035666
 20
34.708323318
 30
0.0
 10
13.9582816988
 20
34.5619090493
 30
0.0
 10
13.9418895385
 20
34.4907857491
 30
0.0
  0
SPLINE
  5
2EC
100
AcDbEntity
  8
0
100
AcDbSpline
 62
7
  6
BYLAYER
 70
0
 71
3
 72
13
 73
9
 74
0
 42
0.0000001
 43
0.0000001
 44
0.0000000001
 40
0.0
 40
0.0
 40
0.0
 40
0.0
 40
0.2311581011
 40
0.351521214
 40
0.4756837211
 40
0.6030522837
 40
0.733384249
 40
1.0
 40
1.0
 40
1.0
 40
1.0
 10
13.9418895517
 20
26.2907857523
 30
0.0
 10
13.9578540041
 20
26.2195678627
 30
0.0
 10
13.9832293286
 20
26.1114812136
 30
0.0
 10
14.010005064
 20
25.9636607711
 30
0.0
 10
14.0275065975
 20
25.8475388874
 30
0.0
 10
14.0421233064
 20
25.7278380008
 30
0.0
 10
14.0568267108
 20
25.562928819
 30
0.0
 10
14.0616320902
 20
25.4375460083
 30
0.0
 10
14.0616320932
 20
25.3533654152
 30
0.0
  0
SPLINE
  5
2ED
100
AcDbEntity
  8
0
100
AcDbSpline
 62
7
  6
BYLAYER
 70
0
 71
3
 72
20
 73
16
 74
0
 42
0.0000001
 43
0.0000001
 44
0.0000000001
 40
0.0
 40
0.0
 40
0.0
 40
0.0
 40
0.1745741431
 40
0.3433803484
 40
0.5005742693
 40
0.5733217679
 40
0.6414338514
 40
0.7044422158
 40
0.7620315987
 40
0.8139944555
 40
0.8603095265
 40
0.9012294695
 40
0.9373285676
 40
0.9697018065
 40
1.0
 40
1.0
 40
1.0
 40
1.0
 10
14.4550844559
 20
29.5907857494
 30
0.0
 10
14.4550844559
 20
29.4932146694
 30
0.0
 10
14.4487112024
 20
29.3012276848
 30
0.0
 10
14.4203466743
 20
29.0226827656
 30
0.0
 10
14.3810336959
 20
28.8030149996
 30
0.0
 10
14.3402977716
 20
28.6414266698
 30
0.0
 10
14.3067758255
 20
28.5324638166
 30
0.0
 10
14.2697647976
 20
28.4336215678
 30
0.0
 10
14.2296650276
 20
28.3458043389
 30
0.0
 10
14.1868254867
 20
28.2698015141
 30
0.0
 10
14.1415661182
 20
28.2063015888
 30
0.0
 10
14.0942672325
 20
28.1558001013
 30
0.0
 10
14.0450553322
 20
28.1188462825
 30
0.0
 10
13.9941856795
 20
28.0960568627
 30
0.0
 10
13.9589881775
 20
28.090793433
 30
0.0
 10
13.942054241
 20
28.0907945016
 30
0.0
  0
SPLINE
  5
2EE
100
AcDbEntity
  8
0
100
AcDbSpline
 62
7
  6
BYLAYER
 70
0
 71
3
 72
16
 73
12
 74
0
 42
0.0000001
 43
0.0000001
 44
0.0000000001
 40
0.0
 40
0.0
 40
0.0
 40
0.0
 40
0.1176000012
 40
0.2363741247
 40
0.3572800378
 40
0.4809199471
 40
0.6074513977
 40
0.7365970483
 40
0.8020246559
 40
0.8678372293
 40
1.0
 40
1.0
 40
1.0
 40
1.0
 10
13.941883518
 20
34.4907857274
 30
0.0
 10
13.9416501383
 20
34.5562138267
 30
0.0
 10
13.9273190345
 20
34.6881814769
 30
0.0
 10
13.8620754458
 20
34.8775742848
 30
0.0
 10
13.7567134533
 20
35.0518036522
 30
0.0
 10
13.615255181
 20
35.2040735378
 30
0.0
 10
13.4434118261
 20
35.328720325
 30
0.0
 10
13.2809094921
 20
35.4054910398
 30
0.0
 10
13.1426593836
 20
35.4493375275
 30
0.0
 10
12.9994678714
 20
35.4811715283
 30
0.0
 10
12.8889999351
 20
35.4907857491
 30
0.0
 10
12.8154692056
 20
35.4907857494
 30
0.0
  0
SPLINE
  5
2EF
100
AcDbEntity
  8
0
100
AcDbSpline
 62
7
  6
BYLAYER
 70
0
 71
3
 72
9
 73
5
 74
0
 42
0.0000001
 43
0.0000001
 44
0.0000000001
 40
0.0
 40
0.0
 40
0.0
 40
0.0
 40
0.5000000005
 40
1.0
 40
1.0
 40
1.0
 40
1.0
 10
22.4550662282
 20
33.4322071054
 30
0.0
 10
22.4862062272
 20
33.4510896184
 30
0.0
 10
22.5538693712
 20
33.4807002477
 30
0.0
 10
22.627050775
 20
33.4906788732
 30
0.0
 10
22.6634683176
 20
33.4907857451
 30
0.0
  0
ELLIPSE
  5
2F0
100
AcDbEntity
  8
0
100
AcDbEllipse
 62
7
  6
BYLAYER
 10
15.0443517254
 20
30.3907857494
 30
0.0
 11
-0.0
 21
1.0
 31
0.0
 40
0.3639702342
 41
0.0
 42
6.2831853072
  0
ENDSEC
  0
SECTION
  2
OBJECTS
  0
DICTIONARY
  5
C
100
AcDbDictionary
280
0
281
1
  3
ACAD_GROUP
350
D
  3
ACAD_MLINESTYLE
350
17
  3
ACAD_LAYOUT
350
1A
  3
ACAD_PLOTSETTINGS
350
19
  3
ACAD_PLOTSTYLENAME
350
E
  0
DICTIONARY
  5
D
102
{ACAD_REACTORS
330
C
102
}
100
AcDbDictionary
280
0
281
1
  0
ACDBDICTIONARYWDFLT
  5
E
102
{ACAD_REACTORS
330
C
102
}
100
AcDbDictionary
281
1
  3
Normal
350
F
100
AcDbDictionaryWithDefault
340
F
  0
DICTIONARY
  5
17
102
{ACAD_REACTORS
330
C
102
}
100
AcDbDictionary
280
0
281
1
  3
Standard
350
18
  0
DICTIONARY
  5
19
102
{ACAD_REACTORS
330
C
102
}
100
AcDbDictionary
281
1
  0
DICTIONARY
  5
1A
102
{ACAD_REACTORS
330
C
102
}
100
AcDbDictionary
281
1
  3
Model
350
2F1
  3
Layout1
350
2F2
  0
ACDBPLACEHOLDER
  5
F
102
{ACAD_REACTORS
330
E
102
}
  0
MLINESTYLE
  5
18
102
{ACAD_REACTORS
330
17
102
}
100
AcDbMlineStyle
  2
STANDARD
 70
0
  3

 62
256
 51
90.0
 52
90.0
 71
2
 49
0.5
 62
256
  6
BYLAYER
 49
-0.5
 62
256
  6
BYLAYER
  0
LAYOUT
  5
2F1
102
{ACAD_REACTORS
330
1A
102
}
100
AcDbPlotSettings
  1

  2
none_device
  4

  6

 40
0.0
 41
0.0
 42
0.0
 43
0.0
 44
210.0
 45
297.0
 46
0.0
 47
0.0
 48
0.0
 49
0.0
140
0.0
141
0.0
142
1.0
143
1.0
 70
1024
 72
1
 73
0
 74
0
  7

 75
0
147
1.0
148
0.0
149
0.0
100
AcDbLayout
  1
Model
 70
0
 71
0
 10
0.0
 20
0.0
 11
210.0
 21
297.0
 12
0.0
 22
0.0
 32
0.0
 14
0.0
 24
0.0
 34
0.0
 15
0.0
 25
0.0
 35
0.0
146
0.0
 13
0.0
 23
0.0
 33
0.0
 16
1.0
 26
0.0
 36
0.0
 17
0.0
 27
1.0
 37
0.0
 76
0
330
210
345
0
346
0
  0
LAYOUT
  5
2F2
102
{ACAD_REACTORS
330
1A
102
}
100
AcDbPlotSettings
  1

  2
none_device
  4

  6

 40
0.0
 41
0.0
 42
0.0
 43
0.0
 44
210.0
 45
297.0
 46
0.0
 47
0.0
 48
0.0
 49
0.0
140
0.0
141
0.0
142
1.0
143
1.0
 70
0
 72
1
 73
0
 74
0
  7

 75
0
147
1.0
148
0.0
149
0.0
100
AcDbLayout
  1
Layout1
 70
0
 71
1
 10
0.0
 20
0.0
 11
210.0
 21
297.0
 12
0.0
 22
0.0
 32
0.0
 14
0.0
 24
0.0
 34
0.0
 15
0.0
 25
0.0
 35
0.0
146
0.0
 13
0.0
 23
0.0
 33
0.0
 16
1.0
 26
0.0
 36
0.0
 17
0.0
 27
1.0
 37
0.0
 76
0
330
211
345
0
346
0
  0
ENDSEC
  0
EOF
