999
DXF file: C:\Users\sesa63760\Dev\_Creo\CAD\MCADPD0005307_3D-CAD\drw0001_7.dxf
999
Pro/ENGINEER 2019471 by Parametric Technology Corporation
  0
SECTION
  2
HEADER
  9
$ACADVER
  1
AC1024
  9
$DWGCODEPAGE
  3
ANSI_1252
  9
$EXTMAX
 10
79.6359657848
 20
112.6280087527
 30
0.0
  9
$EXTMIN
 10
0.0
 20
0.0
 30
0.0
  9
$LIMMIN
 10
0.0
 20
0.0
  9
$LIMMAX
 10
79.6359657848
 20
112.6280087527
  9
$VIEWCTR
 10
39.8179828924
 20
56.3140043764
  9
$VIEWSIZE
 40
112.6280087527
  9
$CLAYER
  8
0
  9
$LTSCALE
 40
7.3416776076
  9
$CELTYPE
  6
BYLAYER
  9
$DIMSCALE
 40
1.0
  9
$DIMASZ
 40
0.9480472117
  9
$DIMEXO
 40
1.0
  9
$DIMDLI
 40
5.0724318016
  9
$DIMEXE
 40
1.0
  9
$DIMCEN
 40
1.2013654267
  9
$DIMLFAC
 40
1.0
  9
$DIMBLK
  1
_FILLED
  9
$DIMALT
 70
0
  9
$DIMALTF
 40
0.0393700787
  9
$DIMTXT
 40
1.3272660964
  9
$DIMTOL
 70
1
  9
$DIMLIM
 70
0
  9
$DIMTFAC
 40
1.0
  9
$DIMTP
 40
0.01
  9
$DIMTM
 40
0.01
  9
$DIMGAP
 40
0.625
  9
$DIMDSEP
 70
46
  9
$AUNITS
 70
0
  9
$PDMODE
 70
3
  9
$PDSIZE
 40
0.3125
  9
$HANDSEED
  5
2AC
  9
$TILEMODE
 70
1
  9
$MEASUREMENT
 70
1
  9
$INSUNITS
 70
4
  0
ENDSEC
  0
SECTION
  2
CLASSES
  0
CLASS
  1
ACDBDICTIONARYWDFLT
  2
AcDbDictionaryWithDefault
  3
AutoCAD 2000
 90
0
 91
1
280
0
281
0
  0
CLASS
  1
ACDBPLACEHOLDER
  2
AcDbPlaceHolder
  3
AutoCAD 2000
 90
0
 91
1
280
0
281
0
  0
CLASS
  1
LAYOUT
  2
AcDbLayout
  3
AutoCAD 2000
 90
0
 91
0
280
0
281
0
  0
ENDSEC
  0
SECTION
  2
TABLES
  0
TABLE
  2
VPORT
  5
8
100
AcDbSymbolTable
 70
2
  0
VPORT
  5
1F4
100
AcDbSymbolTableRecord
100
AcDbViewportTableRecord
  2
*ACTIVE
 70
0
 10
0.0
 20
0.0
 11
1.0
 21
1.0
 12
39.8179828924
 22
56.3140043764
 13
0.0
 23
0.0
 14
1.0
 24
1.0
 15
0.0
 25
0.0
 16
0.0
 26
0.0
 36
1.0
 17
0.0
 27
0.0
 37
0.0
 40
112.6280087527
 41
0.7070707071
 42
50.0
 43
0.0
 44
0.0
 50
0.0
 51
0.0
 71
0
 72
100
 73
1
 74
1
 75
0
 76
0
 77
0
 78
0
  0
ENDTAB
  0
TABLE
  2
LTYPE
  5
5
100
AcDbSymbolTable
 70
6
  0
LTYPE
  5
14
100
AcDbSymbolTableRecord
100
AcDbLinetypeTableRecord
  2
BYBLOCK
 70
0
  3

 72
65
 73
0
 40
0.0
  0
LTYPE
  5
15
100
AcDbSymbolTableRecord
100
AcDbLinetypeTableRecord
  2
BYLAYER
 70
0
  3

 72
65
 73
0
 40
0.0
  0
LTYPE
  5
16
100
AcDbSymbolTableRecord
100
AcDbLinetypeTableRecord
  2
CONTINUOUS
 70
64
  3
Solid line
 72
65
 73
0
 40
0.0
  0
LTYPE
  5
1F5
100
AcDbSymbolTableRecord
100
AcDbLinetypeTableRecord
  2
CENTER
 70
64
  3
____ _ ____ _ ____ _ ____ _ ____ _ ____ _ ____
 72
65
 73
4
 40
0.6
 49
0.375
 74
0
 49
-0.075
 74
0
 49
0.075
 74
0
 49
-0.075
 74
0
  0
LTYPE
  5
1F6
100
AcDbSymbolTableRecord
100
AcDbLinetypeTableRecord
  2
HIDDEN
 70
64
  3
- - - - - - - - - - - - - - - - - - - -
 72
65
 73
2
 40
0.2
 49
0.1
 74
0
 49
-0.1
 74
0
  0
LTYPE
  5
1F7
100
AcDbSymbolTableRecord
100
AcDbLinetypeTableRecord
  2
PHANTOM
 70
64
  3
_____ _ _ _____ _ _ _____ _ _ _____
 72
65
 73
6
 40
0.8
 49
0.45
 74
0
 49
-0.05
 74
0
 49
0.1
 74
0
 49
-0.05
 74
0
 49
0.1
 74
0
 49
-0.05
 74
0
  0
LTYPE
  5
1F8
100
AcDbSymbolTableRecord
100
AcDbLinetypeTableRecord
  2
DOT
 70
64
  3
. . . . . . . . . . . . . . . . . . . .
 72
65
 73
2
 40
0.2
 49
0.1
 74
0
 49
-0.1
 74
0
  0
LTYPE
  5
1F9
100
AcDbSymbolTableRecord
100
AcDbLinetypeTableRecord
  2
DASHED
 70
64
  3
- - - - - - - - - - - - - - - - - - - -
 72
65
 73
2
 40
0.2
 49
0.1
 74
0
 49
-0.1
 74
0
  0
ENDTAB
  0
TABLE
  2
LAYER
  5
2
100
AcDbSymbolTable
 70
36
  0
LAYER
  5
10
100
AcDbSymbolTableRecord
100
AcDbLayerTableRecord
  2
0
 70
0
 62
7
  6
CONTINUOUS
370
-3
390
F
  0
LAYER
  5
1FA
100
AcDbSymbolTableRecord
100
AcDbLayerTableRecord
  2
DEFAULT_1
 70
0
 62
7
  6
CENTER
370
-3
390
F
  0
LAYER
  5
1FB
100
AcDbSymbolTableRecord
100
AcDbLayerTableRecord
  2
DEFAULT_2
 70
0
 62
7
  6
HIDDEN
370
-3
390
F
  0
LAYER
  5
1FC
100
AcDbSymbolTableRecord
100
AcDbLayerTableRecord
  2
DEFAULT_3
 70
0
 62
7
  6
PHANTOM
370
-3
390
F
  0
LAYER
  5
1FD
100
AcDbSymbolTableRecord
100
AcDbLayerTableRecord
  2
00_COMPONENTS
 70
0
 62
7
  6
CONTINUOUS
370
-3
390
F
  0
LAYER
  5
1FE
100
AcDbSymbolTableRecord
100
AcDbLayerTableRecord
  2
01_1_DEFAULT_DATUMS
 70
0
 62
7
  6
CONTINUOUS
370
-3
390
F
  0
LAYER
  5
1FF
100
AcDbSymbolTableRecord
100
AcDbLayerTableRecord
  2
01_PLANES
 70
0
 62
7
  6
CONTINUOUS
370
-3
390
F
  0
LAYER
  5
200
100
AcDbSymbolTableRecord
100
AcDbLayerTableRecord
  2
02_COORD_SYS
 70
0
 62
7
  6
CONTINUOUS
370
-3
390
F
  0
LAYER
  5
201
100
AcDbSymbolTableRecord
100
AcDbLayerTableRecord
  2
03_AXES
 70
0
 62
7
  6
CONTINUOUS
370
-3
390
F
  0
LAYER
  5
202
100
AcDbSymbolTableRecord
100
AcDbLayerTableRecord
  2
04_POINTS
 70
0
 62
7
  6
CONTINUOUS
370
-3
390
F
  0
LAYER
  5
203
100
AcDbSymbolTableRecord
100
AcDbLayerTableRecord
  2
05_CURVES
 70
0
 62
7
  6
CONTINUOUS
370
-3
390
F
  0
LAYER
  5
204
100
AcDbSymbolTableRecord
100
AcDbLayerTableRecord
  2
06_SURFS
 70
0
 62
7
  6
CONTINUOUS
370
-3
390
F
  0
LAYER
  5
205
100
AcDbSymbolTableRecord
100
AcDbLayerTableRecord
  2
07_COSMETICS
 70
0
 62
7
  6
CONTINUOUS
370
-3
390
F
  0
LAYER
  5
206
100
AcDbSymbolTableRecord
100
AcDbLayerTableRecord
  2
10_NOTES
 70
0
 62
7
  6
CONTINUOUS
370
-3
390
F
  0
LAYER
  5
207
100
AcDbSymbolTableRecord
100
AcDbLayerTableRecord
  2
11_NOTES_PUB
 70
0
 62
7
  6
CONTINUOUS
370
-3
390
F
  0
LAYER
  5
208
100
AcDbSymbolTableRecord
100
AcDbLayerTableRecord
  2
13_REF_GTOL
 70
0
 62
7
  6
CONTINUOUS
370
-3
390
F
  0
LAYER
  5
209
100
AcDbSymbolTableRecord
100
AcDbLayerTableRecord
  2
16_MISC
 70
0
 62
7
  6
CONTINUOUS
370
-3
390
F
  0
LAYER
  5
20A
100
AcDbSymbolTableRecord
100
AcDbLayerTableRecord
  2
17_NO_PRINT
 70
0
 62
7
  6
CONTINUOUS
370
-3
390
F
  0
LAYER
  5
20B
100
AcDbSymbolTableRecord
100
AcDbLayerTableRecord
  2
18_DATUM_CAMS_JOINTS
 70
0
 62
7
  6
CONTINUOUS
370
-3
390
F
  0
LAYER
  5
20C
100
AcDbSymbolTableRecord
100
AcDbLayerTableRecord
  2
19_DATUM_FUNCTIONAL
 70
0
 62
7
  6
CONTINUOUS
370
-3
390
F
  0
LAYER
  5
20D
100
AcDbSymbolTableRecord
100
AcDbLayerTableRecord
  2
20_DATUM_KINEMATIC_SCHEME
 70
0
 62
7
  6
CONTINUOUS
370
-3
390
F
  0
ENDTAB
  0
TABLE
  2
STYLE
  5
3
100
AcDbSymbolTable
 70
1
  0
STYLE
  5
11
100
AcDbSymbolTableRecord
100
AcDbTextStyleTableRecord
  2
STANDARD
 70
0
 40
0.0
 41
1.0
 50
0.0
 71
0
 42
0.2
  3
ARIAL.TTF
  4

  0
STYLE
  5
20E
100
AcDbSymbolTableRecord
100
AcDbTextStyleTableRecord
  2
TEXTSTYLE_1
 70
0
 40
0.0
 41
0.8
 50
0.0
 71
0
 42
0.2
  3
gdt
  4

  0
ENDTAB
  0
TABLE
  2
VIEW
  5
6
100
AcDbSymbolTable
 70
0
  0
ENDTAB
  0
TABLE
  2
UCS
  5
7
100
AcDbSymbolTable
 70
0
  0
ENDTAB
  0
TABLE
  2
APPID
  5
9
100
AcDbSymbolTable
 70
1
  0
APPID
  5
20F
100
AcDbSymbolTableRecord
100
AcDbRegAppTableRecord
  2
ACAD
 70
0
  0
ENDTAB
  0
TABLE
  2
BLOCK_RECORD
  5
1
100
AcDbSymbolTable
 70
0
  0
BLOCK_RECORD
  5
210
100
AcDbSymbolTableRecord
100
AcDbBlockTableRecord
  2
*Model_Space
  0
BLOCK_RECORD
  5
211
100
AcDbSymbolTableRecord
100
AcDbBlockTableRecord
  2
*Paper_Space
  0
BLOCK_RECORD
  5
212
100
AcDbSymbolTableRecord
100
AcDbBlockTableRecord
  2
_FILLED
  0
ENDTAB
  0
TABLE
  2
DIMSTYLE
  5
A
100
AcDbSymbolTable
 70
1
100
AcDbDimStyleTable
 71
0
  0
DIMSTYLE
105
213
100
AcDbSymbolTableRecord
100
AcDbDimStyleTableRecord
  2
STANDARD
 70
0
  3

  4

 40
1.0
 41
0.9480472117
 42
1.0
 43
0.38
 44
1.0
 45
0.0
 46
0.0
 47
0.01
 48
0.01
140
1.3272660964
141
0.09
142
0.0
143
25.4
144
1.0
145
0.0
146
1.0
147
0.625
 71
1
 72
0
 73
0
 74
0
 75
0
 76
0
 77
1
 78
8
 79
2
170
0
171
1
172
0
173
0
174
0
175
0
176
0
177
0
178
0
270
2
179
2
271
2
272
2
273
2
274
2
275
0
280
0
281
0
282
0
283
1
284
8
285
0
286
0
287
3
288
0
340
11
278
46
341
212
342
212
343
212
344
212
  0
ENDTAB
  0
ENDSEC
  0
SECTION
  2
BLOCKS
  0
BLOCK
  5
20
100
AcDbEntity
  8
0
100
AcDbBlockBegin
  2
*Model_Space
 70
0
 10
0.0
 20
0.0
 30
0.0
  3
*Model_Space
  1

  0
ENDBLK
  5
21
100
AcDbEntity
  8
0
100
AcDbBlockEnd
  0
BLOCK
  5
1C
100
AcDbEntity
  8
0
100
AcDbBlockBegin
  2
*Paper_Space
 70
0
 10
0.0
 20
0.0
 30
0.0
  3
*Paper_Space
  1

  0
ENDBLK
  5
1D
100
AcDbEntity
  8
0
100
AcDbBlockEnd
  0
BLOCK
  5
214
100
AcDbEntity
  8
0
100
AcDbBlockBegin
  2
_FILLED
 70
64
 10
0.0
 20
0.0
  3
_FILLED
  1

  0
SOLID
  5
215
100
AcDbEntity
  8
0
  6
BYBLOCK
 62
0
100
AcDbTrace
 10
0.0
 20
0.0
 11
-1.0
 21
0.25
 12
-1.0
 22
-0.25
 13
-1.0
 23
-0.25
  0
ENDBLK
  5
216
100
AcDbEntity
  8
0
  6
BYBLOCK
 62
0
100
AcDbBlockEnd
  0
ENDSEC
  0
SECTION
  2
ENTITIES
  0
LINE
  5
217
100
AcDbEntity
  8
0
100
AcDbLine
 62
7
  6
BYLAYER
 10
69.9058384722
 20
15.0897155361
 11
10.0058384722
 21
15.0897155361
  0
LINE
  5
218
100
AcDbEntity
  8
0
100
AcDbLine
 62
7
  6
BYLAYER
 10
10.0058384722
 20
16.5897155361
 11
69.9058384722
 21
16.5897155361
  0
LINE
  5
219
100
AcDbEntity
  8
0
100
AcDbLine
 62
7
  6
BYLAYER
 10
8.4558384722
 20
32.6897155361
 11
8.4558384722
 21
80.4897155361
  0
LINE
  5
21A
100
AcDbEntity
  8
0
100
AcDbLine
 62
7
  6
BYLAYER
 10
63.8558384722
 20
25.0897155361
 11
16.0558384722
 21
25.0897155361
  0
LINE
  5
21B
100
AcDbEntity
  8
0
100
AcDbLine
 62
7
  6
BYLAYER
 10
9.9558384722
 20
29.589715539
 11
9.9558384722
 21
83.5897155335
  0
LINE
  5
21C
100
AcDbEntity
  8
0
100
AcDbLine
 62
7
  6
BYLAYER
 10
10.0058384722
 20
98.0897155361
 11
10.0058384722
 21
85.0024894039
  0
LINE
  5
21D
100
AcDbEntity
  8
0
100
AcDbLine
 62
7
  6
BYLAYER
 10
10.0058384722
 20
15.0897155361
 11
10.0058384722
 21
28.1769416683
  0
LINE
  5
21E
100
AcDbEntity
  8
0
100
AcDbLine
 62
7
  6
BYLAYER
 10
10.9558384722
 20
83.5897155361
 11
10.9558384722
 21
29.5897155361
  0
LINE
  5
21F
100
AcDbEntity
  8
0
100
AcDbLine
 62
7
  6
BYLAYER
 10
66.9558384693
 20
26.5897155361
 11
12.9558384749
 21
26.5897155361
  0
LINE
  5
220
100
AcDbEntity
  8
0
100
AcDbLine
 62
7
  6
BYLAYER
 10
12.9558384722
 20
27.5897155361
 11
66.9558384722
 21
27.5897155361
  0
LINE
  5
221
100
AcDbEntity
  8
0
100
AcDbLine
 62
7
  6
BYLAYER
 10
12.9558384722
 20
86.5897155361
 11
12.9558384722
 21
85.5897155361
  0
LINE
  5
222
100
AcDbEntity
  8
0
100
AcDbLine
 62
7
  6
BYLAYER
 10
12.9558384722
 20
27.5897155361
 11
12.9558384722
 21
26.5897155361
  0
LINE
  5
223
100
AcDbEntity
  8
0
100
AcDbLine
 62
7
  6
BYLAYER
 10
9.9558384722
 20
29.5897155361
 11
10.9558384722
 21
29.5897155361
  0
LINE
  5
224
100
AcDbEntity
  8
0
100
AcDbLine
 62
7
  6
BYLAYER
 10
68.9558384722
 20
29.5897155361
 11
69.9558384722
 21
29.5897155361
  0
LINE
  5
225
100
AcDbEntity
  8
0
100
AcDbLine
 62
7
  6
BYLAYER
 10
19.2058384722
 20
22.9274378759
 11
19.2058384722
 21
24.9897155361
  0
LINE
  5
226
100
AcDbEntity
  8
0
100
AcDbLine
 62
7
  6
BYLAYER
 10
19.2058384722
 20
88.1897155361
 11
19.2058384722
 21
90.2519931963
  0
LINE
  5
227
100
AcDbEntity
  8
0
100
AcDbLine
 62
7
  6
BYLAYER
 10
17.6984907198
 20
59.888399965
 11
17.7043177778
 21
59.9257521461
  0
LINE
  5
228
100
AcDbEntity
  8
0
100
AcDbLine
 62
7
  6
BYLAYER
 10
20.1720270089
 20
62.0209053348
 11
20.2647405558
 21
62.5897155361
  0
LINE
  5
229
100
AcDbEntity
  8
0
100
AcDbLine
 62
7
  6
BYLAYER
 10
17.7043177778
 20
59.9257521461
 11
17.7534340847
 21
60.2256731628
  0
LINE
  5
22A
100
AcDbEntity
  8
0
100
AcDbLine
 62
7
  6
BYLAYER
 10
17.7534827896
 20
52.9531551271
 11
17.7042691214
 21
53.2536201941
  0
LINE
  5
22B
100
AcDbEntity
  8
0
100
AcDbLine
 62
7
  6
BYLAYER
 10
20.2647405558
 20
50.5897155361
 11
20.1720270089
 21
51.1585257381
  0
LINE
  5
22C
100
AcDbEntity
  8
0
100
AcDbLine
 62
7
  6
BYLAYER
 10
17.7042691214
 20
53.2536201941
 11
17.6984335651
 21
53.2910228175
  0
LINE
  5
22D
100
AcDbEntity
  8
0
100
AcDbLine
 62
7
  6
BYLAYER
 10
20.1720272183
 20
62.0209053355
 11
20.1720272183
 21
60.0221236822
  0
LINE
  5
22E
100
AcDbEntity
  8
0
100
AcDbLine
 62
7
  6
BYLAYER
 10
20.1720270095
 20
53.15730739
 11
20.1720270095
 21
51.158525737
  0
LINE
  5
22F
100
AcDbEntity
  8
0
100
AcDbLine
 62
7
  6
BYLAYER
 10
20.7058384722
 20
90.2519931963
 11
20.7058384722
 21
88.1897155361
  0
LINE
  5
230
100
AcDbEntity
  8
0
100
AcDbLine
 62
7
  6
BYLAYER
 10
20.7058384722
 20
24.9897155361
 11
20.7058384722
 21
22.9274378759
  0
LINE
  5
231
100
AcDbEntity
  8
0
100
AcDbLine
 62
7
  6
BYLAYER
 10
48.6887136741
 20
38.5970256119
 11
31.2229632704
 21
38.5970256119
  0
LINE
  5
232
100
AcDbEntity
  8
0
100
AcDbLine
 62
7
  6
BYLAYER
 10
25.2558384722
 20
58.3538110351
 11
25.2558384722
 21
54.8164790621
  0
LINE
  5
233
100
AcDbEntity
  8
0
100
AcDbLine
 62
7
  6
BYLAYER
 10
26.0558384722
 20
51.1560883014
 11
26.0558384722
 21
54.8897155361
  0
LINE
  5
234
100
AcDbEntity
  8
0
100
AcDbLine
 62
7
  6
BYLAYER
 10
26.0558384722
 20
58.2897155361
 11
26.0558384722
 21
62.0209053362
  0
LINE
  5
235
100
AcDbEntity
  8
0
100
AcDbLine
 62
7
  6
BYLAYER
 10
26.4558384722
 20
51.158525736
 11
26.4558384722
 21
54.6897155361
  0
LINE
  5
236
100
AcDbEntity
  8
0
100
AcDbLine
 62
7
  6
BYLAYER
 10
26.4558384722
 20
58.4897155361
 11
26.4558384722
 21
62.0233427708
  0
LINE
  5
237
100
AcDbEntity
  8
0
100
AcDbLine
 62
7
  6
BYLAYER
 10
24.5218589621
 20
58.795686118
 11
21.1886038337
 21
57.0306773349
  0
LINE
  5
238
100
AcDbEntity
  8
0
100
AcDbLine
 62
7
  6
BYLAYER
 10
21.1878475624
 20
56.1473284556
 11
24.5211026909
 21
54.3750052657
  0
LINE
  5
239
100
AcDbEntity
  8
0
100
AcDbLine
 62
7
  6
BYLAYER
 10
20.2647405558
 20
50.5897155361
 11
59.6469363887
 21
50.5897155361
  0
LINE
  5
23A
100
AcDbEntity
  8
0
100
AcDbLine
 62
7
  6
BYLAYER
 10
59.7396499356
 20
51.1585257374
 11
20.1720270089
 21
51.1585257381
  0
LINE
  5
23B
100
AcDbEntity
  8
0
100
AcDbLine
 62
7
  6
BYLAYER
 10
20.1719715926
 20
53.15730739
 11
26.0558384722
 21
53.15730739
  0
LINE
  5
23C
100
AcDbEntity
  8
0
100
AcDbLine
 62
7
  6
BYLAYER
 10
26.4558384722
 20
53.15730739
 11
59.7397190742
 21
53.15730739
  0
LINE
  5
23D
100
AcDbEntity
  8
0
100
AcDbLine
 62
7
  6
BYLAYER
 10
39.2058384722
 20
22.9274378759
 11
39.2058384722
 21
24.9897155361
  0
LINE
  5
23E
100
AcDbEntity
  8
0
100
AcDbLine
 62
7
  6
BYLAYER
 10
39.2058384722
 20
88.1897155361
 11
39.2058384722
 21
90.2519931963
  0
LINE
  5
23F
100
AcDbEntity
  8
0
100
AcDbLine
 62
7
  6
BYLAYER
 10
31.222963142
 20
38.5970256742
 11
30.1313537257
 21
36.3479394415
  0
LINE
  5
240
100
AcDbEntity
  8
0
100
AcDbLine
 62
7
  6
BYLAYER
 10
48.6887137351
 20
74.5824054307
 11
49.780323143
 21
76.8314916675
  0
LINE
  5
241
100
AcDbEntity
  8
0
100
AcDbLine
 62
7
  6
BYLAYER
 10
17.6989627005
 20
53.2911012769
 11
19.6773516189
 21
53.5843114232
  0
LINE
  5
242
100
AcDbEntity
  8
0
100
AcDbLine
 62
7
  6
BYLAYER
 10
62.212714254
 20
59.8883297968
 11
60.2343252069
 21
59.5951196315
  0
LINE
  5
243
100
AcDbEntity
  8
0
100
AcDbLine
 62
7
  6
BYLAYER
 10
56.6558384722
 20
54.6897155361
 11
26.4558384722
 21
54.6897155361
  0
LINE
  5
244
100
AcDbEntity
  8
0
100
AcDbLine
 62
7
  6
BYLAYER
 10
26.0558384722
 20
54.8897155361
 11
56.6558384722
 21
54.8897155361
  0
LINE
  5
245
100
AcDbEntity
  8
0
100
AcDbLine
 62
7
  6
BYLAYER
 10
60.2343276067
 20
53.5843110863
 11
62.2127179273
 21
53.29110073
  0
LINE
  5
246
100
AcDbEntity
  8
0
100
AcDbLine
 62
7
  6
BYLAYER
 10
19.6773494139
 20
59.5951199747
 11
17.698959073
 21
59.888330334
  0
LINE
  5
247
100
AcDbEntity
  8
0
100
AcDbLine
 62
7
  6
BYLAYER
 10
30.1313538707
 20
76.8314917011
 11
31.2229632708
 21
74.5824054605
  0
LINE
  5
248
100
AcDbEntity
  8
0
100
AcDbLine
 62
7
  6
BYLAYER
 10
49.7803230745
 20
36.3479393714
 11
48.6887136742
 21
38.597025612
  0
LINE
  5
249
100
AcDbEntity
  8
0
100
AcDbLine
 62
7
  6
BYLAYER
 10
40.7058384722
 20
90.2519931963
 11
40.7058384722
 21
88.1897155361
  0
LINE
  5
24A
100
AcDbEntity
  8
0
100
AcDbLine
 62
7
  6
BYLAYER
 10
40.7058384722
 20
24.9897155361
 11
40.7058384722
 21
22.9274378759
  0
LINE
  5
24B
100
AcDbEntity
  8
0
100
AcDbLine
 62
7
  6
BYLAYER
 10
56.6558384722
 20
58.2897155361
 11
26.0558384722
 21
58.2897155361
  0
LINE
  5
24C
100
AcDbEntity
  8
0
100
AcDbLine
 62
7
  6
BYLAYER
 10
26.4558384722
 20
58.4897155361
 11
56.6558384722
 21
58.4897155361
  0
LINE
  5
24D
100
AcDbEntity
  8
0
100
AcDbLine
 62
7
  6
BYLAYER
 10
59.7397047343
 20
60.0221236822
 11
26.4558384722
 21
60.0221236822
  0
LINE
  5
24E
100
AcDbEntity
  8
0
100
AcDbLine
 62
7
  6
BYLAYER
 10
26.0558384722
 20
60.0221236822
 11
20.1719585417
 21
60.0221236822
  0
LINE
  5
24F
100
AcDbEntity
  8
0
100
AcDbLine
 62
7
  6
BYLAYER
 10
59.7396499356
 20
62.0209053341
 11
20.1720270089
 21
62.0209053348
  0
LINE
  5
250
100
AcDbEntity
  8
0
100
AcDbLine
 62
7
  6
BYLAYER
 10
59.6469363887
 20
62.5897155361
 11
20.2647405558
 21
62.5897155361
  0
LINE
  5
251
100
AcDbEntity
  8
0
100
AcDbLine
 62
7
  6
BYLAYER
 10
59.2058384722
 20
22.9274378759
 11
59.2058384722
 21
24.9897155361
  0
LINE
  5
252
100
AcDbEntity
  8
0
100
AcDbLine
 62
7
  6
BYLAYER
 10
59.2058384722
 20
88.1897155361
 11
59.2058384722
 21
90.2519931963
  0
LINE
  5
253
100
AcDbEntity
  8
0
100
AcDbLine
 62
7
  6
BYLAYER
 10
59.7396497262
 20
51.1585257367
 11
59.7396497262
 21
53.15730739
  0
LINE
  5
254
100
AcDbEntity
  8
0
100
AcDbLine
 62
7
  6
BYLAYER
 10
59.739649935
 20
60.0221236822
 11
59.739649935
 21
62.0209053352
  0
LINE
  5
255
100
AcDbEntity
  8
0
100
AcDbLine
 62
7
  6
BYLAYER
 10
60.7058384722
 20
90.2519931963
 11
60.7058384722
 21
88.1897155361
  0
LINE
  5
256
100
AcDbEntity
  8
0
100
AcDbLine
 62
7
  6
BYLAYER
 10
60.7058384722
 20
24.9897155361
 11
60.7058384722
 21
22.9274378759
  0
LINE
  5
257
100
AcDbEntity
  8
0
100
AcDbLine
 62
7
  6
BYLAYER
 10
59.7396499356
 20
51.1585257374
 11
59.6469363887
 21
50.5897155361
  0
LINE
  5
258
100
AcDbEntity
  8
0
100
AcDbLine
 62
7
  6
BYLAYER
 10
31.2229632704
 20
74.5824054603
 11
48.6887136741
 21
74.5824054603
  0
LINE
  5
259
100
AcDbEntity
  8
0
100
AcDbLine
 62
7
  6
BYLAYER
 10
59.6469363887
 20
62.5897155361
 11
59.7396499356
 21
62.0209053341
  0
LINE
  5
25A
100
AcDbEntity
  8
0
100
AcDbLine
 62
7
  6
BYLAYER
 10
62.2131850791
 20
53.2910312771
 11
62.2073587234
 21
53.2536833604
  0
LINE
  5
25B
100
AcDbEntity
  8
0
100
AcDbLine
 62
7
  6
BYLAYER
 10
62.2073587234
 20
53.2536833604
 11
62.1582489443
 21
52.9537987536
  0
LINE
  5
25C
100
AcDbEntity
  8
0
100
AcDbLine
 62
7
  6
BYLAYER
 10
62.1581977311
 20
60.2262549277
 11
62.2074080498
 21
59.9258085264
  0
LINE
  5
25D
100
AcDbEntity
  8
0
100
AcDbLine
 62
7
  6
BYLAYER
 10
62.2074080498
 20
59.9258085264
 11
62.2132432244
 21
59.8884082317
  0
LINE
  5
25E
100
AcDbEntity
  8
0
100
AcDbLine
 62
7
  6
BYLAYER
 10
66.9558384722
 20
26.5897155361
 11
66.9558384722
 21
27.5897155361
  0
LINE
  5
25F
100
AcDbEntity
  8
0
100
AcDbLine
 62
7
  6
BYLAYER
 10
66.9558384722
 20
85.5897155361
 11
66.9558384722
 21
86.5897155361
  0
LINE
  5
260
100
AcDbEntity
  8
0
100
AcDbLine
 62
7
  6
BYLAYER
 10
69.9558384722
 20
83.5897155361
 11
68.9558384722
 21
83.5897155361
  0
LINE
  5
261
100
AcDbEntity
  8
0
100
AcDbLine
 62
7
  6
BYLAYER
 10
10.9558384722
 20
83.5897155361
 11
9.9558384722
 21
83.5897155361
  0
LINE
  5
262
100
AcDbEntity
  8
0
100
AcDbLine
 62
7
  6
BYLAYER
 10
68.9558384722
 20
29.5897155361
 11
68.9558384722
 21
83.5897155361
  0
LINE
  5
263
100
AcDbEntity
  8
0
100
AcDbLine
 62
7
  6
BYLAYER
 10
69.9058384722
 20
15.0897155361
 11
69.9058384722
 21
28.1769416683
  0
LINE
  5
264
100
AcDbEntity
  8
0
100
AcDbLine
 62
7
  6
BYLAYER
 10
69.9058384722
 20
85.0024894039
 11
69.9058384722
 21
98.0897155361
  0
LINE
  5
265
100
AcDbEntity
  8
0
100
AcDbLine
 62
7
  6
BYLAYER
 10
69.9558384722
 20
83.5897155332
 11
69.9558384722
 21
29.5897155387
  0
LINE
  5
266
100
AcDbEntity
  8
0
100
AcDbLine
 62
7
  6
BYLAYER
 10
71.4558384722
 20
80.4897155361
 11
71.4558384722
 21
32.6897155361
  0
LINE
  5
267
100
AcDbEntity
  8
0
100
AcDbLine
 62
7
  6
BYLAYER
 10
66.9558384722
 20
85.5897155361
 11
12.9558384722
 21
85.5897155361
  0
LINE
  5
268
100
AcDbEntity
  8
0
100
AcDbLine
 62
7
  6
BYLAYER
 10
12.9558384752
 20
86.5897155361
 11
66.9558384696
 21
86.5897155361
  0
LINE
  5
269
100
AcDbEntity
  8
0
100
AcDbLine
 62
7
  6
BYLAYER
 10
16.0558384722
 20
88.0897155361
 11
63.8558384722
 21
88.0897155361
  0
LINE
  5
26A
100
AcDbEntity
  8
0
100
AcDbLine
 62
7
  6
BYLAYER
 10
69.9058384722
 20
96.5897155361
 11
10.0058384722
 21
96.5897155361
  0
LINE
  5
26B
100
AcDbEntity
  8
0
100
AcDbLine
 62
7
  6
BYLAYER
 10
10.0058384722
 20
98.0897155361
 11
69.9058384722
 21
98.0897155361
  0
ARC
  5
26C
100
AcDbEntity
  8
0
100
AcDbCircle
 62
7
  6
BYLAYER
 10
16.0558384722
 20
32.6897155361
 40
7.6
100
AcDbArc
 50
180.0
 51
270.0
  0
ARC
  5
26D
100
AcDbEntity
  8
0
100
AcDbCircle
 62
7
  6
BYLAYER
 10
19.9558384722
 20
26.0897155361
 40
4.25
100
AcDbArc
 50
199.2097088011
 51
340.5372295656
  0
ARC
  5
26E
100
AcDbEntity
  8
0
100
AcDbCircle
 62
7
  6
BYLAYER
 10
19.9558384722
 20
26.0897155361
 40
3.25
100
AcDbArc
 50
198.4615384615
 51
341.5384615385
  0
ARC
  5
26F
100
AcDbEntity
  8
0
100
AcDbCircle
 62
7
  6
BYLAYER
 10
12.9558384722
 20
29.5897155361
 40
3.0
100
AcDbArc
 50
179.9999999721
 51
270.0
  0
ARC
  5
270
100
AcDbEntity
  8
0
100
AcDbCircle
 62
7
  6
BYLAYER
 10
20.264112666
 20
53.0893931172
 40
2.4996575417
100
AcDbArc
 50
190.1127024446
 51
270.0143902696
  0
ARC
  5
271
100
AcDbEntity
  8
0
100
AcDbCircle
 62
7
  6
BYLAYER
 10
20.1703355669
 20
53.6579598635
 40
2.4990060318
100
AcDbArc
 50
189.3238202973
 51
270.0387762019
  0
ARC
  5
272
100
AcDbEntity
  8
0
100
AcDbCircle
 62
7
  6
BYLAYER
 10
12.9558384722
 20
29.5897155361
 40
2.0
100
AcDbArc
 50
180.0
 51
270.0
  0
ARC
  5
273
100
AcDbEntity
  8
0
100
AcDbCircle
 62
7
  6
BYLAYER
 10
20.1721685752
 20
53.6574972575
 40
0.500198967
100
AcDbArc
 50
188.4063537046
 51
269.9774360236
  0
ARC
  5
274
100
AcDbEntity
  8
0
100
AcDbCircle
 62
7
  6
BYLAYER
 10
24.7558384722
 20
54.8164790621
 40
0.5
100
AcDbArc
 50
242.0
 51
360.0
  0
ARC
  5
275
100
AcDbEntity
  8
0
100
AcDbCircle
 62
7
  6
BYLAYER
 10
21.4225833438
 20
56.588802252
 40
0.5
100
AcDbArc
 50
117.9018934881
 51
241.9999999996
  0
ARC
  5
276
100
AcDbEntity
  8
0
100
AcDbCircle
 62
7
  6
BYLAYER
 10
38.8058384722
 20
24.9897155361
 40
0.4
100
AcDbArc
 50
0.0
 51
16.2303832417
  0
ARC
  5
277
100
AcDbEntity
  8
0
100
AcDbCircle
 62
7
  6
BYLAYER
 10
18.8058384722
 20
24.9897155361
 40
0.4
100
AcDbArc
 50
0.0
 51
16.2303832417
  0
ARC
  5
278
100
AcDbEntity
  8
0
100
AcDbCircle
 62
7
  6
BYLAYER
 10
21.1058384722
 20
24.9897155361
 40
0.4
100
AcDbArc
 50
163.7696167583
 51
180.0
  0
ARC
  5
279
100
AcDbEntity
  8
0
100
AcDbCircle
 62
7
  6
BYLAYER
 10
16.0558384722
 20
80.4897155361
 40
7.6
100
AcDbArc
 50
90.0
 51
180.0
  0
ARC
  5
27A
100
AcDbEntity
  8
0
100
AcDbCircle
 62
7
  6
BYLAYER
 10
19.9558384722
 20
87.0897155361
 40
4.25
100
AcDbArc
 50
19.4195498784
 51
160.737211453
  0
ARC
  5
27B
100
AcDbEntity
  8
0
100
AcDbCircle
 62
7
  6
BYLAYER
 10
19.9558384722
 20
87.0897155361
 40
3.25
100
AcDbArc
 50
18.4615384615
 51
161.5384615385
  0
ARC
  5
27C
100
AcDbEntity
  8
0
100
AcDbCircle
 62
7
  6
BYLAYER
 10
12.9558384722
 20
83.5897155361
 40
3.0
100
AcDbArc
 50
89.9999999721
 51
180.0
  0
ARC
  5
27D
100
AcDbEntity
  8
0
100
AcDbCircle
 62
7
  6
BYLAYER
 10
20.2641125756
 20
60.0900376914
 40
2.4996577663
100
AcDbArc
 50
89.985607179
 51
169.8872912655
  0
ARC
  5
27E
100
AcDbEntity
  8
0
100
AcDbCircle
 62
7
  6
BYLAYER
 10
20.1704372456
 20
59.5214729461
 40
2.4990480995
100
AcDbArc
 50
89.9635545026
 51
170.6777107231
  0
ARC
  5
27F
100
AcDbEntity
  8
0
100
AcDbCircle
 62
7
  6
BYLAYER
 10
12.9558384722
 20
83.5897155361
 40
2.0
100
AcDbArc
 50
90.0
 51
180.0
  0
ARC
  5
280
100
AcDbEntity
  8
0
100
AcDbCircle
 62
7
  6
BYLAYER
 10
20.17218448
 20
59.5219155557
 40
0.5002204098
100
AcDbArc
 50
90.02587984
 51
171.5907085494
  0
ARC
  5
281
100
AcDbEntity
  8
0
100
AcDbCircle
 62
7
  6
BYLAYER
 10
24.7558384722
 20
58.3538110351
 40
0.5
100
AcDbArc
 50
0.0
 51
117.9018934882
  0
ARC
  5
282
100
AcDbEntity
  8
0
100
AcDbCircle
 62
7
  6
BYLAYER
 10
21.1058384722
 20
88.1897155361
 40
0.4
100
AcDbArc
 50
180.0
 51
196.2303832417
  0
ARC
  5
283
100
AcDbEntity
  8
0
100
AcDbCircle
 62
7
  6
BYLAYER
 10
18.8058384722
 20
88.1897155361
 40
0.4
100
AcDbArc
 50
343.7696167583
 51
360.0
  0
ARC
  5
284
100
AcDbEntity
  8
0
100
AcDbCircle
 62
7
  6
BYLAYER
 10
38.8058384722
 20
88.1897155361
 40
0.4
100
AcDbArc
 50
343.7696167583
 51
360.0
  0
ARC
  5
285
100
AcDbEntity
  8
0
100
AcDbCircle
 62
7
  6
BYLAYER
 10
63.8558384722
 20
32.6897155361
 40
7.6
100
AcDbArc
 50
270.0
 51
360.0
  0
ARC
  5
286
100
AcDbEntity
  8
0
100
AcDbCircle
 62
7
  6
BYLAYER
 10
59.9558384722
 20
26.0897155361
 40
4.25
100
AcDbArc
 50
199.4195498784
 51
340.737211453
  0
ARC
  5
287
100
AcDbEntity
  8
0
100
AcDbCircle
 62
7
  6
BYLAYER
 10
39.9558384722
 20
26.0897155361
 40
4.25
100
AcDbArc
 50
199.4195498784
 51
340.5198623053
  0
ARC
  5
288
100
AcDbEntity
  8
0
100
AcDbCircle
 62
7
  6
BYLAYER
 10
39.9558384722
 20
26.0897155361
 40
3.25
100
AcDbArc
 50
198.4615384615
 51
341.5384615385
  0
ARC
  5
289
100
AcDbEntity
  8
0
100
AcDbCircle
 62
7
  6
BYLAYER
 10
59.9558384722
 20
26.0897155361
 40
3.25
100
AcDbArc
 50
198.4615384615
 51
341.5384615385
  0
ARC
  5
28A
100
AcDbEntity
  8
0
100
AcDbCircle
 62
7
  6
BYLAYER
 10
66.9558384722
 20
29.5897155361
 40
3.0
100
AcDbArc
 50
269.9999999721
 51
360.0
  0
ARC
  5
28B
100
AcDbEntity
  8
0
100
AcDbCircle
 62
7
  6
BYLAYER
 10
59.6475642781
 20
53.0893931174
 40
2.4996575422
100
AcDbArc
 50
269.9856092537
 51
349.8872975755
  0
ARC
  5
28C
100
AcDbEntity
  8
0
100
AcDbCircle
 62
7
  6
BYLAYER
 10
59.741237981
 20
53.6579581147
 40
2.4990486362
100
AcDbArc
 50
269.9635938866
 51
350.6778191698
  0
ARC
  5
28D
100
AcDbEntity
  8
0
100
AcDbCircle
 62
7
  6
BYLAYER
 10
66.9558384722
 20
29.5897155361
 40
2.0
100
AcDbArc
 50
270.0
 51
360.0
  0
ARC
  5
28E
100
AcDbEntity
  8
0
100
AcDbCircle
 62
7
  6
BYLAYER
 10
59.7394924943
 20
53.6575154362
 40
0.5002204585
100
AcDbArc
 50
270.0259533359
 51
351.5906739023
  0
ARC
  5
28F
100
AcDbEntity
  8
0
100
AcDbCircle
 62
7
  6
BYLAYER
 10
41.1058384722
 20
24.9897155361
 40
0.4
100
AcDbArc
 50
163.7696167583
 51
180.0
  0
ARC
  5
290
100
AcDbEntity
  8
0
100
AcDbCircle
 62
7
  6
BYLAYER
 10
58.8058384722
 20
24.9897155361
 40
0.4
100
AcDbArc
 50
0.0
 51
16.2303832417
  0
ARC
  5
291
100
AcDbEntity
  8
0
100
AcDbCircle
 62
7
  6
BYLAYER
 10
61.1058384722
 20
24.9897155361
 40
0.4
100
AcDbArc
 50
163.7696167583
 51
180.0
  0
CIRCLE
  5
292
100
AcDbEntity
  8
0
100
AcDbCircle
 62
7
  6
BYLAYER
 10
39.9558384722
 20
56.5897155361
 40
22.5
  0
ARC
  5
293
100
AcDbEntity
  8
0
100
AcDbCircle
 62
7
  6
BYLAYER
 10
39.9558384722
 20
56.5897155361
 40
20.5
100
AcDbArc
 50
351.5698994189
 51
8.4300702066
  0
ARC
  5
294
100
AcDbEntity
  8
0
100
AcDbCircle
 62
7
  6
BYLAYER
 10
39.9558384722
 20
56.5897155361
 40
20.5
100
AcDbArc
 50
171.5699004743
 51
188.4300718264
  0
ARC
  5
295
100
AcDbEntity
  8
0
100
AcDbCircle
 62
7
  6
BYLAYER
 10
39.9558384722
 20
56.5897155361
 40
20.0
100
AcDbArc
 50
64.110064909
 51
115.889935091
  0
ARC
  5
296
100
AcDbEntity
  8
0
100
AcDbCircle
 62
7
  6
BYLAYER
 10
39.9558384722
 20
56.5897155361
 40
20.0
100
AcDbArc
 50
244.110064909
 51
295.889935091
  0
ARC
  5
297
100
AcDbEntity
  8
0
100
AcDbCircle
 62
7
  6
BYLAYER
 10
39.9558384722
 20
87.0897155361
 40
4.25
100
AcDbArc
 50
19.4195498784
 51
160.5198623053
  0
ARC
  5
298
100
AcDbEntity
  8
0
100
AcDbCircle
 62
7
  6
BYLAYER
 10
39.9558384722
 20
87.0897155361
 40
3.25
100
AcDbArc
 50
18.4615384615
 51
161.5384615385
  0
ARC
  5
299
100
AcDbEntity
  8
0
100
AcDbCircle
 62
7
  6
BYLAYER
 10
41.1058384722
 20
88.1897155361
 40
0.4
100
AcDbArc
 50
180.0
 51
196.2303832417
  0
ARC
  5
29A
100
AcDbEntity
  8
0
100
AcDbCircle
 62
7
  6
BYLAYER
 10
59.6475643556
 20
60.0900378156
 40
2.4996576546
100
AcDbArc
 50
10.1127059005
 51
90.0143920349
  0
ARC
  5
29B
100
AcDbEntity
  8
0
100
AcDbCircle
 62
7
  6
BYLAYER
 10
59.7414528367
 20
59.5216186938
 40
2.4988369732
100
AcDbArc
 50
9.323764329
 51
90.0413340901
  0
ARC
  5
29C
100
AcDbEntity
  8
0
100
AcDbCircle
 62
7
  6
BYLAYER
 10
56.6558384722
 20
56.5897155361
 40
1.9
100
AcDbArc
 50
270.0
 51
90.0
  0
ARC
  5
29D
100
AcDbEntity
  8
0
100
AcDbCircle
 62
7
  6
BYLAYER
 10
56.6558384722
 20
56.5897155361
 40
1.7
100
AcDbArc
 50
270.0
 51
90.0
  0
ARC
  5
29E
100
AcDbEntity
  8
0
100
AcDbCircle
 62
7
  6
BYLAYER
 10
59.7395083115
 20
59.5219337294
 40
0.5001989183
100
AcDbArc
 50
8.4062960108
 51
89.9775001483
  0
ARC
  5
29F
100
AcDbEntity
  8
0
100
AcDbCircle
 62
7
  6
BYLAYER
 10
63.8558384722
 20
80.4897155361
 40
7.6
100
AcDbArc
 50
0.0
 51
90.0
  0
ARC
  5
2A0
100
AcDbEntity
  8
0
100
AcDbCircle
 62
7
  6
BYLAYER
 10
59.9558384722
 20
87.0897155361
 40
4.25
100
AcDbArc
 50
19.2097088011
 51
160.5372295656
  0
ARC
  5
2A1
100
AcDbEntity
  8
0
100
AcDbCircle
 62
7
  6
BYLAYER
 10
59.9558384722
 20
87.0897155361
 40
3.25
100
AcDbArc
 50
18.4615384615
 51
161.5384615385
  0
ARC
  5
2A2
100
AcDbEntity
  8
0
100
AcDbCircle
 62
7
  6
BYLAYER
 10
66.9558384722
 20
83.5897155361
 40
3.0
100
AcDbArc
 50
0.0
 51
90.0
  0
ARC
  5
2A3
100
AcDbEntity
  8
0
100
AcDbCircle
 62
7
  6
BYLAYER
 10
66.9558384722
 20
83.5897155361
 40
2.0
100
AcDbArc
 50
0.0
 51
90.0
  0
ARC
  5
2A4
100
AcDbEntity
  8
0
100
AcDbCircle
 62
7
  6
BYLAYER
 10
58.8058384722
 20
88.1897155361
 40
0.4
100
AcDbArc
 50
343.7696167583
 51
360.0
  0
ARC
  5
2A5
100
AcDbEntity
  8
0
100
AcDbCircle
 62
7
  6
BYLAYER
 10
61.1058384722
 20
88.1897155361
 40
0.4
100
AcDbArc
 50
180.0
 51
196.2303832417
  0
SPLINE
  5
2A6
100
AcDbEntity
  8
0
100
AcDbSpline
 62
7
  6
BYLAYER
 70
0
 71
3
 72
17
 73
13
 74
0
 42
0.0000001
 43
0.0000001
 44
0.0000000001
 40
0.0
 40
0.0
 40
0.0
 40
0.0
 40
0.0920421214
 40
0.1935563183
 40
0.2560625101
 40
0.3251096822
 40
0.3996751919
 40
0.478653033
 40
0.5610193347
 40
0.6459494207
 40
0.8208111997
 40
1.0
 40
1.0
 40
1.0
 40
1.0
 10
20.2647405328
 20
62.5897155361
 30
0.0
 10
20.3736660874
 20
63.0966316917
 30
0.0
 10
20.662337195
 20
64.1506420044
 30
0.0
 10
21.2001808297
 20
65.4927976938
 30
0.0
 10
21.8004876593
 20
66.6614487549
 30
0.0
 10
22.4036529099
 20
67.654903399
 30
0.0
 10
23.1362661718
 20
68.6740496529
 30
0.0
 10
23.9934481293
 20
69.6913420438
 30
0.0
 10
24.9705204899
 20
70.6783062614
 30
0.0
 10
26.429735987
 20
71.9401211534
 30
0.0
 10
28.4840881233
 20
73.3343078002
 30
0.0
 10
30.286304477
 20
74.2061700508
 30
0.0
 10
31.2229632619
 20
74.5824054816
 30
0.0
  0
SPLINE
  5
2A7
100
AcDbEntity
  8
0
100
AcDbSpline
 62
7
  6
BYLAYER
 70
0
 71
3
 72
17
 73
13
 74
0
 42
0.0000001
 43
0.0000001
 44
0.0000000001
 40
0.0
 40
0.0
 40
0.0
 40
0.0
 40
0.1791796823
 40
0.354037453
 40
0.4389654917
 40
0.5213301519
 40
0.6003080368
 40
0.6748744551
 40
0.7439224804
 40
0.8064300242
 40
0.9079489843
 40
1.0
 40
1.0
 40
1.0
 40
1.0
 10
48.688713884
 20
74.582405983
 30
0.0
 10
49.6253253684
 20
74.206190298
 30
0.0
 10
51.4274754694
 20
73.334362962
 30
0.0
 10
53.4817717698
 20
71.9402482854
 30
0.0
 10
54.9409740736
 20
70.678483995
 30
0.0
 10
55.9180437782
 20
69.6915458513
 30
0.0
 10
56.7752391715
 20
68.6742698938
 30
0.0
 10
57.5078782464
 20
67.6551296048
 30
0.0
 10
58.1110710965
 20
66.6616707051
 30
0.0
 10
58.7114092092
 20
65.4929917987
 30
0.0
 10
59.2493104103
 20
64.1507658782
 30
0.0
 10
59.5379848451
 20
63.0966772913
 30
0.0
 10
59.6469369533
 20
62.5897155363
 30
0.0
  0
SPLINE
  5
2A8
100
AcDbEntity
  8
0
100
AcDbSpline
 62
7
  6
BYLAYER
 70
0
 71
3
 72
17
 73
13
 74
0
 42
0.0000001
 43
0.0000001
 44
0.0000000001
 40
0.0
 40
0.0
 40
0.0
 40
0.0
 40
0.0920409377
 40
0.1935523444
 40
0.2560574121
 40
0.3251041756
 40
0.3996701427
 40
0.4786488131
 40
0.561015781
 40
0.645946259
 40
0.8208088508
 40
1.0
 40
1.0
 40
1.0
 40
1.0
 10
59.6469367969
 20
50.589715536
 30
0.0
 10
59.5380136969
 20
50.0828056487
 30
0.0
 10
59.2493469455
 20
49.028817348
 30
0.0
 10
58.7115202768
 20
47.6866861899
 30
0.0
 10
58.1112308128
 20
46.5180534934
 30
0.0
 10
57.5080740935
 20
45.524600701
 30
0.0
 10
56.7754628834
 20
44.5054467969
 30
0.0
 10
55.9182789301
 20
43.4881415681
 30
0.0
 10
54.9412022727
 20
42.5011664692
 30
0.0
 10
53.4819826466
 20
41.2393401033
 30
0.0
 10
51.4276171061
 20
39.8451369256
 30
0.0
 10
49.6253848482
 20
38.9732658212
 30
0.0
 10
48.6887138259
 20
38.5970252339
 30
0.0
  0
SPLINE
  5
2A9
100
AcDbEntity
  8
0
100
AcDbSpline
 62
7
  6
BYLAYER
 70
0
 71
3
 72
17
 73
13
 74
0
 42
0.0000001
 43
0.0000001
 44
0.0000000001
 40
0.0
 40
0.0
 40
0.0
 40
0.0
 40
0.1791795479
 40
0.3540371016
 40
0.4389650286
 40
0.5213299752
 40
0.6003086213
 40
0.6748757381
 40
0.7439238657
 40
0.8064310594
 40
0.9079490663
 40
1.0
 40
1.0
 40
1.0
 40
1.0
 10
31.2229628456
 20
38.5970245543
 30
0.0
 10
30.2863522418
 20
38.9732403744
 30
0.0
 10
28.4842026647
 20
39.8450643035
 30
0.0
 10
26.4299102656
 20
41.2391803009
 30
0.0
 10
24.9707082423
 20
42.5009443912
 30
0.0
 10
23.993634566
 20
43.4878860629
 30
0.0
 10
23.1364336974
 20
44.5051702776
 30
0.0
 10
22.4037894664
 20
45.524317655
 30
0.0
 10
21.8005950593
 20
46.5177785956
 30
0.0
 10
21.2002609833
 20
47.6864519625
 30
0.0
 10
20.6623646347
 20
49.0286715156
 30
0.0
 10
20.3736937028
 20
50.0827547274
 30
0.0
 10
20.2647394134
 20
50.5897155358
 30
0.0
  0
ENDSEC
  0
SECTION
  2
OBJECTS
  0
DICTIONARY
  5
C
100
AcDbDictionary
280
0
281
1
  3
ACAD_GROUP
350
D
  3
ACAD_MLINESTYLE
350
17
  3
ACAD_LAYOUT
350
1A
  3
ACAD_PLOTSETTINGS
350
19
  3
ACAD_PLOTSTYLENAME
350
E
  0
DICTIONARY
  5
D
102
{ACAD_REACTORS
330
C
102
}
100
AcDbDictionary
280
0
281
1
  0
ACDBDICTIONARYWDFLT
  5
E
102
{ACAD_REACTORS
330
C
102
}
100
AcDbDictionary
281
1
  3
Normal
350
F
100
AcDbDictionaryWithDefault
340
F
  0
DICTIONARY
  5
17
102
{ACAD_REACTORS
330
C
102
}
100
AcDbDictionary
280
0
281
1
  3
Standard
350
18
  0
DICTIONARY
  5
19
102
{ACAD_REACTORS
330
C
102
}
100
AcDbDictionary
281
1
  0
DICTIONARY
  5
1A
102
{ACAD_REACTORS
330
C
102
}
100
AcDbDictionary
281
1
  3
Model
350
2AA
  3
Layout1
350
2AB
  0
ACDBPLACEHOLDER
  5
F
102
{ACAD_REACTORS
330
E
102
}
  0
MLINESTYLE
  5
18
102
{ACAD_REACTORS
330
17
102
}
100
AcDbMlineStyle
  2
STANDARD
 70
0
  3

 62
256
 51
90.0
 52
90.0
 71
2
 49
0.5
 62
256
  6
BYLAYER
 49
-0.5
 62
256
  6
BYLAYER
  0
LAYOUT
  5
2AA
102
{ACAD_REACTORS
330
1A
102
}
100
AcDbPlotSettings
  1

  2
none_device
  4

  6

 40
0.0
 41
0.0
 42
0.0
 43
0.0
 44
210.0
 45
297.0
 46
0.0
 47
0.0
 48
0.0
 49
0.0
140
0.0
141
0.0
142
1.0
143
1.0
 70
1024
 72
1
 73
0
 74
0
  7

 75
0
147
1.0
148
0.0
149
0.0
100
AcDbLayout
  1
Model
 70
0
 71
0
 10
0.0
 20
0.0
 11
210.0
 21
297.0
 12
0.0
 22
0.0
 32
0.0
 14
0.0
 24
0.0
 34
0.0
 15
0.0
 25
0.0
 35
0.0
146
0.0
 13
0.0
 23
0.0
 33
0.0
 16
1.0
 26
0.0
 36
0.0
 17
0.0
 27
1.0
 37
0.0
 76
0
330
210
345
0
346
0
  0
LAYOUT
  5
2AB
102
{ACAD_REACTORS
330
1A
102
}
100
AcDbPlotSettings
  1

  2
none_device
  4

  6

 40
0.0
 41
0.0
 42
0.0
 43
0.0
 44
210.0
 45
297.0
 46
0.0
 47
0.0
 48
0.0
 49
0.0
140
0.0
141
0.0
142
1.0
143
1.0
 70
0
 72
1
 73
0
 74
0
  7

 75
0
147
1.0
148
0.0
149
0.0
100
AcDbLayout
  1
Layout1
 70
0
 71
1
 10
0.0
 20
0.0
 11
210.0
 21
297.0
 12
0.0
 22
0.0
 32
0.0
 14
0.0
 24
0.0
 34
0.0
 15
0.0
 25
0.0
 35
0.0
146
0.0
 13
0.0
 23
0.0
 33
0.0
 16
1.0
 26
0.0
 36
0.0
 17
0.0
 27
1.0
 37
0.0
 76
0
330
211
345
0
346
0
  0
ENDSEC
  0
EOF
