999
DXF file: C:\Users\sesa63760\Dev\_Creo\CAD\MCADID0002109_3D-CAD\drw0001_7.dxf
999
Pro/ENGINEER 2019471 by Parametric Technology Corporation
  0
SECTION
  2
HEADER
  9
$ACADVER
  1
AC1024
  9
$DWGCODEPAGE
  3
ANSI_1252
  9
$EXTMAX
 10
67.4177825386
 20
95.3480067331
 30
0.0
  9
$EXTMIN
 10
0.0
 20
0.0
 30
0.0
  9
$LIMMIN
 10
0.0
 20
0.0
  9
$LIMMAX
 10
67.4177825386
 20
95.3480067331
  9
$VIEWCTR
 10
33.7088912693
 20
47.6740033666
  9
$VIEWSIZE
 40
95.3480067331
  9
$CLAYER
  8
0
  9
$LTSCALE
 40
6.2152774759
  9
$CELTYPE
  6
BYLAYER
  9
$DIMSCALE
 40
1.0
  9
$DIMASZ
 40
0.8025926493
  9
$DIMEXO
 40
1.0
  9
$DIMDLI
 40
4.2941917106
  9
$DIMEXE
 40
1.0
  9
$DIMCEN
 40
1.0170454052
  9
$DIMLFAC
 40
1.0
  9
$DIMBLK
  1
_FILLED
  9
$DIMALT
 70
0
  9
$DIMALTF
 40
0.0393700787
  9
$DIMTXT
 40
1.123629709
  9
$DIMTOL
 70
1
  9
$DIMLIM
 70
0
  9
$DIMTFAC
 40
1.0
  9
$DIMTP
 40
0.01
  9
$DIMTM
 40
0.01
  9
$DIMGAP
 40
0.625
  9
$DIMDSEP
 70
46
  9
$AUNITS
 70
0
  9
$PDMODE
 70
3
  9
$PDSIZE
 40
0.3125
  9
$HANDSEED
  5
2C6
  9
$TILEMODE
 70
1
  9
$MEASUREMENT
 70
1
  9
$INSUNITS
 70
4
  0
ENDSEC
  0
SECTION
  2
CLASSES
  0
CLASS
  1
ACDBDICTIONARYWDFLT
  2
AcDbDictionaryWithDefault
  3
AutoCAD 2000
 90
0
 91
1
280
0
281
0
  0
CLASS
  1
ACDBPLACEHOLDER
  2
AcDbPlaceHolder
  3
AutoCAD 2000
 90
0
 91
1
280
0
281
0
  0
CLASS
  1
LAYOUT
  2
AcDbLayout
  3
AutoCAD 2000
 90
0
 91
0
280
0
281
0
  0
ENDSEC
  0
SECTION
  2
TABLES
  0
TABLE
  2
VPORT
  5
8
100
AcDbSymbolTable
 70
2
  0
VPORT
  5
1F4
100
AcDbSymbolTableRecord
100
AcDbViewportTableRecord
  2
*ACTIVE
 70
0
 10
0.0
 20
0.0
 11
1.0
 21
1.0
 12
33.7088912693
 22
47.6740033666
 13
0.0
 23
0.0
 14
1.0
 24
1.0
 15
0.0
 25
0.0
 16
0.0
 26
0.0
 36
1.0
 17
0.0
 27
0.0
 37
0.0
 40
95.3480067331
 41
0.7070707071
 42
50.0
 43
0.0
 44
0.0
 50
0.0
 51
0.0
 71
0
 72
100
 73
1
 74
1
 75
0
 76
0
 77
0
 78
0
  0
ENDTAB
  0
TABLE
  2
LTYPE
  5
5
100
AcDbSymbolTable
 70
6
  0
LTYPE
  5
14
100
AcDbSymbolTableRecord
100
AcDbLinetypeTableRecord
  2
BYBLOCK
 70
0
  3

 72
65
 73
0
 40
0.0
  0
LTYPE
  5
15
100
AcDbSymbolTableRecord
100
AcDbLinetypeTableRecord
  2
BYLAYER
 70
0
  3

 72
65
 73
0
 40
0.0
  0
LTYPE
  5
16
100
AcDbSymbolTableRecord
100
AcDbLinetypeTableRecord
  2
CONTINUOUS
 70
64
  3
Solid line
 72
65
 73
0
 40
0.0
  0
LTYPE
  5
1F5
100
AcDbSymbolTableRecord
100
AcDbLinetypeTableRecord
  2
CENTER
 70
64
  3
____ _ ____ _ ____ _ ____ _ ____ _ ____ _ ____
 72
65
 73
4
 40
0.6
 49
0.375
 74
0
 49
-0.075
 74
0
 49
0.075
 74
0
 49
-0.075
 74
0
  0
LTYPE
  5
1F6
100
AcDbSymbolTableRecord
100
AcDbLinetypeTableRecord
  2
HIDDEN
 70
64
  3
- - - - - - - - - - - - - - - - - - - -
 72
65
 73
2
 40
0.2
 49
0.1
 74
0
 49
-0.1
 74
0
  0
LTYPE
  5
1F7
100
AcDbSymbolTableRecord
100
AcDbLinetypeTableRecord
  2
PHANTOM
 70
64
  3
_____ _ _ _____ _ _ _____ _ _ _____
 72
65
 73
6
 40
0.8
 49
0.45
 74
0
 49
-0.05
 74
0
 49
0.1
 74
0
 49
-0.05
 74
0
 49
0.1
 74
0
 49
-0.05
 74
0
  0
LTYPE
  5
1F8
100
AcDbSymbolTableRecord
100
AcDbLinetypeTableRecord
  2
DOT
 70
64
  3
. . . . . . . . . . . . . . . . . . . .
 72
65
 73
2
 40
0.2
 49
0.1
 74
0
 49
-0.1
 74
0
  0
LTYPE
  5
1F9
100
AcDbSymbolTableRecord
100
AcDbLinetypeTableRecord
  2
DASHED
 70
64
  3
- - - - - - - - - - - - - - - - - - - -
 72
65
 73
2
 40
0.2
 49
0.1
 74
0
 49
-0.1
 74
0
  0
ENDTAB
  0
TABLE
  2
LAYER
  5
2
100
AcDbSymbolTable
 70
36
  0
LAYER
  5
10
100
AcDbSymbolTableRecord
100
AcDbLayerTableRecord
  2
0
 70
0
 62
7
  6
CONTINUOUS
370
-3
390
F
  0
LAYER
  5
1FA
100
AcDbSymbolTableRecord
100
AcDbLayerTableRecord
  2
DEFAULT_1
 70
0
 62
7
  6
CENTER
370
-3
390
F
  0
LAYER
  5
1FB
100
AcDbSymbolTableRecord
100
AcDbLayerTableRecord
  2
DEFAULT_2
 70
0
 62
8
  6
HIDDEN
370
-3
390
F
  0
LAYER
  5
1FC
100
AcDbSymbolTableRecord
100
AcDbLayerTableRecord
  2
DEFAULT_3
 70
0
 62
7
  6
PHANTOM
370
-3
390
F
  0
LAYER
  5
1FD
100
AcDbSymbolTableRecord
100
AcDbLayerTableRecord
  2
00_COMPONENTS
 70
0
 62
7
  6
CONTINUOUS
370
-3
390
F
  0
LAYER
  5
1FE
100
AcDbSymbolTableRecord
100
AcDbLayerTableRecord
  2
01_1_DEFAULT_DATUMS
 70
0
 62
7
  6
CONTINUOUS
370
-3
390
F
  0
LAYER
  5
1FF
100
AcDbSymbolTableRecord
100
AcDbLayerTableRecord
  2
01_PLANES
 70
0
 62
7
  6
CONTINUOUS
370
-3
390
F
  0
LAYER
  5
200
100
AcDbSymbolTableRecord
100
AcDbLayerTableRecord
  2
02_COORD_SYS
 70
0
 62
7
  6
CONTINUOUS
370
-3
390
F
  0
LAYER
  5
201
100
AcDbSymbolTableRecord
100
AcDbLayerTableRecord
  2
03_AXES
 70
0
 62
7
  6
CONTINUOUS
370
-3
390
F
  0
LAYER
  5
202
100
AcDbSymbolTableRecord
100
AcDbLayerTableRecord
  2
04_POINTS
 70
0
 62
7
  6
CONTINUOUS
370
-3
390
F
  0
LAYER
  5
203
100
AcDbSymbolTableRecord
100
AcDbLayerTableRecord
  2
05_CURVES
 70
0
 62
7
  6
CONTINUOUS
370
-3
390
F
  0
LAYER
  5
204
100
AcDbSymbolTableRecord
100
AcDbLayerTableRecord
  2
06_SURFS
 70
0
 62
7
  6
CONTINUOUS
370
-3
390
F
  0
LAYER
  5
205
100
AcDbSymbolTableRecord
100
AcDbLayerTableRecord
  2
07_COSMETICS
 70
0
 62
7
  6
CONTINUOUS
370
-3
390
F
  0
LAYER
  5
206
100
AcDbSymbolTableRecord
100
AcDbLayerTableRecord
  2
10_NOTES
 70
0
 62
7
  6
CONTINUOUS
370
-3
390
F
  0
LAYER
  5
207
100
AcDbSymbolTableRecord
100
AcDbLayerTableRecord
  2
11_NOTES_PUB
 70
0
 62
7
  6
CONTINUOUS
370
-3
390
F
  0
LAYER
  5
208
100
AcDbSymbolTableRecord
100
AcDbLayerTableRecord
  2
13_REF_GTOL
 70
0
 62
7
  6
CONTINUOUS
370
-3
390
F
  0
LAYER
  5
209
100
AcDbSymbolTableRecord
100
AcDbLayerTableRecord
  2
16_MISC
 70
0
 62
7
  6
CONTINUOUS
370
-3
390
F
  0
LAYER
  5
20A
100
AcDbSymbolTableRecord
100
AcDbLayerTableRecord
  2
17_NO_PRINT
 70
0
 62
7
  6
CONTINUOUS
370
-3
390
F
  0
LAYER
  5
20B
100
AcDbSymbolTableRecord
100
AcDbLayerTableRecord
  2
18_DATUM_CAMS_JOINTS
 70
0
 62
7
  6
CONTINUOUS
370
-3
390
F
  0
LAYER
  5
20C
100
AcDbSymbolTableRecord
100
AcDbLayerTableRecord
  2
19_DATUM_FUNCTIONAL
 70
0
 62
7
  6
CONTINUOUS
370
-3
390
F
  0
LAYER
  5
20D
100
AcDbSymbolTableRecord
100
AcDbLayerTableRecord
  2
20_DATUM_KINEMATIC_SCHEME
 70
0
 62
7
  6
CONTINUOUS
370
-3
390
F
  0
ENDTAB
  0
TABLE
  2
STYLE
  5
3
100
AcDbSymbolTable
 70
1
  0
STYLE
  5
11
100
AcDbSymbolTableRecord
100
AcDbTextStyleTableRecord
  2
STANDARD
 70
0
 40
0.0
 41
0.8
 50
0.0
 71
0
 42
0.2
  3
txt
  4

  0
STYLE
  5
20E
100
AcDbSymbolTableRecord
100
AcDbTextStyleTableRecord
  2
TEXTSTYLE_1
 70
0
 40
0.0
 41
0.8
 50
0.0
 71
0
 42
0.2
  3
gdt
  4

  0
ENDTAB
  0
TABLE
  2
VIEW
  5
6
100
AcDbSymbolTable
 70
0
  0
ENDTAB
  0
TABLE
  2
UCS
  5
7
100
AcDbSymbolTable
 70
0
  0
ENDTAB
  0
TABLE
  2
APPID
  5
9
100
AcDbSymbolTable
 70
1
  0
APPID
  5
20F
100
AcDbSymbolTableRecord
100
AcDbRegAppTableRecord
  2
ACAD
 70
0
  0
ENDTAB
  0
TABLE
  2
BLOCK_RECORD
  5
1
100
AcDbSymbolTable
 70
0
  0
BLOCK_RECORD
  5
210
100
AcDbSymbolTableRecord
100
AcDbBlockTableRecord
  2
*Model_Space
  0
BLOCK_RECORD
  5
211
100
AcDbSymbolTableRecord
100
AcDbBlockTableRecord
  2
*Paper_Space
  0
BLOCK_RECORD
  5
212
100
AcDbSymbolTableRecord
100
AcDbBlockTableRecord
  2
_FILLED
  0
ENDTAB
  0
TABLE
  2
DIMSTYLE
  5
A
100
AcDbSymbolTable
 70
1
100
AcDbDimStyleTable
 71
0
  0
DIMSTYLE
105
213
100
AcDbSymbolTableRecord
100
AcDbDimStyleTableRecord
  2
STANDARD
 70
0
  3

  4

 40
1.0
 41
0.8025926493
 42
1.0
 43
0.38
 44
1.0
 45
0.0
 46
0.0
 47
0.01
 48
0.01
140
1.123629709
141
0.09
142
0.0
143
25.4
144
1.0
145
0.0
146
1.0
147
0.625
 71
1
 72
0
 73
0
 74
0
 75
0
 76
0
 77
1
 78
8
 79
2
170
0
171
1
172
0
173
0
174
0
175
0
176
0
177
0
178
0
270
2
179
2
271
2
272
2
273
2
274
2
275
0
280
0
281
0
282
0
283
1
284
8
285
0
286
0
287
3
288
0
340
11
278
46
341
212
342
212
343
212
344
212
  0
ENDTAB
  0
ENDSEC
  0
SECTION
  2
BLOCKS
  0
BLOCK
  5
20
100
AcDbEntity
  8
0
100
AcDbBlockBegin
  2
*Model_Space
 70
0
 10
0.0
 20
0.0
 30
0.0
  3
*Model_Space
  1

  0
ENDBLK
  5
21
100
AcDbEntity
  8
0
100
AcDbBlockEnd
  0
BLOCK
  5
1C
100
AcDbEntity
  8
0
100
AcDbBlockBegin
  2
*Paper_Space
 70
0
 10
0.0
 20
0.0
 30
0.0
  3
*Paper_Space
  1

  0
ENDBLK
  5
1D
100
AcDbEntity
  8
0
100
AcDbBlockEnd
  0
BLOCK
  5
214
100
AcDbEntity
  8
0
100
AcDbBlockBegin
  2
_FILLED
 70
64
 10
0.0
 20
0.0
  3
_FILLED
  1

  0
SOLID
  5
215
100
AcDbEntity
  8
0
  6
BYBLOCK
 62
0
100
AcDbTrace
 10
0.0
 20
0.0
 11
-1.0
 21
0.25
 12
-1.0
 22
-0.25
 13
-1.0
 23
-0.25
  0
ENDBLK
  5
216
100
AcDbEntity
  8
0
  6
BYBLOCK
 62
0
100
AcDbBlockEnd
  0
ENDSEC
  0
SECTION
  2
ENTITIES
  0
LINE
  5
217
100
AcDbEntity
  8
0
100
AcDbLine
 62
7
  6
CONTINUOUS
 10
36.342877843
 20
7.0342283415
 11
37.6072999006
 21
7.0606541094
  0
LINE
  5
218
100
AcDbEntity
  8
0
100
AcDbLine
 62
7
  6
CONTINUOUS
 10
36.3428778439
 20
7.0341755552
 11
31.3083147155
 21
7.0341755552
  0
LINE
  5
219
100
AcDbEntity
  8
0
100
AcDbLine
 62
7
  6
CONTINUOUS
 10
25.554149588
 20
9.0000619577
 11
20.5195864596
 21
9.0000619577
  0
LINE
  5
21A
100
AcDbEntity
  8
0
100
AcDbLine
 62
7
  6
CONTINUOUS
 10
45.1704726975
 20
22.7669061268
 11
46.325610464
 21
23.0341766478
  0
LINE
  5
21B
100
AcDbEntity
  8
0
100
AcDbLine
 62
7
  6
CONTINUOUS
 10
20.9255772963
 20
23.3341727302
 11
19.5755764777
 21
23.8341730475
  0
LINE
  5
21C
100
AcDbEntity
  8
0
100
AcDbLine
 62
7
  6
CONTINUOUS
 10
45.1703265936
 20
22.7669025527
 11
33.8255943564
 21
22.7669025527
  0
LINE
  5
21D
100
AcDbEntity
  8
0
100
AcDbLine
 62
7
  6
CONTINUOUS
 10
47.4701185472
 20
23.0341727301
 11
20.233988425
 21
23.0341727301
  0
LINE
  5
21E
100
AcDbEntity
  8
0
100
AcDbLine
 62
7
  6
CONTINUOUS
 10
46.7256043012
 20
23.3341727302
 11
20.9255844116
 21
23.3341727302
  0
LINE
  5
21F
100
AcDbEntity
  8
0
100
AcDbLine
 62
7
  6
CONTINUOUS
 10
48.0756122351
 20
23.8341730475
 11
19.5755764777
 21
23.8341730475
  0
LINE
  5
220
100
AcDbEntity
  8
0
100
AcDbLine
 62
7
  6
CONTINUOUS
 10
19.5755843646
 20
30.6341741924
 11
48.0756043481
 21
30.6341741924
  0
LINE
  5
221
100
AcDbEntity
  8
0
100
AcDbLine
 62
7
  6
CONTINUOUS
 10
18.8755962959
 20
43.9541727301
 11
18.8755962959
 21
53.7541727301
  0
LINE
  5
222
100
AcDbEntity
  8
0
100
AcDbLine
 62
7
  6
CONTINUOUS
 10
19.1605962959
 20
43.9541727301
 11
19.1605962959
 21
37.9541727301
  0
LINE
  5
223
100
AcDbEntity
  8
0
100
AcDbLine
 62
7
  6
CONTINUOUS
 10
19.1755962959
 20
53.7541727301
 11
19.1755962959
 21
88.7541727301
  0
LINE
  5
224
100
AcDbEntity
  8
0
100
AcDbLine
 62
7
  6
CONTINUOUS
 10
19.5755764777
 20
30.6341741924
 11
19.5755764777
 21
23.8341730475
  0
LINE
  5
225
100
AcDbEntity
  8
0
100
AcDbLine
 62
7
  6
CONTINUOUS
 10
20.2505874881
 20
31.8841741924
 11
47.4006012247
 21
31.8841741924
  0
LINE
  5
226
100
AcDbEntity
  8
0
100
AcDbLine
 62
7
  6
CONTINUOUS
 10
20.5195864596
 20
9.0000619577
 11
20.233988425
 21
23.0341727301
  0
LINE
  5
227
100
AcDbEntity
  8
0
100
AcDbLine
 62
7
  6
CONTINUOUS
 10
20.2505799948
 20
31.8841741924
 11
20.2505799948
 21
30.6341741924
  0
LINE
  5
228
100
AcDbEntity
  8
0
100
AcDbLine
 62
7
  6
CONTINUOUS
 10
20.2755962959
 20
88.7541727301
 11
20.2755962959
 21
82.9493010251
  0
LINE
  5
229
100
AcDbEntity
  8
0
100
AcDbLine
 62
7
  6
CONTINUOUS
 10
20.2755962959
 20
53.7541727301
 11
20.2755962959
 21
54.7541727301
  0
LINE
  5
22A
100
AcDbEntity
  8
0
100
AcDbLine
 62
7
  6
CONTINUOUS
 10
20.2755962959
 20
73.8389730247
 11
20.2755962959
 21
80.888622025
  0
LINE
  5
22B
100
AcDbEntity
  8
0
100
AcDbLine
 62
7
  6
CONTINUOUS
 10
21.2755962959
 20
48.3373714156
 11
21.2755962959
 21
46.6309352862
  0
LINE
  5
22C
100
AcDbEntity
  8
0
100
AcDbLine
 62
7
  6
CONTINUOUS
 10
21.325577296
 20
23.3341727302
 11
21.325577296
 21
23.0341768795
  0
LINE
  5
22D
100
AcDbEntity
  8
0
100
AcDbLine
 62
7
  6
CONTINUOUS
 10
21.7005962959
 20
37.7541714156
 11
21.7005962959
 21
37.9541727301
  0
LINE
  5
22E
100
AcDbEntity
  8
0
100
AcDbLine
 62
7
  6
CONTINUOUS
 10
21.7005962959
 20
43.9541727301
 11
21.7005962959
 21
46.6309352862
  0
LINE
  5
22F
100
AcDbEntity
  8
0
100
AcDbLine
 62
7
  6
CONTINUOUS
 10
21.7255962959
 20
47.9541727301
 11
21.7255962959
 21
48.3373714156
  0
LINE
  5
230
100
AcDbEntity
  8
0
100
AcDbLine
 62
7
  6
CONTINUOUS
 10
21.7255962959
 20
53.7541727301
 11
21.7255962959
 21
53.9717856396
  0
LINE
  5
231
100
AcDbEntity
  8
0
100
AcDbLine
 62
7
  6
CONTINUOUS
 10
44.7006084354
 20
34.5328367285
 11
35.8255962959
 21
34.5328367285
  0
LINE
  5
232
100
AcDbEntity
  8
0
100
AcDbLine
 62
7
  6
CONTINUOUS
 10
31.8255962959
 20
34.5328367285
 11
22.9505802774
 21
34.5328367285
  0
LINE
  5
233
100
AcDbEntity
  8
0
100
AcDbLine
 62
7
  6
CONTINUOUS
 10
44.9253997363
 20
34.8341741924
 11
35.8255962959
 21
34.8341741924
  0
LINE
  5
234
100
AcDbEntity
  8
0
100
AcDbLine
 62
7
  6
CONTINUOUS
 10
31.8255962959
 20
34.8341741924
 11
22.7257889765
 21
34.8341741924
  0
LINE
  5
235
100
AcDbEntity
  8
0
100
AcDbLine
 62
7
  6
CONTINUOUS
 10
25.2685515534
 20
23.0341727301
 11
25.554149588
 21
9.0000619577
  0
LINE
  5
236
100
AcDbEntity
  8
0
100
AcDbLine
 62
7
  6
CONTINUOUS
 10
22.7256443564
 20
37.7541714156
 11
22.7256443564
 21
34.8341741924
  0
LINE
  5
237
100
AcDbEntity
  8
0
100
AcDbLine
 62
7
  6
CONTINUOUS
 10
22.9505802774
 20
34.5328367285
 11
22.9505802774
 21
31.8841741924
  0
LINE
  5
238
100
AcDbEntity
  8
0
100
AcDbLine
 62
7
  6
CONTINUOUS
 10
22.9605962959
 20
37.9541727301
 11
22.9605962959
 21
43.9541727301
  0
LINE
  5
239
100
AcDbEntity
  8
0
100
AcDbLine
 62
7
  6
CONTINUOUS
 10
25.1755962959
 20
49.3746169061
 11
25.1755962959
 21
53.7541727301
  0
LINE
  5
23A
100
AcDbEntity
  8
0
100
AcDbLine
 62
7
  6
CONTINUOUS
 10
25.2880814586
 20
46.6309352862
 11
25.2880814586
 21
43.9541727301
  0
LINE
  5
23B
100
AcDbEntity
  8
0
100
AcDbLine
 62
7
  6
CONTINUOUS
 10
25.2880814586
 20
37.9541727301
 11
25.2880814586
 21
37.7541714156
  0
LINE
  5
23C
100
AcDbEntity
  8
0
100
AcDbLine
 62
7
  6
CONTINUOUS
 10
21.7005962959
 20
37.7541714156
 11
31.8255962959
 21
37.7541714156
  0
LINE
  5
23D
100
AcDbEntity
  8
0
100
AcDbLine
 62
7
  6
CONTINUOUS
 10
35.8255962959
 20
37.7541714156
 11
45.9505962959
 21
37.7541714156
  0
LINE
  5
23E
100
AcDbEntity
  8
0
100
AcDbLine
 62
7
  6
CONTINUOUS
 10
19.1605962959
 20
37.9541727301
 11
48.4905962959
 21
37.9541727301
  0
LINE
  5
23F
100
AcDbEntity
  8
0
100
AcDbLine
 62
7
  6
CONTINUOUS
 10
26.5255962959
 20
47.013464475
 11
26.5255962959
 21
48.3373714156
  0
LINE
  5
240
100
AcDbEntity
  8
0
100
AcDbLine
 62
7
  6
CONTINUOUS
 10
26.5255962959
 20
53.7541727301
 11
26.5255962959
 21
53.9717856396
  0
LINE
  5
241
100
AcDbEntity
  8
0
100
AcDbLine
 62
7
  6
CONTINUOUS
 10
26.5805962959
 20
43.9541727301
 11
26.5805962959
 21
37.9541727301
  0
LINE
  5
242
100
AcDbEntity
  8
0
100
AcDbLine
 62
7
  6
CONTINUOUS
 10
27.0805828735
 20
37.9541727301
 11
27.0805828735
 21
43.9541727301
  0
LINE
  5
243
100
AcDbEntity
  8
0
100
AcDbLine
 62
7
  6
CONTINUOUS
 10
27.1755962959
 20
51.2541714156
 11
27.1755962959
 21
49.8765098853
  0
LINE
  5
244
100
AcDbEntity
  8
0
100
AcDbLine
 62
7
  6
CONTINUOUS
 10
27.3255962959
 20
73.8389730247
 11
27.3255962959
 21
80.888622025
  0
LINE
  5
245
100
AcDbEntity
  8
0
100
AcDbLine
 62
7
  6
CONTINUOUS
 10
27.3255962959
 20
82.9493010251
 11
27.3255962959
 21
88.7541727301
  0
LINE
  5
246
100
AcDbEntity
  8
0
100
AcDbLine
 62
7
  6
CONTINUOUS
 10
27.9755962959
 20
54.7541727301
 11
27.9755962959
 21
53.7541727301
  0
LINE
  5
247
100
AcDbEntity
  8
0
100
AcDbLine
 62
7
  6
CONTINUOUS
 10
29.0755962959
 20
53.7541727301
 11
29.0755962959
 21
88.7541727301
  0
LINE
  5
248
100
AcDbEntity
  8
0
100
AcDbLine
 62
7
  6
CONTINUOUS
 10
30.5694482648
 20
47.4541724156
 11
30.5694482648
 21
49.7092122237
  0
LINE
  5
249
100
AcDbEntity
  8
0
100
AcDbLine
 62
7
  6
CONTINUOUS
 10
30.8255962959
 20
55.4971537064
 11
30.8255962959
 21
53.0351343239
  0
LINE
  5
24A
100
AcDbEntity
  8
0
100
AcDbLine
 62
7
  6
CONTINUOUS
 10
30.8805828735
 20
37.9541727301
 11
30.8805828735
 21
43.9541727301
  0
LINE
  5
24B
100
AcDbEntity
  8
0
100
AcDbLine
 62
7
  6
CONTINUOUS
 10
18.8755962959
 20
43.9541727301
 11
48.7755962959
 21
43.9541727301
  0
LINE
  5
24C
100
AcDbEntity
  8
0
100
AcDbLine
 62
7
  6
CONTINUOUS
 10
31.8255962959
 20
32.3541715106
 11
31.8255962959
 21
37.9541727301
  0
LINE
  5
24D
100
AcDbEntity
  8
0
100
AcDbLine
 62
7
  6
CONTINUOUS
 10
31.8255962959
 20
43.9541727301
 11
31.8255962959
 21
47.4541724156
  0
LINE
  5
24E
100
AcDbEntity
  8
0
100
AcDbLine
 62
7
  6
CONTINUOUS
 10
31.8255962959
 20
51.2541714156
 11
31.8255962959
 21
52.6510059701
  0
LINE
  5
24F
100
AcDbEntity
  8
0
100
AcDbLine
 62
7
  6
CONTINUOUS
 10
31.8562729154
 20
55.4050026785
 11
31.8562729154
 21
55.5786508561
  0
LINE
  5
250
100
AcDbEntity
  8
0
100
AcDbLine
 62
7
  6
CONTINUOUS
 10
32.4589567476
 20
51.2541714156
 11
32.4589567476
 21
49.8765098853
  0
LINE
  5
251
100
AcDbEntity
  8
0
100
AcDbLine
 62
7
  6
CONTINUOUS
 10
33.3562729154
 20
55.144530412
 11
33.3562729154
 21
55.8391231226
  0
LINE
  5
252
100
AcDbEntity
  8
0
100
AcDbLine
 62
7
  6
CONTINUOUS
 10
21.2755962959
 20
46.6309352862
 11
21.7005962959
 21
46.6309352862
  0
LINE
  5
253
100
AcDbEntity
  8
0
100
AcDbLine
 62
7
  6
CONTINUOUS
 10
45.9505962959
 20
46.6309352862
 11
46.3755962959
 21
46.6309352862
  0
LINE
  5
254
100
AcDbEntity
  8
0
100
AcDbLine
 62
7
  6
CONTINUOUS
 10
37.0817443269
 20
47.4541724156
 11
30.5694482648
 21
47.4541724156
  0
LINE
  5
255
100
AcDbEntity
  8
0
100
AcDbLine
 62
7
  6
CONTINUOUS
 10
21.7255962959
 20
47.9541727301
 11
26.5255962959
 21
47.9541727301
  0
LINE
  5
256
100
AcDbEntity
  8
0
100
AcDbLine
 62
7
  6
CONTINUOUS
 10
41.1255962959
 20
47.9541727301
 11
45.9255962959
 21
47.9541727301
  0
LINE
  5
257
100
AcDbEntity
  8
0
100
AcDbLine
 62
7
  6
CONTINUOUS
 10
34.3562729154
 20
55.144530412
 11
34.3562729154
 21
55.8391231226
  0
LINE
  5
258
100
AcDbEntity
  8
0
100
AcDbLine
 62
7
  6
CONTINUOUS
 10
35.1922358443
 20
49.8765098853
 11
35.1922358443
 21
51.2541714156
  0
LINE
  5
259
100
AcDbEntity
  8
0
100
AcDbLine
 62
7
  6
CONTINUOUS
 10
35.8255962959
 20
32.3541715106
 11
35.8255962959
 21
37.9541727301
  0
LINE
  5
25A
100
AcDbEntity
  8
0
100
AcDbLine
 62
7
  6
CONTINUOUS
 10
35.8255962959
 20
43.9541727301
 11
35.8255962959
 21
47.4541724156
  0
LINE
  5
25B
100
AcDbEntity
  8
0
100
AcDbLine
 62
7
  6
CONTINUOUS
 10
35.8255962959
 20
51.2541714156
 11
35.8255962959
 21
52.6508054613
  0
LINE
  5
25C
100
AcDbEntity
  8
0
100
AcDbLine
 62
7
  6
CONTINUOUS
 10
35.8562729154
 20
55.5786508561
 11
35.8562729154
 21
55.4050026785
  0
LINE
  5
25D
100
AcDbEntity
  8
0
100
AcDbLine
 62
7
  6
CONTINUOUS
 10
36.7705962959
 20
43.9541727301
 11
36.7705962959
 21
37.9541727301
  0
LINE
  5
25E
100
AcDbEntity
  8
0
100
AcDbLine
 62
7
  6
CONTINUOUS
 10
36.8255962959
 20
55.4971537064
 11
36.8255962959
 21
53.0351343239
  0
LINE
  5
25F
100
AcDbEntity
  8
0
100
AcDbLine
 62
7
  6
CONTINUOUS
 10
37.0817443269
 20
49.7092122256
 11
37.0817443269
 21
47.4541724156
  0
LINE
  5
260
100
AcDbEntity
  8
0
100
AcDbLine
 62
7
  6
CONTINUOUS
 10
18.8755962959
 20
48.3373714156
 11
30.5755962959
 21
48.3373714156
  0
LINE
  5
261
100
AcDbEntity
  8
0
100
AcDbLine
 62
7
  6
CONTINUOUS
 10
37.0755962959
 20
48.3373714156
 11
48.7755962959
 21
48.3373714156
  0
LINE
  5
262
100
AcDbEntity
  8
0
100
AcDbLine
 62
7
  6
CONTINUOUS
 10
42.4755962959
 20
49.3746169061
 11
37.0755962959
 21
49.3746169061
  0
LINE
  5
263
100
AcDbEntity
  8
0
100
AcDbLine
 62
7
  6
CONTINUOUS
 10
30.5755962959
 20
49.3746169061
 11
25.1755962959
 21
49.3746169061
  0
LINE
  5
264
100
AcDbEntity
  8
0
100
AcDbLine
 62
7
  6
CONTINUOUS
 10
25.1755962959
 20
49.8765098853
 11
42.4755962959
 21
49.8765098853
  0
LINE
  5
265
100
AcDbEntity
  8
0
100
AcDbLine
 62
7
  6
CONTINUOUS
 10
38.5755962959
 20
53.7541727301
 11
38.5755962959
 21
88.7541727301
  0
LINE
  5
266
100
AcDbEntity
  8
0
100
AcDbLine
 62
7
  6
CONTINUOUS
 10
39.6755962959
 20
88.7541727301
 11
39.6755962959
 21
82.9493010251
  0
LINE
  5
267
100
AcDbEntity
  8
0
100
AcDbLine
 62
7
  6
CONTINUOUS
 10
39.6755962959
 20
53.7541727301
 11
39.6755962959
 21
54.7541727301
  0
LINE
  5
268
100
AcDbEntity
  8
0
100
AcDbLine
 62
7
  6
CONTINUOUS
 10
39.6755962959
 20
73.8389730247
 11
39.6755962959
 21
80.888622025
  0
LINE
  5
269
100
AcDbEntity
  8
0
100
AcDbLine
 62
7
  6
CONTINUOUS
 10
27.1755962959
 20
51.2541714156
 11
40.4755962959
 21
51.2541714156
  0
LINE
  5
26A
100
AcDbEntity
  8
0
100
AcDbLine
 62
7
  6
CONTINUOUS
 10
18.8755962959
 20
52.1953270033
 11
25.1755962959
 21
52.1953270033
  0
LINE
  5
26B
100
AcDbEntity
  8
0
100
AcDbLine
 62
7
  6
CONTINUOUS
 10
42.4755962959
 20
52.1953270033
 11
48.7755962959
 21
52.1953270033
  0
LINE
  5
26C
100
AcDbEntity
  8
0
100
AcDbLine
 62
7
  6
CONTINUOUS
 10
25.1755962959
 20
52.4378141164
 11
31.8255962959
 21
52.4378141164
  0
LINE
  5
26D
100
AcDbEntity
  8
0
100
AcDbLine
 62
7
  6
CONTINUOUS
 10
35.8255962959
 20
52.4378141164
 11
42.4755962959
 21
52.4378141164
  0
LINE
  5
26E
100
AcDbEntity
  8
0
100
AcDbLine
 62
7
  6
CONTINUOUS
 10
18.8755962959
 20
53.7541727301
 11
30.8255962959
 21
53.7541727301
  0
LINE
  5
26F
100
AcDbEntity
  8
0
100
AcDbLine
 62
7
  6
CONTINUOUS
 10
36.8255962959
 20
53.7541727301
 11
48.7755962959
 21
53.7541727301
  0
LINE
  5
270
100
AcDbEntity
  8
0
100
AcDbLine
 62
7
  6
CONTINUOUS
 10
45.9255962959
 20
53.9717856396
 11
41.1255962959
 21
53.9717856396
  0
LINE
  5
271
100
AcDbEntity
  8
0
100
AcDbLine
 62
7
  6
CONTINUOUS
 10
26.5255962959
 20
53.9717856396
 11
21.7255962959
 21
53.9717856396
  0
LINE
  5
272
100
AcDbEntity
  8
0
100
AcDbLine
 62
7
  6
CONTINUOUS
 10
40.4755962959
 20
51.2541714156
 11
40.4755962959
 21
49.8765098853
  0
LINE
  5
273
100
AcDbEntity
  8
0
100
AcDbLine
 62
7
  6
CONTINUOUS
 10
40.5705962959
 20
37.9541727301
 11
40.5705962959
 21
43.9541727301
  0
LINE
  5
274
100
AcDbEntity
  8
0
100
AcDbLine
 62
7
  6
CONTINUOUS
 10
41.0705962959
 20
37.9541727301
 11
41.0705962959
 21
43.9541727301
  0
LINE
  5
275
100
AcDbEntity
  8
0
100
AcDbLine
 62
7
  6
CONTINUOUS
 10
41.1255962959
 20
47.0134671993
 11
41.1255962959
 21
48.3373714156
  0
LINE
  5
276
100
AcDbEntity
  8
0
100
AcDbLine
 62
7
  6
CONTINUOUS
 10
41.1255962959
 20
53.7541727301
 11
41.1255962959
 21
53.9717856396
  0
LINE
  5
277
100
AcDbEntity
  8
0
100
AcDbLine
 62
7
  6
CONTINUOUS
 10
42.3631213313
 20
37.7541714156
 11
42.3631213313
 21
37.9541727301
  0
LINE
  5
278
100
AcDbEntity
  8
0
100
AcDbLine
 62
7
  6
CONTINUOUS
 10
42.3631213313
 20
43.9541727301
 11
42.3631213313
 21
46.6309352862
  0
LINE
  5
279
100
AcDbEntity
  8
0
100
AcDbLine
 62
7
  6
CONTINUOUS
 10
42.4755962959
 20
49.3746169061
 11
42.4755962959
 21
53.7541727301
  0
LINE
  5
27A
100
AcDbEntity
  8
0
100
AcDbLine
 62
7
  6
CONTINUOUS
 10
48.4755962959
 20
54.7541727301
 11
47.3755962959
 21
54.7541727301
  0
LINE
  5
27B
100
AcDbEntity
  8
0
100
AcDbLine
 62
7
  6
CONTINUOUS
 10
39.6755962959
 20
54.7541727301
 11
38.5755962959
 21
54.7541727301
  0
LINE
  5
27C
100
AcDbEntity
  8
0
100
AcDbLine
 62
7
  6
CONTINUOUS
 10
29.0755962959
 20
54.7541727301
 11
27.9755962959
 21
54.7541727301
  0
LINE
  5
27D
100
AcDbEntity
  8
0
100
AcDbLine
 62
7
  6
CONTINUOUS
 10
20.2755962959
 20
54.7541727301
 11
19.1755962959
 21
54.7541727301
  0
LINE
  5
27E
100
AcDbEntity
  8
0
100
AcDbLine
 62
7
  6
CONTINUOUS
 10
34.3562729154
 20
55.144530412
 11
33.3562729154
 21
55.144530412
  0
LINE
  5
27F
100
AcDbEntity
  8
0
100
AcDbLine
 62
7
  6
CONTINUOUS
 10
33.3562729154
 20
55.3467192461
 11
34.3562729154
 21
55.3467192461
  0
LINE
  5
280
100
AcDbEntity
  8
0
100
AcDbLine
 62
7
  6
CONTINUOUS
 10
35.8562729154
 20
55.4050026785
 11
34.3562729154
 21
55.4050026785
  0
LINE
  5
281
100
AcDbEntity
  8
0
100
AcDbLine
 62
7
  6
CONTINUOUS
 10
33.3562729154
 20
55.4050026785
 11
31.8562729154
 21
55.4050026785
  0
LINE
  5
282
100
AcDbEntity
  8
0
100
AcDbLine
 62
7
  6
CONTINUOUS
 10
31.8562729154
 20
55.5786508561
 11
33.3562729154
 21
55.5786508561
  0
LINE
  5
283
100
AcDbEntity
  8
0
100
AcDbLine
 62
7
  6
CONTINUOUS
 10
34.3562729154
 20
55.5786508561
 11
35.8562729154
 21
55.5786508561
  0
LINE
  5
284
100
AcDbEntity
  8
0
100
AcDbLine
 62
7
  6
CONTINUOUS
 10
33.3562729154
 20
55.8391231226
 11
34.3562729154
 21
55.8391231226
  0
LINE
  5
285
100
AcDbEntity
  8
0
100
AcDbLine
 62
7
  6
CONTINUOUS
 10
44.6905962959
 20
43.9541727301
 11
44.6905962959
 21
37.9541727301
  0
LINE
  5
286
100
AcDbEntity
  8
0
100
AcDbLine
 62
7
  6
CONTINUOUS
 10
44.7006084354
 20
34.5328367285
 11
44.7006084354
 21
31.8841741924
  0
LINE
  5
287
100
AcDbEntity
  8
0
100
AcDbLine
 62
7
  6
CONTINUOUS
 10
44.9255443564
 20
37.7541714156
 11
44.9255443564
 21
34.8341741924
  0
LINE
  5
288
100
AcDbEntity
  8
0
100
AcDbLine
 62
7
  6
CONTINUOUS
 10
45.9255962959
 20
48.3373714156
 11
45.9255962959
 21
47.9541727301
  0
LINE
  5
289
100
AcDbEntity
  8
0
100
AcDbLine
 62
7
  6
CONTINUOUS
 10
45.9255962959
 20
53.7541727301
 11
45.9255962959
 21
53.9717856396
  0
LINE
  5
28A
100
AcDbEntity
  8
0
100
AcDbLine
 62
7
  6
CONTINUOUS
 10
45.9505962959
 20
37.7541714156
 11
45.9505962959
 21
37.9541727301
  0
LINE
  5
28B
100
AcDbEntity
  8
0
100
AcDbLine
 62
7
  6
CONTINUOUS
 10
45.9505962959
 20
43.9541727301
 11
45.9505962959
 21
46.6309352862
  0
LINE
  5
28C
100
AcDbEntity
  8
0
100
AcDbLine
 62
7
  6
CONTINUOUS
 10
46.3256114168
 20
23.3341727302
 11
46.3256114168
 21
23.0341768795
  0
LINE
  5
28D
100
AcDbEntity
  8
0
100
AcDbLine
 62
7
  6
CONTINUOUS
 10
46.3755962959
 20
46.6309352862
 11
46.3755962959
 21
48.3373714156
  0
LINE
  5
28E
100
AcDbEntity
  8
0
100
AcDbLine
 62
7
  6
CONTINUOUS
 10
46.7255962959
 20
73.8389730247
 11
46.7255962959
 21
80.888622025
  0
LINE
  5
28F
100
AcDbEntity
  8
0
100
AcDbLine
 62
7
  6
CONTINUOUS
 10
46.7255962959
 20
82.9493010251
 11
46.7255962959
 21
88.7541727301
  0
LINE
  5
290
100
AcDbEntity
  8
0
100
AcDbLine
 62
7
  6
CONTINUOUS
 10
47.3755962959
 20
54.7541727301
 11
47.3755962959
 21
53.7541727301
  0
LINE
  5
291
100
AcDbEntity
  8
0
100
AcDbLine
 62
7
  6
CONTINUOUS
 10
47.400608718
 20
31.8841741924
 11
47.400608718
 21
30.6341741924
  0
LINE
  5
292
100
AcDbEntity
  8
0
100
AcDbLine
 62
7
  6
CONTINUOUS
 10
48.0756122351
 20
30.6341741924
 11
48.0756122351
 21
23.8341730475
  0
LINE
  5
293
100
AcDbEntity
  8
0
100
AcDbLine
 62
7
  6
CONTINUOUS
 10
48.4755962959
 20
53.7541727301
 11
48.4755962959
 21
88.7541727301
  0
LINE
  5
294
100
AcDbEntity
  8
0
100
AcDbLine
 62
7
  6
CONTINUOUS
 10
48.4905962959
 20
37.9541727301
 11
48.4905962959
 21
43.9541727301
  0
LINE
  5
295
100
AcDbEntity
  8
0
100
AcDbLine
 62
7
  6
CONTINUOUS
 10
47.1849250216
 20
9.0199438952
 11
47.4701185472
 21
23.0341727301
  0
LINE
  5
296
100
AcDbEntity
  8
0
100
AcDbLine
 62
7
  6
CONTINUOUS
 10
48.7755962959
 20
43.9541727301
 11
48.7755962959
 21
53.7541727301
  0
LINE
  5
297
100
AcDbEntity
  8
0
100
AcDbLine
 62
7
  6
CONTINUOUS
 10
48.4755962959
 20
71.7924109842
 11
38.5755962959
 21
71.7924109842
  0
LINE
  5
298
100
AcDbEntity
  8
0
100
AcDbLine
 62
7
  6
CONTINUOUS
 10
29.0755962959
 20
71.7924109842
 11
19.1755962959
 21
71.7924109842
  0
LINE
  5
299
100
AcDbEntity
  8
0
100
AcDbLine
 62
7
  6
CONTINUOUS
 10
46.7255962959
 20
73.8389730247
 11
39.6755962959
 21
73.8389730247
  0
LINE
  5
29A
100
AcDbEntity
  8
0
100
AcDbLine
 62
7
  6
CONTINUOUS
 10
27.3255962959
 20
73.8389730247
 11
20.2755962959
 21
73.8389730247
  0
LINE
  5
29B
100
AcDbEntity
  8
0
100
AcDbLine
 62
7
  6
CONTINUOUS
 10
46.7256114165
 20
23.3341727302
 11
48.0756122351
 21
23.8341730475
  0
LINE
  5
29C
100
AcDbEntity
  8
0
100
AcDbLine
 62
7
  6
CONTINUOUS
 10
20.2755962959
 20
77.9737738876
 11
27.3255962959
 21
77.9737738876
  0
LINE
  5
29D
100
AcDbEntity
  8
0
100
AcDbLine
 62
7
  6
CONTINUOUS
 10
39.6755962959
 20
77.9737738876
 11
46.7255962959
 21
77.9737738876
  0
LINE
  5
29E
100
AcDbEntity
  8
0
100
AcDbLine
 62
7
  6
CONTINUOUS
 10
46.7255962959
 20
79.3261930432
 11
39.6755962959
 21
79.3261930432
  0
LINE
  5
29F
100
AcDbEntity
  8
0
100
AcDbLine
 62
7
  6
CONTINUOUS
 10
27.3255962959
 20
79.3261930432
 11
20.2755962959
 21
79.3261930432
  0
LINE
  5
2A0
100
AcDbEntity
  8
0
100
AcDbLine
 62
7
  6
CONTINUOUS
 10
20.2755962959
 20
80.0056744322
 11
27.3255962959
 21
80.0056744322
  0
LINE
  5
2A1
100
AcDbEntity
  8
0
100
AcDbLine
 62
7
  6
CONTINUOUS
 10
39.6755962959
 20
80.0056744322
 11
46.7255962959
 21
80.0056744322
  0
LINE
  5
2A2
100
AcDbEntity
  8
0
100
AcDbLine
 62
7
  6
CONTINUOUS
 10
46.7255962959
 20
80.888622025
 11
39.6755962959
 21
80.888622025
  0
LINE
  5
2A3
100
AcDbEntity
  8
0
100
AcDbLine
 62
7
  6
CONTINUOUS
 10
27.3255962959
 20
80.888622025
 11
20.2755962959
 21
80.888622025
  0
LINE
  5
2A4
100
AcDbEntity
  8
0
100
AcDbLine
 62
7
  6
CONTINUOUS
 10
46.7255962959
 20
82.9493010251
 11
39.6755962959
 21
82.9493010251
  0
LINE
  5
2A5
100
AcDbEntity
  8
0
100
AcDbLine
 62
7
  6
CONTINUOUS
 10
27.3255962959
 20
82.9493010251
 11
20.2755962959
 21
82.9493010251
  0
LINE
  5
2A6
100
AcDbEntity
  8
0
100
AcDbLine
 62
7
  6
CONTINUOUS
 10
20.2755962959
 20
83.8574663315
 11
27.3255962959
 21
83.8574663315
  0
LINE
  5
2A7
100
AcDbEntity
  8
0
100
AcDbLine
 62
7
  6
CONTINUOUS
 10
39.6755962959
 20
83.8574663315
 11
46.7255962959
 21
83.8574663315
  0
LINE
  5
2A8
100
AcDbEntity
  8
0
100
AcDbLine
 62
7
  6
CONTINUOUS
 10
20.2755962959
 20
85.4159115174
 11
27.3255962959
 21
85.4159115174
  0
LINE
  5
2A9
100
AcDbEntity
  8
0
100
AcDbLine
 62
7
  6
CONTINUOUS
 10
39.6755962959
 20
85.4159115174
 11
46.7255962959
 21
85.4159115174
  0
LINE
  5
2AA
100
AcDbEntity
  8
0
100
AcDbLine
 62
7
  6
CONTINUOUS
 10
19.1755962959
 20
87.6918420075
 11
20.2755962959
 21
87.6918420075
  0
LINE
  5
2AB
100
AcDbEntity
  8
0
100
AcDbLine
 62
7
  6
CONTINUOUS
 10
27.3255962959
 20
87.6918420075
 11
29.0755962959
 21
87.6918420075
  0
LINE
  5
2AC
100
AcDbEntity
  8
0
100
AcDbLine
 62
7
  6
CONTINUOUS
 10
38.5755962959
 20
87.6918420075
 11
39.6755962959
 21
87.6918420075
  0
LINE
  5
2AD
100
AcDbEntity
  8
0
100
AcDbLine
 62
7
  6
CONTINUOUS
 10
46.7255962959
 20
87.6918420075
 11
48.4755962959
 21
87.6918420075
  0
LINE
  5
2AE
100
AcDbEntity
  8
0
100
AcDbLine
 62
7
  6
CONTINUOUS
 10
48.4755962959
 20
88.7244236323
 11
46.7255962959
 21
88.7244236323
  0
LINE
  5
2AF
100
AcDbEntity
  8
0
100
AcDbLine
 62
7
  6
CONTINUOUS
 10
39.6755962959
 20
88.7244236323
 11
38.5755962959
 21
88.7244236323
  0
LINE
  5
2B0
100
AcDbEntity
  8
0
100
AcDbLine
 62
7
  6
CONTINUOUS
 10
29.0755962959
 20
88.7244236323
 11
27.3255962959
 21
88.7244236323
  0
LINE
  5
2B1
100
AcDbEntity
  8
0
100
AcDbLine
 62
7
  6
CONTINUOUS
 10
20.2755962959
 20
88.7244236323
 11
19.1755962959
 21
88.7244236323
  0
LINE
  5
2B2
100
AcDbEntity
  8
0
100
AcDbLine
 62
7
  6
CONTINUOUS
 10
48.4755962959
 20
88.7541727301
 11
38.5755962959
 21
88.7541727301
  0
LINE
  5
2B3
100
AcDbEntity
  8
0
100
AcDbLine
 62
7
  6
CONTINUOUS
 10
29.0755962959
 20
88.7541727301
 11
19.1755962959
 21
88.7541727301
  0
ARC
  5
2B4
100
AcDbEntity
  8
0
100
AcDbCircle
 62
7
  6
CONTINUOUS
 10
44.4006114168
 20
34.5341741924
 40
0.3
100
AcDbArc
 50
0.0
 51
90.0
  0
ARC
  5
2B5
100
AcDbEntity
  8
0
100
AcDbCircle
 62
7
  6
CONTINUOUS
 10
23.250577296
 20
34.5341741924
 40
0.3
100
AcDbArc
 50
90.0
 51
180.0
  0
SPLINE
  5
2B6
100
AcDbEntity
  8
0
100
AcDbSpline
 62
7
  6
CONTINUOUS
 70
0
 71
3
 72
25
 73
21
 74
0
 42
0.0000001
 43
0.0000001
 44
0.0000000001
 40
0.0
 40
0.0
 40
0.0
 40
0.0
 40
0.1876261195
 40
0.3682528048
 40
0.4538462154
 40
0.5352224305
 40
0.6116420977
 40
0.6824205504
 40
0.7469469783
 40
0.8046792964
 40
0.8551884583
 40
0.8981676671
 40
0.9167962609
 40
0.9335201804
 40
0.9483806065
 40
0.9614537518
 40
0.9728688956
 40
0.9828448353
 40
0.9917252925
 40
1.0
 40
1.0
 40
1.0
 40
1.0
 10
33.8255962959
 20
52.5141897909
 30
0.0
 10
33.6304726528
 20
52.5141897909
 30
0.0
 10
33.2474752471
 20
52.5206238419
 30
0.0
 10
32.7760051878
 20
52.5449495889
 30
0.0
 10
32.4156942106
 20
52.5743630754
 30
0.0
 10
32.1639005072
 20
52.6004100007
 30
0.0
 10
31.9280862827
 20
52.6305620403
 30
0.0
 10
31.7105037219
 20
52.6645307001
 30
0.0
 10
31.5132293547
 20
52.7019511186
 30
0.0
 10
31.3381168832
 20
52.7424522777
 30
0.0
 10
31.1868143009
 20
52.7856020529
 30
0.0
 10
31.0769288319
 20
52.8250400478
 30
0.0
 10
31.0025107317
 20
52.8582699272
 30
0.0
 10
30.9561648631
 20
52.8824151714
 30
0.0
 10
30.9166522012
 20
52.9069229952
 30
0.0
 10
30.8840325519
 20
52.9317634043
 30
0.0
 10
30.8583601489
 20
52.9569455851
 30
0.0
 10
30.8397061712
 20
52.9825386205
 30
0.0
 10
30.8282382926
 20
53.0086044521
 30
0.0
 10
30.8256000781
 20
53.0265289598
 30
0.0
 10
30.8255999483
 20
53.0351343239
 30
0.0
  0
SPLINE
  5
2B7
100
AcDbEntity
  8
0
100
AcDbSpline
 62
7
  6
CONTINUOUS
 70
0
 71
3
 72
25
 73
21
 74
0
 42
0.0000001
 43
0.0000001
 44
0.0000000001
 40
0.0
 40
0.0
 40
0.0
 40
0.0
 40
0.0082747129
 40
0.0171552094
 40
0.0271311661
 40
0.0385461764
 40
0.0516192463
 40
0.0664796181
 40
0.0832033607
 40
0.1018316555
 40
0.1448102765
 40
0.1953185792
 40
0.2530499734
 40
0.3175754851
 40
0.3883531991
 40
0.4647723669
 40
0.5461486123
 40
0.6317421512
 40
0.8123707446
 40
1.0
 40
1.0
 40
1.0
 40
1.0
 10
36.8255926434
 20
53.0351343238
 30
0.0
 10
36.8255927732
 20
53.0265289538
 30
0.0
 10
36.8229546223
 20
53.0086043166
 30
0.0
 10
36.8114863259
 20
52.9825385928
 30
0.0
 10
36.792832273
 20
52.9569457646
 30
0.0
 10
36.7671604182
 20
52.9317633159
 30
0.0
 10
36.7345408866
 20
52.9069231561
 30
0.0
 10
36.6950284338
 20
52.8824156218
 30
0.0
 10
36.6486831064
 20
52.8582705366
 30
0.0
 10
36.5742661521
 20
52.8250407943
 30
0.0
 10
36.4643823649
 20
52.7856034628
 30
0.0
 10
36.3130822895
 20
52.7424539114
 30
0.0
 10
36.1379725984
 20
52.7019531457
 30
0.0
 10
35.9407009497
 20
52.6645327689
 30
0.0
 10
35.7231206371
 20
52.6305641913
 30
0.0
 10
35.4873077243
 20
52.6004117397
 30
0.0
 10
35.2355143762
 20
52.5743647441
 30
0.0
 10
34.8752013115
 20
52.544950304
 30
0.0
 10
34.4037258647
 20
52.5206241046
 30
0.0
 10
34.0207232058
 20
52.5141897909
 30
0.0
 10
33.8255962959
 20
52.5141897909
 30
0.0
  0
SPLINE
  5
2B8
100
AcDbEntity
  8
0
100
AcDbSpline
 62
7
  6
CONTINUOUS
 70
0
 71
3
 72
25
 73
21
 74
0
 42
0.0000001
 43
0.0000001
 44
0.0000000001
 40
0.0
 40
0.0
 40
0.0
 40
0.0
 40
0.1876261195
 40
0.3682528048
 40
0.4538462154
 40
0.5352224305
 40
0.6116420977
 40
0.6824205504
 40
0.7469469783
 40
0.8046792964
 40
0.8551884583
 40
0.8981676671
 40
0.9167962609
 40
0.9335201804
 40
0.9483806065
 40
0.9614537518
 40
0.9728688956
 40
0.9828448353
 40
0.9917252925
 40
1.0
 40
1.0
 40
1.0
 40
1.0
 10
33.8255962959
 20
56.0180982394
 30
0.0
 10
33.6304726528
 20
56.0180982394
 30
0.0
 10
33.2474752471
 20
56.0116641884
 30
0.0
 10
32.7760051878
 20
55.9873384414
 30
0.0
 10
32.4156942106
 20
55.9579249549
 30
0.0
 10
32.1639005072
 20
55.9318780296
 30
0.0
 10
31.9280862827
 20
55.9017259899
 30
0.0
 10
31.7105037219
 20
55.8677573302
 30
0.0
 10
31.5132293547
 20
55.8303369117
 30
0.0
 10
31.3381168832
 20
55.7898357525
 30
0.0
 10
31.1868143009
 20
55.7466859774
 30
0.0
 10
31.0769288319
 20
55.7072479824
 30
0.0
 10
31.0025107317
 20
55.674018103
 30
0.0
 10
30.9561648631
 20
55.6498728589
 30
0.0
 10
30.9166522012
 20
55.6253650351
 30
0.0
 10
30.8840325519
 20
55.600524626
 30
0.0
 10
30.8583601489
 20
55.5753424451
 30
0.0
 10
30.8397061712
 20
55.5497494098
 30
0.0
 10
30.8282382926
 20
55.5236835781
 30
0.0
 10
30.8256000781
 20
55.5057590704
 30
0.0
 10
30.8255999483
 20
55.4971537063
 30
0.0
  0
SPLINE
  5
2B9
100
AcDbEntity
  8
0
100
AcDbSpline
 62
7
  6
CONTINUOUS
 70
0
 71
3
 72
25
 73
21
 74
0
 42
0.0000001
 43
0.0000001
 44
0.0000000001
 40
0.0
 40
0.0
 40
0.0
 40
0.0
 40
0.0082747129
 40
0.0171552094
 40
0.0271311661
 40
0.0385461764
 40
0.0516192463
 40
0.0664796181
 40
0.0832033607
 40
0.1018316555
 40
0.1448102765
 40
0.1953185792
 40
0.2530499734
 40
0.3175754851
 40
0.3883531991
 40
0.4647723669
 40
0.5461486123
 40
0.6317421512
 40
0.8123707446
 40
1.0
 40
1.0
 40
1.0
 40
1.0
 10
36.8255926434
 20
55.4971537065
 30
0.0
 10
36.8255927732
 20
55.5057590764
 30
0.0
 10
36.8229546223
 20
55.5236837136
 30
0.0
 10
36.8114863259
 20
55.5497494374
 30
0.0
 10
36.792832273
 20
55.5753422656
 30
0.0
 10
36.7671604182
 20
55.6005247144
 30
0.0
 10
36.7345408866
 20
55.6253648742
 30
0.0
 10
36.6950284338
 20
55.6498724085
 30
0.0
 10
36.6486831064
 20
55.6740174936
 30
0.0
 10
36.5742661521
 20
55.7072472359
 30
0.0
 10
36.4643823649
 20
55.7466845674
 30
0.0
 10
36.3130822895
 20
55.7898341189
 30
0.0
 10
36.1379725984
 20
55.8303348846
 30
0.0
 10
35.9407009497
 20
55.8677552614
 30
0.0
 10
35.7231206371
 20
55.901723839
 30
0.0
 10
35.4873077243
 20
55.9318762905
 30
0.0
 10
35.2355143762
 20
55.9579232861
 30
0.0
 10
34.8752013115
 20
55.9873377263
 30
0.0
 10
34.4037258647
 20
56.0116639257
 30
0.0
 10
34.0207232058
 20
56.0180982394
 30
0.0
 10
33.8255962959
 20
56.0180982394
 30
0.0
  0
SPLINE
  5
2BA
100
AcDbEntity
  8
0
100
AcDbSpline
 62
7
  6
CONTINUOUS
 70
0
 71
3
 72
41
 73
37
 74
0
 42
0.0000001
 43
0.0000001
 44
0.0000000001
 40
0.0
 40
0.0
 40
0.0
 40
0.0
 40
0.0041335043
 40
0.0085738882
 40
0.0135635635
 40
0.0192721643
 40
0.0258096806
 40
0.0332409634
 40
0.050907609
 40
0.0723993376
 40
0.0976522939
 40
0.1265201837
 40
0.1587808682
 40
0.1941727585
 40
0.2323827456
 40
0.2730728729
 40
0.3158689038
 40
0.4061880456
 40
0.4999996552
 40
0.5938108977
 40
0.6841290636
 40
0.7269245998
 40
0.76761429
 40
0.8058241166
 40
0.8412160193
 40
0.8734770026
 40
0.9023453458
 40
0.9275988477
 40
0.9490911195
 40
0.96675823
 40
0.9741897765
 40
0.9807274833
 40
0.9864362242
 40
0.9914260194
 40
0.9958664764
 40
1.0
 40
1.0
 40
1.0
 40
1.0
 10
35.8255962959
 20
32.3541715106
 30
0.0
 10
35.8255962959
 20
32.3484400404
 30
0.0
 10
35.8238335116
 20
32.3364961567
 30
0.0
 10
35.8161867892
 20
32.319123729
 30
0.0
 10
35.8037533042
 20
32.3020559482
 30
0.0
 10
35.7866433293
 20
32.2852560534
 30
0.0
 10
35.7648956286
 20
32.268690003
 30
0.0
 10
35.7275643619
 20
32.2455600773
 30
0.0
 10
35.6689141678
 20
32.2180385995
 30
0.0
 10
35.5847978336
 20
32.1878179223
 30
0.0
 10
35.4839119249
 20
32.1590468279
 30
0.0
 10
35.3671796382
 20
32.1320546455
 30
0.0
 10
35.2356630084
 20
32.1070993141
 30
0.0
 10
35.0906092745
 20
32.084462522
 30
0.0
 10
34.9333968059
 20
32.0643531732
 30
0.0
 10
34.7655345992
 20
32.0469941227
 30
0.0
 10
34.5253225329
 20
32.027378849
 30
0.0
 10
34.2110063546
 20
32.0111667895
 30
0.0
 10
33.8255983505
 20
32.0046896838
 30
0.0
 10
33.4401916958
 20
32.0111666275
 30
0.0
 10
33.1258780605
 20
32.0273784232
 30
0.0
 10
32.8856686015
 20
32.0469931282
 30
0.0
 10
32.7178078869
 20
32.0643518734
 30
0.0
 10
32.5605961759
 20
32.0844607394
 30
0.0
 10
32.4155421828
 20
32.107097227
 30
0.0
 10
32.2840244327
 20
32.132052327
 30
0.0
 10
32.1672902844
 20
32.1590444689
 30
0.0
 10
32.0664022244
 20
32.1878157678
 30
0.0
 10
31.9822835645
 20
32.2180363837
 30
0.0
 10
31.9236316795
 20
32.2455583864
 30
0.0
 10
31.886299039
 20
32.2686885163
 30
0.0
 10
31.864550629
 20
32.2852550215
 30
0.0
 10
31.8474402725
 20
32.3020554118
 30
0.0
 10
31.8350063491
 20
32.3191234284
 30
0.0
 10
31.8273592311
 20
32.3364960039
 30
0.0
 10
31.8255962959
 20
32.3484400137
 30
0.0
 10
31.8255962959
 20
32.3541715106
 30
0.0
  0
SPLINE
  5
2BB
100
AcDbEntity
  8
0
100
AcDbSpline
 62
7
  6
CONTINUOUS
 70
0
 71
3
 72
25
 73
21
 74
0
 42
0.0000001
 43
0.0000001
 44
0.0000000001
 40
0.0
 40
0.0
 40
0.0
 40
0.0
 40
0.1876261195
 40
0.3682528048
 40
0.4538462154
 40
0.5352224305
 40
0.6116420977
 40
0.6824205504
 40
0.7469469783
 40
0.8046792964
 40
0.8551884583
 40
0.8981676671
 40
0.9167962609
 40
0.9335201804
 40
0.9483806065
 40
0.9614537518
 40
0.9728688956
 40
0.9828448353
 40
0.9917252925
 40
1.0
 40
1.0
 40
1.0
 40
1.0
 10
33.8255962959
 20
54.9762091734
 30
0.0
 10
34.020719939
 20
54.9762091734
 30
0.0
 10
34.4037173447
 20
54.9826432244
 30
0.0
 10
34.8751874039
 20
55.0069689714
 30
0.0
 10
35.2354983812
 20
55.0363824579
 30
0.0
 10
35.4872920846
 20
55.0624293832
 30
0.0
 10
35.7231063091
 20
55.0925814229
 30
0.0
 10
35.9406888699
 20
55.1265500826
 30
0.0
 10
36.1379632371
 20
55.1639705011
 30
0.0
 10
36.3130757086
 20
55.2044716603
 30
0.0
 10
36.4643782908
 20
55.2476214354
 30
0.0
 10
36.5742637599
 20
55.2870594304
 30
0.0
 10
36.6486818601
 20
55.3202893097
 30
0.0
 10
36.6950277287
 20
55.3444345539
 30
0.0
 10
36.7345403906
 20
55.3689423777
 30
0.0
 10
36.7671600399
 20
55.3937827868
 30
0.0
 10
36.7928324429
 20
55.4189649677
 30
0.0
 10
36.8114864206
 20
55.444558003
 30
0.0
 10
36.8229542992
 20
55.4706238347
 30
0.0
 10
36.8255925137
 20
55.4885483424
 30
0.0
 10
36.8255926434
 20
55.4971537065
 30
0.0
  0
SPLINE
  5
2BC
100
AcDbEntity
  8
0
100
AcDbSpline
 62
7
  6
CONTINUOUS
 70
0
 71
3
 72
25
 73
21
 74
0
 42
0.0000001
 43
0.0000001
 44
0.0000000001
 40
0.0
 40
0.0
 40
0.0
 40
0.0
 40
0.0082747129
 40
0.0171552094
 40
0.0271311661
 40
0.0385461764
 40
0.0516192463
 40
0.0664796181
 40
0.0832033607
 40
0.1018316555
 40
0.1448102765
 40
0.1953185792
 40
0.2530499734
 40
0.3175754851
 40
0.3883531991
 40
0.4647723669
 40
0.5461486123
 40
0.6317421512
 40
0.8123707446
 40
1.0
 40
1.0
 40
1.0
 40
1.0
 10
30.8255999483
 20
55.4971537063
 30
0.0
 10
30.8255998186
 20
55.4885483364
 30
0.0
 10
30.8282379695
 20
55.4706236992
 30
0.0
 10
30.8397062659
 20
55.4445579754
 30
0.0
 10
30.8583603188
 20
55.4189651472
 30
0.0
 10
30.8840321736
 20
55.3937826984
 30
0.0
 10
30.9166517051
 20
55.3689425386
 30
0.0
 10
30.956164158
 20
55.3444350043
 30
0.0
 10
31.0025094853
 20
55.3202899191
 30
0.0
 10
31.0769264397
 20
55.2870601768
 30
0.0
 10
31.1868102269
 20
55.2476228453
 30
0.0
 10
31.3381103023
 20
55.2044732939
 30
0.0
 10
31.5132199933
 20
55.1639725282
 30
0.0
 10
31.710491642
 20
55.1265521514
 30
0.0
 10
31.9280719547
 20
55.0925835738
 30
0.0
 10
32.1638848675
 20
55.0624311223
 30
0.0
 10
32.4156782156
 20
55.0363841267
 30
0.0
 10
32.7759912803
 20
55.0069696865
 30
0.0
 10
33.2474667271
 20
54.9826434871
 30
0.0
 10
33.6304693859
 20
54.9762091734
 30
0.0
 10
33.8255962959
 20
54.9762091734
 30
0.0
  0
SPLINE
  5
2BD
100
AcDbEntity
  8
0
100
AcDbSpline
 62
7
  6
CONTINUOUS
 70
0
 71
3
 72
11
 73
7
 74
0
 42
0.0000001
 43
0.0000001
 44
0.0000000001
 40
0.0
 40
0.0
 40
0.0
 40
0.0
 40
0.2480487876
 40
0.4968756764
 40
0.7472880937
 40
1.0
 40
1.0
 40
1.0
 40
1.0
 10
31.3083147144
 20
7.0341854807
 30
0.0
 10
30.3970545939
 20
7.0341907212
 30
0.0
 10
28.5706119031
 20
7.1169732816
 30
0.0
 10
25.8469802354
 20
7.4887642541
 30
0.0
 10
23.1507916303
 20
8.1061453011
 30
0.0
 10
21.389752323
 20
8.676455143
 30
0.0
 10
20.5195864596
 20
9.0000619577
 30
0.0
  0
SPLINE
  5
2BE
100
AcDbEntity
  8
0
100
AcDbSpline
 62
7
  6
CONTINUOUS
 70
0
 71
3
 72
11
 73
7
 74
0
 42
0.0000001
 43
0.0000001
 44
0.0000000001
 40
0.0
 40
0.0
 40
0.0
 40
0.0
 40
0.247969396
 40
0.496895355
 40
0.7473824672
 40
1.0
 40
1.0
 40
1.0
 40
1.0
 10
37.6072999006
 20
7.0606541094
 30
0.0
 10
38.4178078349
 20
7.09460917
 30
0.0
 10
40.0399484468
 20
7.2281688404
 30
0.0
 10
42.4553121769
 20
7.6235943562
 30
0.0
 10
44.8465087177
 20
8.212679557
 30
0.0
 10
46.4108354348
 20
8.7305244692
 30
0.0
 10
47.1849250216
 20
9.0199438952
 30
0.0
  0
SPLINE
  5
2BF
100
AcDbEntity
  8
0
100
AcDbSpline
 62
7
  6
CONTINUOUS
 70
0
 71
3
 72
11
 73
7
 74
0
 42
0.0000001
 43
0.0000001
 44
0.0000000001
 40
0.0
 40
0.0
 40
0.0
 40
0.0
 40
0.2527119063
 40
0.5031243236
 40
0.7519512124
 40
1.0
 40
1.0
 40
1.0
 40
1.0
 10
25.554149588
 20
9.0000619577
 30
0.0
 10
26.4243154514
 20
8.676455143
 30
0.0
 10
28.1853547587
 20
8.1061453011
 30
0.0
 10
30.8815433638
 20
7.4887642541
 30
0.0
 10
33.6051750314
 20
7.1169732816
 30
0.0
 10
35.4316177223
 20
7.0341907212
 30
0.0
 10
36.3428778428
 20
7.0341854807
 30
0.0
  0
SPLINE
  5
2C0
100
AcDbEntity
  8
0
100
AcDbSpline
 62
7
  6
CONTINUOUS
 70
0
 71
3
 72
9
 73
5
 74
0
 42
0.0000001
 43
0.0000001
 44
0.0000000001
 40
0.0
 40
0.0
 40
0.0
 40
0.0
 40
0.5112701228
 40
1.0
 40
1.0
 40
1.0
 40
1.0
 10
37.0431264045
 20
49.8765098853
 30
0.0
 10
37.0555275765
 20
49.8498084132
 30
0.0
 10
37.0750146115
 20
49.7951260769
 30
0.0
 10
37.0817918352
 20
49.737355025
 30
0.0
 10
37.0817918352
 20
49.7092122237
 30
0.0
  0
SPLINE
  5
2C1
100
AcDbEntity
  8
0
100
AcDbSpline
 62
7
  6
CONTINUOUS
 70
0
 71
3
 72
9
 73
5
 74
0
 42
0.0000001
 43
0.0000001
 44
0.0000000001
 40
0.0
 40
0.0
 40
0.0
 40
0.0
 40
0.4887298772
 40
1.0
 40
1.0
 40
1.0
 40
1.0
 10
30.5694007566
 20
49.7092122237
 30
0.0
 10
30.5694007566
 20
49.737355025
 30
0.0
 10
30.5761779803
 20
49.7951260769
 30
0.0
 10
30.5956650153
 20
49.8498084132
 30
0.0
 10
30.6080661872
 20
49.8765098853
 30
0.0
  0
ELLIPSE
  5
2C2
100
AcDbEntity
  8
0
100
AcDbEllipse
 62
7
  6
CONTINUOUS
 10
33.8256013949
 20
43.9541752487
 30
0.0
 11
11.6999626593
 21
0.0
 31
0.0
 40
0.3345953195
 41
7.0360913838
 42
7.5725010916
  0
ELLIPSE
  5
2C3
100
AcDbEntity
  8
0
100
AcDbEllipse
 62
7
  6
CONTINUOUS
 10
33.8256013949
 20
43.9541752487
 30
0.0
 11
11.6999626593
 21
-0.0
 31
0.0
 40
0.3345953195
 41
1.8522777765
 42
2.3886865769
  0
ENDSEC
  0
SECTION
  2
OBJECTS
  0
DICTIONARY
  5
C
100
AcDbDictionary
280
0
281
1
  3
ACAD_GROUP
350
D
  3
ACAD_MLINESTYLE
350
17
  3
ACAD_LAYOUT
350
1A
  3
ACAD_PLOTSETTINGS
350
19
  3
ACAD_PLOTSTYLENAME
350
E
  0
DICTIONARY
  5
D
102
{ACAD_REACTORS
330
C
102
}
100
AcDbDictionary
280
0
281
1
  0
ACDBDICTIONARYWDFLT
  5
E
102
{ACAD_REACTORS
330
C
102
}
100
AcDbDictionary
281
1
  3
Normal
350
F
100
AcDbDictionaryWithDefault
340
F
  0
DICTIONARY
  5
17
102
{ACAD_REACTORS
330
C
102
}
100
AcDbDictionary
280
0
281
1
  3
Standard
350
18
  0
DICTIONARY
  5
19
102
{ACAD_REACTORS
330
C
102
}
100
AcDbDictionary
281
1
  0
DICTIONARY
  5
1A
102
{ACAD_REACTORS
330
C
102
}
100
AcDbDictionary
281
1
  3
Model
350
2C4
  3
Layout1
350
2C5
  0
ACDBPLACEHOLDER
  5
F
102
{ACAD_REACTORS
330
E
102
}
  0
MLINESTYLE
  5
18
102
{ACAD_REACTORS
330
17
102
}
100
AcDbMlineStyle
  2
STANDARD
 70
0
  3

 62
256
 51
90.0
 52
90.0
 71
2
 49
0.5
 62
256
  6
BYLAYER
 49
-0.5
 62
256
  6
BYLAYER
  0
LAYOUT
  5
2C4
102
{ACAD_REACTORS
330
1A
102
}
100
AcDbPlotSettings
  1

  2
none_device
  4

  6

 40
0.0
 41
0.0
 42
0.0
 43
0.0
 44
210.0
 45
297.0
 46
0.0
 47
0.0
 48
0.0
 49
0.0
140
0.0
141
0.0
142
1.0
143
1.0
 70
1024
 72
1
 73
0
 74
0
  7

 75
0
147
1.0
148
0.0
149
0.0
100
AcDbLayout
  1
Model
 70
0
 71
0
 10
0.0
 20
0.0
 11
210.0
 21
297.0
 12
0.0
 22
0.0
 32
0.0
 14
0.0
 24
0.0
 34
0.0
 15
0.0
 25
0.0
 35
0.0
146
0.0
 13
0.0
 23
0.0
 33
0.0
 16
1.0
 26
0.0
 36
0.0
 17
0.0
 27
1.0
 37
0.0
 76
0
330
210
345
0
346
0
  0
LAYOUT
  5
2C5
102
{ACAD_REACTORS
330
1A
102
}
100
AcDbPlotSettings
  1

  2
none_device
  4

  6

 40
0.0
 41
0.0
 42
0.0
 43
0.0
 44
210.0
 45
297.0
 46
0.0
 47
0.0
 48
0.0
 49
0.0
140
0.0
141
0.0
142
1.0
143
1.0
 70
0
 72
1
 73
0
 74
0
  7

 75
0
147
1.0
148
0.0
149
0.0
100
AcDbLayout
  1
Layout1
 70
0
 71
1
 10
0.0
 20
0.0
 11
210.0
 21
297.0
 12
0.0
 22
0.0
 32
0.0
 14
0.0
 24
0.0
 34
0.0
 15
0.0
 25
0.0
 35
0.0
146
0.0
 13
0.0
 23
0.0
 33
0.0
 16
1.0
 26
0.0
 36
0.0
 17
0.0
 27
1.0
 37
0.0
 76
0
330
211
345
0
346
0
  0
ENDSEC
  0
EOF
