999
DXF file: C:\Users\sesa63760\Dev\_Creo\CAD\MCADID0002494_3D-CAD\drw0001_1.dxf
999
Pro/ENGINEER 2019471 by Parametric Technology Corporation
  0
SECTION
  2
HEADER
  9
$ACADVER
  1
AC1024
  9
$DWGCODEPAGE
  3
ANSI_1252
  9
$EXTMAX
 10
75.6589754963
 20
107.0034082019
 30
0.0
  9
$EXTMIN
 10
0.0
 20
0.0
 30
0.0
  9
$LIMMIN
 10
0.0
 20
0.0
  9
$LIMMAX
 10
75.6589754963
 20
107.0034082019
  9
$VIEWCTR
 10
37.8294877481
 20
53.5017041009
  9
$VIEWSIZE
 40
107.0034082019
  9
$CLAYER
  8
0
  9
$LTSCALE
 40
6.9750369791
  9
$CELTYPE
  6
BYLAYER
  9
$DIMSCALE
 40
1.0
  9
$DIMASZ
 40
0.9007020892
  9
$DIMEXO
 40
1.0
  9
$DIMDLI
 40
4.8191164583
  9
$DIMEXE
 40
1.0
  9
$DIMCEN
 40
1.1413696875
  9
$DIMLFAC
 40
1.0
  9
$DIMBLK
  1
_FILLED
  9
$DIMALT
 70
0
  9
$DIMALTF
 40
0.0393700787
  9
$DIMTXT
 40
1.2609829249
  9
$DIMTOL
 70
1
  9
$DIMLIM
 70
0
  9
$DIMTFAC
 40
1.0
  9
$DIMTP
 40
0.01
  9
$DIMTM
 40
0.01
  9
$DIMGAP
 40
0.625
  9
$DIMDSEP
 70
46
  9
$AUNITS
 70
0
  9
$PDMODE
 70
3
  9
$PDSIZE
 40
0.3125
  9
$HANDSEED
  5
25A
  9
$TILEMODE
 70
1
  9
$MEASUREMENT
 70
1
  9
$INSUNITS
 70
4
  0
ENDSEC
  0
SECTION
  2
CLASSES
  0
CLASS
  1
ACDBDICTIONARYWDFLT
  2
AcDbDictionaryWithDefault
  3
AutoCAD 2000
 90
0
 91
1
280
0
281
0
  0
CLASS
  1
ACDBPLACEHOLDER
  2
AcDbPlaceHolder
  3
AutoCAD 2000
 90
0
 91
1
280
0
281
0
  0
CLASS
  1
LAYOUT
  2
AcDbLayout
  3
AutoCAD 2000
 90
0
 91
0
280
0
281
0
  0
ENDSEC
  0
SECTION
  2
TABLES
  0
TABLE
  2
VPORT
  5
8
100
AcDbSymbolTable
 70
2
  0
VPORT
  5
1F4
100
AcDbSymbolTableRecord
100
AcDbViewportTableRecord
  2
*ACTIVE
 70
0
 10
0.0
 20
0.0
 11
1.0
 21
1.0
 12
37.8294877481
 22
53.5017041009
 13
0.0
 23
0.0
 14
1.0
 24
1.0
 15
0.0
 25
0.0
 16
0.0
 26
0.0
 36
1.0
 17
0.0
 27
0.0
 37
0.0
 40
107.0034082019
 41
0.7070707071
 42
50.0
 43
0.0
 44
0.0
 50
0.0
 51
0.0
 71
0
 72
100
 73
1
 74
1
 75
0
 76
0
 77
0
 78
0
  0
ENDTAB
  0
TABLE
  2
LTYPE
  5
5
100
AcDbSymbolTable
 70
6
  0
LTYPE
  5
14
100
AcDbSymbolTableRecord
100
AcDbLinetypeTableRecord
  2
BYBLOCK
 70
0
  3

 72
65
 73
0
 40
0.0
  0
LTYPE
  5
15
100
AcDbSymbolTableRecord
100
AcDbLinetypeTableRecord
  2
BYLAYER
 70
0
  3

 72
65
 73
0
 40
0.0
  0
LTYPE
  5
16
100
AcDbSymbolTableRecord
100
AcDbLinetypeTableRecord
  2
CONTINUOUS
 70
64
  3
Solid line
 72
65
 73
0
 40
0.0
  0
LTYPE
  5
1F5
100
AcDbSymbolTableRecord
100
AcDbLinetypeTableRecord
  2
CENTER
 70
64
  3
____ _ ____ _ ____ _ ____ _ ____ _ ____ _ ____
 72
65
 73
4
 40
0.6
 49
0.375
 74
0
 49
-0.075
 74
0
 49
0.075
 74
0
 49
-0.075
 74
0
  0
LTYPE
  5
1F6
100
AcDbSymbolTableRecord
100
AcDbLinetypeTableRecord
  2
HIDDEN
 70
64
  3
- - - - - - - - - - - - - - - - - - - -
 72
65
 73
2
 40
0.2
 49
0.1
 74
0
 49
-0.1
 74
0
  0
LTYPE
  5
1F7
100
AcDbSymbolTableRecord
100
AcDbLinetypeTableRecord
  2
PHANTOM
 70
64
  3
_____ _ _ _____ _ _ _____ _ _ _____
 72
65
 73
6
 40
0.8
 49
0.45
 74
0
 49
-0.05
 74
0
 49
0.1
 74
0
 49
-0.05
 74
0
 49
0.1
 74
0
 49
-0.05
 74
0
  0
LTYPE
  5
1F8
100
AcDbSymbolTableRecord
100
AcDbLinetypeTableRecord
  2
DOT
 70
64
  3
. . . . . . . . . . . . . . . . . . . .
 72
65
 73
2
 40
0.2
 49
0.1
 74
0
 49
-0.1
 74
0
  0
LTYPE
  5
1F9
100
AcDbSymbolTableRecord
100
AcDbLinetypeTableRecord
  2
DASHED
 70
64
  3
- - - - - - - - - - - - - - - - - - - -
 72
65
 73
2
 40
0.2
 49
0.1
 74
0
 49
-0.1
 74
0
  0
ENDTAB
  0
TABLE
  2
LAYER
  5
2
100
AcDbSymbolTable
 70
36
  0
LAYER
  5
10
100
AcDbSymbolTableRecord
100
AcDbLayerTableRecord
  2
0
 70
0
 62
7
  6
CONTINUOUS
370
-3
390
F
  0
LAYER
  5
1FA
100
AcDbSymbolTableRecord
100
AcDbLayerTableRecord
  2
DEFAULT_1
 70
0
 62
7
  6
CENTER
370
-3
390
F
  0
LAYER
  5
1FB
100
AcDbSymbolTableRecord
100
AcDbLayerTableRecord
  2
DEFAULT_2
 70
0
 62
7
  6
HIDDEN
370
-3
390
F
  0
LAYER
  5
1FC
100
AcDbSymbolTableRecord
100
AcDbLayerTableRecord
  2
DEFAULT_3
 70
0
 62
7
  6
PHANTOM
370
-3
390
F
  0
LAYER
  5
1FD
100
AcDbSymbolTableRecord
100
AcDbLayerTableRecord
  2
00_COMPONENTS
 70
0
 62
7
  6
CONTINUOUS
370
-3
390
F
  0
LAYER
  5
1FE
100
AcDbSymbolTableRecord
100
AcDbLayerTableRecord
  2
01_1_DEFAULT_DATUMS
 70
0
 62
7
  6
CONTINUOUS
370
-3
390
F
  0
LAYER
  5
1FF
100
AcDbSymbolTableRecord
100
AcDbLayerTableRecord
  2
01_PLANES
 70
0
 62
7
  6
CONTINUOUS
370
-3
390
F
  0
LAYER
  5
200
100
AcDbSymbolTableRecord
100
AcDbLayerTableRecord
  2
02_COORD_SYS
 70
0
 62
7
  6
CONTINUOUS
370
-3
390
F
  0
LAYER
  5
201
100
AcDbSymbolTableRecord
100
AcDbLayerTableRecord
  2
03_AXES
 70
0
 62
7
  6
CONTINUOUS
370
-3
390
F
  0
LAYER
  5
202
100
AcDbSymbolTableRecord
100
AcDbLayerTableRecord
  2
04_POINTS
 70
0
 62
7
  6
CONTINUOUS
370
-3
390
F
  0
LAYER
  5
203
100
AcDbSymbolTableRecord
100
AcDbLayerTableRecord
  2
05_CURVES
 70
0
 62
7
  6
CONTINUOUS
370
-3
390
F
  0
LAYER
  5
204
100
AcDbSymbolTableRecord
100
AcDbLayerTableRecord
  2
06_SURFS
 70
0
 62
7
  6
CONTINUOUS
370
-3
390
F
  0
LAYER
  5
205
100
AcDbSymbolTableRecord
100
AcDbLayerTableRecord
  2
07_COSMETICS
 70
0
 62
7
  6
CONTINUOUS
370
-3
390
F
  0
LAYER
  5
206
100
AcDbSymbolTableRecord
100
AcDbLayerTableRecord
  2
10_NOTES
 70
0
 62
7
  6
CONTINUOUS
370
-3
390
F
  0
LAYER
  5
207
100
AcDbSymbolTableRecord
100
AcDbLayerTableRecord
  2
11_NOTES_PUB
 70
0
 62
7
  6
CONTINUOUS
370
-3
390
F
  0
LAYER
  5
208
100
AcDbSymbolTableRecord
100
AcDbLayerTableRecord
  2
13_REF_GTOL
 70
0
 62
7
  6
CONTINUOUS
370
-3
390
F
  0
LAYER
  5
209
100
AcDbSymbolTableRecord
100
AcDbLayerTableRecord
  2
16_MISC
 70
0
 62
7
  6
CONTINUOUS
370
-3
390
F
  0
LAYER
  5
20A
100
AcDbSymbolTableRecord
100
AcDbLayerTableRecord
  2
17_NO_PRINT
 70
0
 62
7
  6
CONTINUOUS
370
-3
390
F
  0
LAYER
  5
20B
100
AcDbSymbolTableRecord
100
AcDbLayerTableRecord
  2
18_DATUM_CAMS_JOINTS
 70
0
 62
7
  6
CONTINUOUS
370
-3
390
F
  0
LAYER
  5
20C
100
AcDbSymbolTableRecord
100
AcDbLayerTableRecord
  2
19_DATUM_FUNCTIONAL
 70
0
 62
7
  6
CONTINUOUS
370
-3
390
F
  0
LAYER
  5
20D
100
AcDbSymbolTableRecord
100
AcDbLayerTableRecord
  2
20_DATUM_KINEMATIC_SCHEME
 70
0
 62
7
  6
CONTINUOUS
370
-3
390
F
  0
ENDTAB
  0
TABLE
  2
STYLE
  5
3
100
AcDbSymbolTable
 70
1
  0
STYLE
  5
11
100
AcDbSymbolTableRecord
100
AcDbTextStyleTableRecord
  2
STANDARD
 70
0
 40
0.0
 41
1.0
 50
0.0
 71
0
 42
0.2
  3
ARIAL.TTF
  4

  0
STYLE
  5
20E
100
AcDbSymbolTableRecord
100
AcDbTextStyleTableRecord
  2
TEXTSTYLE_1
 70
0
 40
0.0
 41
0.8
 50
0.0
 71
0
 42
0.2
  3
gdt
  4

  0
ENDTAB
  0
TABLE
  2
VIEW
  5
6
100
AcDbSymbolTable
 70
0
  0
ENDTAB
  0
TABLE
  2
UCS
  5
7
100
AcDbSymbolTable
 70
0
  0
ENDTAB
  0
TABLE
  2
APPID
  5
9
100
AcDbSymbolTable
 70
1
  0
APPID
  5
20F
100
AcDbSymbolTableRecord
100
AcDbRegAppTableRecord
  2
ACAD
 70
0
  0
ENDTAB
  0
TABLE
  2
BLOCK_RECORD
  5
1
100
AcDbSymbolTable
 70
0
  0
BLOCK_RECORD
  5
210
100
AcDbSymbolTableRecord
100
AcDbBlockTableRecord
  2
*Model_Space
  0
BLOCK_RECORD
  5
211
100
AcDbSymbolTableRecord
100
AcDbBlockTableRecord
  2
*Paper_Space
  0
BLOCK_RECORD
  5
212
100
AcDbSymbolTableRecord
100
AcDbBlockTableRecord
  2
_FILLED
  0
ENDTAB
  0
TABLE
  2
DIMSTYLE
  5
A
100
AcDbSymbolTable
 70
1
100
AcDbDimStyleTable
 71
0
  0
DIMSTYLE
105
213
100
AcDbSymbolTableRecord
100
AcDbDimStyleTableRecord
  2
STANDARD
 70
0
  3

  4

 40
1.0
 41
0.9007020892
 42
1.0
 43
0.38
 44
1.0
 45
0.0
 46
0.0
 47
0.01
 48
0.01
140
1.2609829249
141
0.09
142
0.0
143
25.4
144
1.0
145
0.0
146
1.0
147
0.625
 71
1
 72
0
 73
0
 74
0
 75
0
 76
0
 77
1
 78
8
 79
2
170
0
171
1
172
0
173
0
174
0
175
0
176
0
177
0
178
0
270
2
179
2
271
2
272
2
273
2
274
2
275
0
280
0
281
0
282
0
283
1
284
8
285
0
286
0
287
3
288
0
340
11
278
46
341
212
342
212
343
212
344
212
  0
ENDTAB
  0
ENDSEC
  0
SECTION
  2
BLOCKS
  0
BLOCK
  5
20
100
AcDbEntity
  8
0
100
AcDbBlockBegin
  2
*Model_Space
 70
0
 10
0.0
 20
0.0
 30
0.0
  3
*Model_Space
  1

  0
ENDBLK
  5
21
100
AcDbEntity
  8
0
100
AcDbBlockEnd
  0
BLOCK
  5
1C
100
AcDbEntity
  8
0
100
AcDbBlockBegin
  2
*Paper_Space
 70
0
 10
0.0
 20
0.0
 30
0.0
  3
*Paper_Space
  1

  0
ENDBLK
  5
1D
100
AcDbEntity
  8
0
100
AcDbBlockEnd
  0
BLOCK
  5
214
100
AcDbEntity
  8
0
100
AcDbBlockBegin
  2
_FILLED
 70
64
 10
0.0
 20
0.0
  3
_FILLED
  1

  0
SOLID
  5
215
100
AcDbEntity
  8
0
  6
BYBLOCK
 62
0
100
AcDbTrace
 10
0.0
 20
0.0
 11
-1.0
 21
0.25
 12
-1.0
 22
-0.25
 13
-1.0
 23
-0.25
  0
ENDBLK
  5
216
100
AcDbEntity
  8
0
  6
BYBLOCK
 62
0
100
AcDbBlockEnd
  0
ENDSEC
  0
SECTION
  2
ENTITIES
  0
LINE
  5
217
100
AcDbEntity
  8
0
100
AcDbLine
 62
7
  6
BYLAYER
 10
8.7339292741
 20
65.8811424644
 11
8.7339292741
 21
78.7394225294
  0
LINE
  5
218
100
AcDbEntity
  8
0
100
AcDbLine
 62
7
  6
BYLAYER
 10
12.0817324112
 20
61.2149117857
 11
12.0817324112
 21
74.0731918506
  0
LINE
  5
219
100
AcDbEntity
  8
0
100
AcDbLine
 62
7
  6
BYLAYER
 10
36.3826486495
 20
76.6969069746
 11
30.4912630675
 21
73.2955342264
  0
LINE
  5
21A
100
AcDbEntity
  8
0
100
AcDbLine
 62
7
  6
BYLAYER
 10
17.3609981802
 20
63.6850799636
 11
20.0550638
 21
65.2404901898
  0
LINE
  5
21B
100
AcDbEntity
  8
0
100
AcDbLine
 62
7
  6
BYLAYER
 10
31.8701423997
 20
71.462524366
 11
24.236956477
 21
67.0555287249
  0
LINE
  5
21C
100
AcDbEntity
  8
0
100
AcDbLine
 62
7
  6
BYLAYER
 10
25.6738034385
 20
64.5668506002
 11
33.3069893612
 21
68.9738462412
  0
LINE
  5
21D
100
AcDbEntity
  8
0
100
AcDbLine
 62
7
  6
BYLAYER
 10
26.8830889186
 20
74.3417358993
 11
26.8830889186
 21
75.3786674158
  0
LINE
  5
21E
100
AcDbEntity
  8
0
100
AcDbLine
 62
7
  6
BYLAYER
 10
21.1709811233
 20
57.0859565389
 11
23.865046743
 21
58.6413667652
  0
LINE
  5
21F
100
AcDbEntity
  8
0
100
AcDbLine
 62
7
  6
BYLAYER
 10
24.236956477
 20
54.19724866
 11
25.6738034385
 21
55.0268363584
  0
LINE
  5
220
100
AcDbEntity
  8
0
100
AcDbLine
 62
7
  6
BYLAYER
 10
24.236956477
 20
54.19724866
 11
12.0817324317
 21
61.2149117738
  0
LINE
  5
221
100
AcDbEntity
  8
0
100
AcDbLine
 62
7
  6
BYLAYER
 10
25.6738034385
 20
64.5668506002
 11
24.236956477
 21
67.0555287249
  0
LINE
  5
222
100
AcDbEntity
  8
0
100
AcDbLine
 62
7
  6
BYLAYER
 10
50.5406612319
 20
40.6702741063
 11
25.6738034385
 21
55.0268363584
  0
LINE
  5
223
100
AcDbEntity
  8
0
100
AcDbLine
 62
7
  6
BYLAYER
 10
25.6738034385
 20
64.5668506002
 11
51.2645966469
 21
49.7923334967
  0
LINE
  5
224
100
AcDbEntity
  8
0
100
AcDbLine
 62
7
  6
BYLAYER
 10
31.8701423997
 20
71.462524366
 11
33.3069893612
 21
68.9738462412
  0
LWPOLYLINE
  5
225
100
AcDbEntity
  8
0
100
AcDbPolyline
 62
7
  6
BYLAYER
 90
4
 70
0
 10
34.8994709624
 20
68.0544473597
 10
34.4347565591
 20
69.1282549697
 10
32.6331280079
 20
71.5642058179
 10
30.4912630675
 20
73.2955342264
  0
LINE
  5
226
100
AcDbEntity
  8
0
100
AcDbLine
 62
7
  6
BYLAYER
 10
12.0817324317
 20
74.0731918388
 11
24.236956477
 21
67.0555287249
  0
LINE
  5
227
100
AcDbEntity
  8
0
100
AcDbLine
 62
7
  6
BYLAYER
 10
49.0166612319
 20
37.813769406
 11
49.0166612319
 21
32.6393486379
  0
LINE
  5
228
100
AcDbEntity
  8
0
100
AcDbLine
 62
7
  6
BYLAYER
 10
49.0166612319
 20
32.6289790572
 11
49.0166612319
 21
27.4441887084
  0
LINE
  5
229
100
AcDbEntity
  8
0
100
AcDbLine
 62
7
  6
BYLAYER
 10
64.1991990334
 20
51.1386241577
 11
33.3069893612
 21
68.9738462412
  0
LINE
  5
22A
100
AcDbEntity
  8
0
100
AcDbLine
 62
7
  6
BYLAYER
 10
50.5406612319
 20
47.8722626826
 11
50.5406612319
 21
38.3322484408
  0
LINE
  5
22B
100
AcDbEntity
  8
0
100
AcDbLine
 62
7
  6
BYLAYER
 10
25.9850670453
 20
74.8601973404
 11
31.8701423997
 21
71.462524366
  0
LINE
  5
22C
100
AcDbEntity
  8
0
100
AcDbLine
 62
7
  6
BYLAYER
 10
30.4912630675
 20
73.2955342264
 11
26.8830889186
 21
75.3786674158
  0
LINE
  5
22D
100
AcDbEntity
  8
0
100
AcDbLine
 62
7
  6
BYLAYER
 10
55.3666612319
 20
47.8722626826
 11
55.3666612319
 21
48.4944375244
  0
LINE
  5
22E
100
AcDbEntity
  8
0
100
AcDbLine
 62
7
  6
BYLAYER
 10
36.3826486495
 20
76.6969069746
 11
28.2461261355
 21
83.4056532035
  0
LWPOLYLINE
  5
22F
100
AcDbEntity
  8
0
100
AcDbPolyline
 62
7
  6
BYLAYER
 90
4
 70
0
 10
50.5406612319
 20
40.6355412337
 10
49.82860108
 20
40.0354607678
 10
49.0273250519
 20
38.0738294881
 10
49.0170694217
 20
37.8137695742
  0
LINE
  5
230
100
AcDbEntity
  8
0
100
AcDbLine
 62
7
  6
BYLAYER
 10
61.7166612319
 20
47.8722626826
 11
61.7166612319
 21
48.4944375244
  0
LWPOLYLINE
  5
231
100
AcDbEntity
  8
0
100
AcDbPolyline
 62
7
  6
BYLAYER
 90
3
 70
0
 10
68.066253042
 20
37.8137692378
 10
67.572048908
 20
39.5627909422
 10
66.5426612319
 20
40.6284667601
  0
LINE
  5
232
100
AcDbEntity
  8
0
100
AcDbLine
 62
7
  6
BYLAYER
 10
66.5426612319
 20
47.8722626826
 11
66.5426612319
 21
38.3322484408
  0
LINE
  5
233
100
AcDbEntity
  8
0
100
AcDbLine
 62
7
  6
BYLAYER
 10
68.0666612319
 20
37.813769406
 11
68.0666612319
 21
27.4441887084
  0
LINE
  5
234
100
AcDbEntity
  8
0
100
AcDbLine
 62
7
  6
BYLAYER
 10
68.0666612319
 20
32.6393486379
 11
68.0662471302
 21
32.6289998114
  0
SPLINE
  5
235
100
AcDbEntity
  8
0
100
AcDbSpline
 62
7
  6
BYLAYER
 70
0
 71
3
 72
13
 73
9
 74
0
 42
0.0000001
 43
0.0000001
 44
0.0000000001
 40
0.0
 40
0.0
 40
0.0
 40
0.0
 40
0.108092921
 40
0.2182327527
 40
0.3322577558
 40
0.4516878702
 40
0.7106275001
 40
1.0
 40
1.0
 40
1.0
 40
1.0
 10
17.3610122053
 20
63.6850556681
 30
0.0
 10
17.2985463836
 20
63.648993264
 30
0.0
 10
17.1784171508
 20
63.5652200041
 30
0.0
 10
17.0197782576
 20
63.4089889398
 30
0.0
 10
16.8832656338
 20
63.2236594936
 30
0.0
 10
16.7284914331
 20
62.9326921253
 30
0.0
 10
16.6010093309
 20
62.5009814959
 30
0.0
 10
16.5719015989
 20
62.1340078638
 30
0.0
 10
16.5719015989
 20
61.940915526
 30
0.0
  0
SPLINE
  5
236
100
AcDbEntity
  8
0
100
AcDbSpline
 62
7
  6
BYLAYER
 70
0
 71
3
 72
24
 73
20
 74
0
 42
0.0000001
 43
0.0000001
 44
0.0000000001
 40
0.0
 40
0.0
 40
0.0
 40
0.0
 40
0.0623810476
 40
0.1287355851
 40
0.1983285459
 40
0.27031152
 40
0.3436932042
 40
0.4174313717
 40
0.4904623772
 40
0.5617550415
 40
0.6303583469
 40
0.695451439
 40
0.7564034493
 40
0.8128445103
 40
0.8647486981
 40
0.912527099
 40
0.9571047532
 40
0.9786664721
 40
1.0
 40
1.0
 40
1.0
 40
1.0
 10
65.2768813639
 20
23.5556955216
 30
0.0
 10
64.9347042349
 20
23.3581406433
 30
0.0
 10
64.2012990665
 20
22.9965751295
 30
0.0
 10
63.0183087273
 20
22.5678654521
 30
0.0
 10
61.7398254756
 20
22.2433702863
 30
0.0
 10
60.3933780296
 20
22.0298205269
 30
0.0
 10
59.0073814694
 20
21.9318415109
 30
0.0
 10
57.6114568254
 20
21.951491114
 30
0.0
 10
56.2353642854
 20
22.0883430521
 30
0.0
 10
54.9084386145
 20
22.3394802802
 30
0.0
 10
53.658868791
 20
22.699591776
 30
0.0
 10
52.5130763607
 20
23.1611781915
 30
0.0
 10
51.4951466767
 20
23.7148487927
 30
0.0
 10
50.626383291
 20
24.3496431467
 30
0.0
 10
49.9252733146
 20
25.0538173191
 30
0.0
 10
49.4079606511
 20
25.8142696485
 30
0.0
 10
49.1393008056
 20
26.4918238726
 30
0.0
 10
49.034166754
 20
27.0370439665
 30
0.0
 10
49.0167007154
 20
27.3090657004
 30
0.0
 10
49.0166880251
 20
27.4441888357
 30
0.0
  0
SPLINE
  5
237
100
AcDbEntity
  8
0
100
AcDbSpline
 62
7
  6
BYLAYER
 70
0
 71
3
 72
20
 73
16
 74
0
 42
0.0000001
 43
0.0000001
 44
0.0000000001
 40
0.0
 40
0.0
 40
0.0
 40
0.0
 40
0.0428301934
 40
0.0874300654
 40
0.135230809
 40
0.1871626849
 40
0.2436313949
 40
0.3046123661
 40
0.3697377603
 40
0.4383727879
 40
0.5826247827
 40
0.729691332
 40
0.8711897027
 40
0.9376088885
 40
1.0
 40
1.0
 40
1.0
 40
1.0
 10
61.7166427517
 20
48.4944375245
 30
0.0
 10
61.7166273085
 20
48.5848174804
 30
0.0
 10
61.6925051615
 20
48.7701032433
 30
0.0
 10
61.5861835412
 20
49.0376064246
 30
0.0
 10
61.4138156791
 20
49.2912562674
 30
0.0
 10
61.1800852241
 20
49.5259153116
 30
0.0
 10
60.8905082011
 20
49.7375237709
 30
0.0
 10
60.5512221227
 20
49.922091527
 30
0.0
 10
60.1692780011
 20
50.0759374408
 30
0.0
 10
59.6047746687
 20
50.2386105943
 30
0.0
 10
58.8481818045
 20
50.3447091075
 30
0.0
 10
57.9314134847
 20
50.3194081624
 30
0.0
 10
57.1921874109
 20
50.1715917768
 30
0.0
 10
56.6551242767
 20
49.9769246696
 30
0.0
 10
56.4106065581
 20
49.8564302563
 30
0.0
 10
56.2965878545
 20
49.79060192
 30
0.0
  0
SPLINE
  5
238
100
AcDbEntity
  8
0
100
AcDbSpline
 62
7
  6
BYLAYER
 70
0
 71
3
 72
24
 73
20
 74
0
 42
0.0000001
 43
0.0000001
 44
0.0000000001
 40
0.0
 40
0.0
 40
0.0
 40
0.0
 40
0.0623811807
 40
0.1287357264
 40
0.1983283803
 40
0.2703117434
 40
0.3436945079
 40
0.417431996
 40
0.4904620095
 40
0.5617540271
 40
0.6303569701
 40
0.6954500956
 40
0.7564023765
 40
0.8128437978
 40
0.8647483474
 40
0.9125270398
 40
0.9571048232
 40
0.9786664905
 40
1.0
 40
1.0
 40
1.0
 40
1.0
 10
65.2768813639
 20
28.7508554511
 30
0.0
 10
64.9347032188
 20
28.5532999862
 30
0.0
 10
64.2012964746
 20
28.1917340858
 30
0.0
 10
63.0183064131
 20
27.7630238425
 30
0.0
 10
61.7398219618
 20
27.438526429
 30
0.0
 10
60.3933658845
 20
27.2249765469
 30
0.0
 10
59.007363203
 20
27.1269968011
 30
0.0
 10
57.6114411296
 20
27.1466465686
 30
0.0
 10
56.2353621289
 20
27.2834971532
 30
0.0
 10
54.9084473997
 20
27.5346299463
 30
0.0
 10
53.658882064
 20
27.8947384877
 30
0.0
 10
52.5130877097
 20
28.3563217808
 30
0.0
 10
51.495152049
 20
28.9099923625
 30
0.0
 10
50.6263819139
 20
29.5447897912
 30
0.0
 10
49.9252659506
 20
30.2489681704
 30
0.0
 10
49.4079493685
 20
31.0094252429
 30
0.0
 10
49.1392914779
 20
31.686983211
 30
0.0
 10
49.0341555841
 20
32.2322038013
 30
0.0
 10
49.0166910266
 20
32.504225507
 30
0.0
 10
49.016679022
 20
32.6393486384
 30
0.0
  0
SPLINE
  5
239
100
AcDbEntity
  8
0
100
AcDbSpline
 62
7
  6
BYLAYER
 70
0
 71
3
 72
24
 73
20
 74
0
 42
0.0000001
 43
0.0000001
 44
0.0000000001
 40
0.0
 40
0.0
 40
0.0
 40
0.0
 40
0.0623811788
 40
0.1287363334
 40
0.1983290696
 40
0.2703120977
 40
0.3436935993
 40
0.417430791
 40
0.4904611282
 40
0.5617534988
 40
0.6303566155
 40
0.6954496271
 40
0.7564017315
 40
0.8128431134
 40
0.8647477618
 40
0.9125263315
 40
0.9571036497
 40
0.9786659272
 40
1.0
 40
1.0
 40
1.0
 40
1.0
 10
64.1992461428
 20
35.0659141639
 30
0.0
 10
63.9118167416
 20
34.8999677124
 30
0.0
 10
63.2957517104
 20
34.5962532185
 30
0.0
 10
62.3020380168
 20
34.2361339233
 30
0.0
 10
61.2281090438
 20
33.9635598771
 30
0.0
 10
60.0970951208
 20
33.7841780541
 30
0.0
 10
58.9328636732
 20
33.7018777582
 30
0.0
 10
57.7602967454
 20
33.7183838482
 30
0.0
 10
56.6043891898
 20
33.8333371899
 30
0.0
 10
55.4897770001
 20
34.0442878255
 30
0.0
 10
54.4401402169
 20
34.3467773846
 30
0.0
 10
53.4776748758
 20
34.7345085803
 30
0.0
 10
52.6226119065
 20
35.1995914009
 30
0.0
 10
51.8928428905
 20
35.7328161893
 30
0.0
 10
51.3039050094
 20
36.3243236669
 30
0.0
 10
50.8693530782
 20
36.9630998726
 30
0.0
 10
50.6436802019
 20
37.5322480129
 30
0.0
 10
50.5553654907
 20
37.9902374694
 30
0.0
 10
50.5407056202
 20
38.2187421956
 30
0.0
 10
50.5406940617
 20
38.3322485312
 30
0.0
  0
SPLINE
  5
23A
100
AcDbEntity
  8
0
100
AcDbSpline
 62
7
  6
BYLAYER
 70
0
 71
3
 72
11
 73
7
 74
0
 42
0.0000001
 43
0.0000001
 44
0.0000000001
 40
0.0
 40
0.0
 40
0.0
 40
0.0
 40
0.2666480428
 40
0.5196641864
 40
0.7624977234
 40
1.0
 40
1.0
 40
1.0
 40
1.0
 10
51.2645966469
 20
49.7923334967
 30
0.0
 10
51.1493466211
 20
49.6467385365
 30
0.0
 10
50.9433974398
 20
49.3473603057
 30
0.0
 10
50.7123729975
 20
48.8666951079
 30
0.0
 10
50.5721422605
 20
48.3729441831
 30
0.0
 10
50.5406778015
 20
48.0376552943
 30
0.0
 10
50.5406936996
 20
47.8722627586
 30
0.0
  0
SPLINE
  5
23B
100
AcDbEntity
  8
0
100
AcDbSpline
 62
7
  6
BYLAYER
 70
0
 71
3
 72
14
 73
10
 74
0
 42
0.0000001
 43
0.0000001
 44
0.0000000001
 40
0.0
 40
0.0
 40
0.0
 40
0.0
 40
0.1101655408
 40
0.2220570444
 40
0.3372668152
 40
0.4571376577
 40
0.5827552392
 40
0.7149245102
 40
1.0
 40
1.0
 40
1.0
 40
1.0
 10
29.0539047336
 20
78.7394225351
 30
0.0
 10
29.053892419
 20
78.5865006597
 30
0.0
 10
29.029862637
 20
78.2777450773
 30
0.0
 10
28.9223104245
 20
77.8203837706
 30
0.0
 10
28.7444170365
 20
77.3710590566
 30
0.0
 10
28.4981338038
 20
76.9335296631
 30
0.0
 10
28.1855247283
 20
76.5111237992
 30
0.0
 10
27.6712785837
 20
75.9586963532
 30
0.0
 10
27.2123829439
 20
75.5981137199
 30
0.0
 10
26.8830889186
 20
75.3786674158
 30
0.0
  0
SPLINE
  5
23C
100
AcDbEntity
  8
0
100
AcDbSpline
 62
7
  6
BYLAYER
 70
0
 71
3
 72
15
 73
11
 74
0
 42
0.0000001
 43
0.0000001
 44
0.0000000001
 40
0.0
 40
0.0
 40
0.0
 40
0.0
 40
0.1485552698
 40
0.2895102443
 40
0.4227336065
 40
0.5486407192
 40
0.6680011625
 40
0.7819397656
 40
0.8919883364
 40
1.0
 40
1.0
 40
1.0
 40
1.0
 10
12.0816651139
 20
83.4056143525
 30
0.0
 10
11.8239324953
 20
83.2568132439
 30
0.0
 10
11.333338369
 20
82.9457933055
 30
0.0
 10
10.6625317624
 20
82.4266930514
 30
0.0
 10
10.0823466581
 20
81.8713164054
 30
0.0
 10
9.5985978575
 20
81.2849158728
 30
0.0
 10
9.2161042634
 20
80.6726768676
 30
0.0
 10
8.9392736948
 20
80.0400557992
 30
0.0
 10
8.7715019846
 20
79.393532233
 30
0.0
 10
8.7339723926
 20
78.9558043145
 30
0.0
 10
8.7339723921
 20
78.7394225294
 30
0.0
  0
SPLINE
  5
23D
100
AcDbEntity
  8
0
100
AcDbSpline
 62
7
  6
BYLAYER
 70
0
 71
3
 72
17
 73
13
 74
0
 42
0.0000001
 43
0.0000001
 44
0.0000000001
 40
0.0
 40
0.0
 40
0.0
 40
0.0
 40
0.0558415896
 40
0.1142241426
 40
0.2373703933
 40
0.3669996141
 40
0.5000005109
 40
0.6330013366
 40
0.7626303499
 40
0.8857762737
 40
0.9441586288
 40
1.0
 40
1.0
 40
1.0
 40
1.0
 10
28.2461261355
 20
83.4056532035
 30
0.0
 10
27.97542208
 20
83.5619407271
 30
0.0
 10
27.4075688359
 20
83.8576552
 30
0.0
 10
26.1844224525
 20
84.3792617049
 30
0.0
 10
24.5124025655
 20
84.8873520639
 30
0.0
 10
22.3797598498
 20
85.2558582028
 30
0.0
 10
20.1638821545
 20
85.3802288179
 30
0.0
 10
17.9480062017
 20
85.2558477212
 30
0.0
 10
15.8153686515
 20
84.887331478
 30
0.0
 10
14.143355448
 20
84.3792330416
 30
0.0
 10
12.9202161515
 20
83.8576204934
 30
0.0
 10
12.3523669835
 20
83.5619032168
 30
0.0
 10
12.0816651139
 20
83.4056143525
 30
0.0
  0
SPLINE
  5
23E
100
AcDbEntity
  8
0
100
AcDbSpline
 62
7
  6
BYLAYER
 70
0
 71
3
 72
23
 73
19
 74
0
 42
0.0000001
 43
0.0000001
 44
0.0000000001
 40
0.0
 40
0.0
 40
0.0
 40
0.0
 40
0.0642793303
 40
0.1321346384
 40
0.2027795218
 40
0.2753774376
 40
0.348966566
 40
0.4225556894
 40
0.4951527026
 40
0.5658035103
 40
0.6336397493
 40
0.6979261493
 40
0.758113444
 40
0.8139007
 40
0.8653126104
 40
0.9127846831
 40
0.9572249778
 40
1.0
 40
1.0
 40
1.0
 40
1.0
 10
25.9850670453
 20
74.8601973404
 30
0.0
 10
25.65534385
 20
74.695275294
 30
0.0
 10
24.9570523005
 20
74.3962562253
 30
0.0
 10
23.8454461527
 20
74.0486078148
 30
0.0
 10
22.6598269205
 20
73.7952882529
 30
0.0
 10
21.4243068604
 20
73.6412042499
 30
0.0
 10
20.1634280803
 20
73.5895524129
 30
0.0
 10
18.9025656401
 20
73.6413161674
 30
0.0
 10
17.6670078115
 20
73.7954261714
 30
0.0
 10
16.4815316507
 20
74.04884969
 30
0.0
 10
15.3698461143
 20
74.396576881
 30
0.0
 10
14.3540377716
 20
74.8317494298
 30
0.0
 10
13.4541735205
 20
75.3460207668
 30
0.0
 10
12.6880319306
 20
75.929927375
 30
0.0
 10
12.071081375
 20
76.5731411601
 30
0.0
 10
11.6168057813
 20
77.264808249
 30
0.0
 10
11.3373546197
 20
77.991854309
 30
0.0
 10
11.2739577547
 20
78.4940899878
 30
0.0
 10
11.2739398355
 20
78.7394225852
 30
0.0
  0
SPLINE
  5
23F
100
AcDbEntity
  8
0
100
AcDbSpline
 62
7
  6
BYLAYER
 70
0
 71
3
 72
15
 73
11
 74
0
 42
0.0000001
 43
0.0000001
 44
0.0000000001
 40
0.0
 40
0.0
 40
0.0
 40
0.0
 40
0.1485555334
 40
0.2895107144
 40
0.4227342069
 40
0.5486413619
 40
0.6680017541
 40
0.7819402176
 40
0.8919885811
 40
1.0
 40
1.0
 40
1.0
 40
1.0
 10
12.0817324317
 20
61.2149117738
 30
0.0
 10
11.8239949542
 20
61.3637132096
 30
0.0
 10
11.3333914748
 20
61.6747341756
 30
0.0
 10
10.6625716751
 20
62.1938372612
 30
0.0
 10
10.0823748882
 20
62.7492178228
 30
0.0
 10
9.5986161558
 20
63.3356232309
 30
0.0
 10
9.2161145532
 20
63.9478679114
 30
0.0
 10
8.9392781196
 20
64.5804953238
 30
0.0
 10
8.7715027943
 20
65.2270256923
 30
0.0
 10
8.7339723968
 20
65.6647583751
 30
0.0
 10
8.7339723921
 20
65.8811424645
 30
0.0
  0
SPLINE
  5
240
100
AcDbEntity
  8
0
100
AcDbSpline
 62
7
  6
BYLAYER
 70
0
 71
3
 72
15
 73
11
 74
0
 42
0.0000001
 43
0.0000001
 44
0.0000000001
 40
0.0
 40
0.0
 40
0.0
 40
0.0
 40
0.1080114032
 40
0.218059741
 40
0.3320033963
 40
0.4513537743
 40
0.5772571051
 40
0.7104978997
 40
0.8514734068
 40
1.0
 40
1.0
 40
1.0
 40
1.0
 10
66.5426475725
 20
38.3322484408
 30
0.0
 10
66.5426475761
 20
38.1807818553
 30
0.0
 10
66.516286726
 20
37.8743857701
 30
0.0
 10
66.3989659231
 20
37.4217829542
 30
0.0
 10
66.2050716243
 20
36.9790035726
 30
0.0
 10
65.9374363967
 20
36.550389761
 30
0.0
 10
65.5987628443
 20
36.1399375983
 30
0.0
 10
65.1926149273
 20
35.7511285255
 30
0.0
 10
64.723010841
 20
35.3877886105
 30
0.0
 10
64.3796237935
 20
35.1700546275
 30
0.0
 10
64.1992461428
 20
35.0659141639
 30
0.0
  0
SPLINE
  5
241
100
AcDbEntity
  8
0
100
AcDbSpline
 62
7
  6
BYLAYER
 70
0
 71
3
 72
15
 73
11
 74
0
 42
0.0000001
 43
0.0000001
 44
0.0000000001
 40
0.0
 40
0.0
 40
0.0
 40
0.0
 40
0.1080111582
 40
0.2180592886
 40
0.3320028048
 40
0.451353132
 40
0.5772565046
 40
0.7104974287
 40
0.851473143
 40
1.0
 40
1.0
 40
1.0
 40
1.0
 10
66.5426475725
 20
47.8722626826
 30
0.0
 10
66.5426475827
 20
48.0237308801
 30
0.0
 10
66.5162861516
 20
48.330130298
 30
0.0
 10
66.3989628329
 20
48.7827378767
 30
0.0
 10
66.2050644193
 20
49.2255216944
 30
0.0
 10
65.9374235935
 20
49.6541394813
 30
0.0
 10
65.5987430888
 20
50.0645950526
 30
0.0
 10
65.1925869993
 20
50.453406868
 30
0.0
 10
64.7229736782
 20
50.8167487621
 30
0.0
 10
64.3795800845
 20
51.0344834653
 30
0.0
 10
64.1991990334
 20
51.1386241577
 30
0.0
  0
SPLINE
  5
242
100
AcDbEntity
  8
0
100
AcDbSpline
 62
7
  6
BYLAYER
 70
0
 71
3
 72
15
 73
11
 74
0
 42
0.0000001
 43
0.0000001
 44
0.0000000001
 40
0.0
 40
0.0
 40
0.0
 40
0.0
 40
0.107994209
 40
0.2180531449
 40
0.3320189538
 40
0.4514010701
 40
0.5773225217
 40
0.7105534642
 40
0.8514985933
 40
1.0
 40
1.0
 40
1.0
 40
1.0
 10
68.0666275001
 20
32.6289994095
 30
0.0
 10
68.0660572295
 20
32.4490826799
 30
0.0
 10
68.0336609227
 20
32.0851884319
 30
0.0
 10
67.8928473995
 20
31.5478491979
 30
0.0
 10
67.6614696016
 20
31.0221665389
 30
0.0
 10
67.3426418476
 20
30.5133768327
 30
0.0
 10
66.9397775311
 20
30.0261026956
 30
0.0
 10
66.4569887542
 20
29.5645379868
 30
0.0
 10
65.8990466246
 20
29.1331214571
 30
0.0
 10
65.4911384081
 20
28.8745560748
 30
0.0
 10
65.2768813639
 20
28.7508554511
 30
0.0
  0
SPLINE
  5
243
100
AcDbEntity
  8
0
100
AcDbSpline
 62
7
  6
BYLAYER
 70
0
 71
3
 72
13
 73
9
 74
0
 42
0.0000001
 43
0.0000001
 44
0.0000000001
 40
0.0
 40
0.0
 40
0.0
 40
0.0
 40
0.2893483905
 40
0.5483239859
 40
0.6677499515
 40
0.7817640904
 40
0.8919051578
 40
1.0
 40
1.0
 40
1.0
 40
1.0
 10
56.2965878545
 20
49.79060192
 30
0.0
 10
56.1572523321
 20
49.7101569989
 30
0.0
 10
55.9045528478
 20
49.5362348108
 30
0.0
 10
55.6461130644
 20
49.2643712258
 30
0.0
 10
55.5005836638
 20
49.0314521831
 30
0.0
 10
55.4237534244
 20
48.8557092979
 30
0.0
 10
55.3771126932
 20
48.6761399007
 30
0.0
 10
55.3666694417
 20
48.5545430591
 30
0.0
 10
55.366679712
 20
48.4944375244
 30
0.0
  0
SPLINE
  5
244
100
AcDbEntity
  8
0
100
AcDbSpline
 62
7
  6
BYLAYER
 70
0
 71
3
 72
21
 73
17
 74
0
 42
0.0000001
 43
0.0000001
 44
0.0000000001
 40
0.0
 40
0.0
 40
0.0
 40
0.0
 40
0.062390581
 40
0.1287889117
 40
0.1984042298
 40
0.2704109974
 40
0.4174473261
 40
0.5616784001
 40
0.6303072025
 40
0.6954227848
 40
0.7563977867
 40
0.8128610467
 40
0.8647835487
 40
0.9125801548
 40
0.9571748821
 40
1.0
 40
1.0
 40
1.0
 40
1.0
 10
16.5719015989
 20
61.940915526
 30
0.0
 10
16.5719015989
 20
61.7829040805
 30
0.0
 10
16.5933740293
 20
61.4565174936
 30
0.0
 10
16.6814042389
 20
60.9609642756
 30
0.0
 10
16.8246973784
 20
60.4531200263
 30
0.0
 10
17.0869550054
 20
59.7698334506
 30
0.0
 10
17.5270439643
 20
58.9566492764
 30
0.0
 10
18.0911715401
 20
58.2342624404
 30
0.0
 10
18.5988990399
 20
57.7451251653
 30
0.0
 10
18.9880061356
 20
57.4405553781
 30
0.0
 10
19.3833727058
 20
57.1986530844
 30
0.0
 10
19.7770395331
 20
57.0246531403
 30
0.0
 10
20.1611693151
 20
56.9226303679
 30
0.0
 10
20.528194507
 20
56.8955907012
 30
0.0
 10
20.8699918529
 20
56.9456746348
 30
0.0
 10
21.0770368427
 20
57.0317535668
 30
0.0
 10
21.1709670981
 20
57.0859808344
 30
0.0
  0
SPLINE
  5
245
100
AcDbEntity
  8
0
100
AcDbSpline
 62
7
  6
BYLAYER
 70
0
 71
3
 72
15
 73
11
 74
0
 42
0.0000001
 43
0.0000001
 44
0.0000000001
 40
0.0
 40
0.0
 40
0.0
 40
0.0
 40
0.1080098756
 40
0.2180560723
 40
0.3319965849
 40
0.4513533319
 40
0.5772589892
 40
0.7104908303
 40
0.8514573334
 40
1.0
 40
1.0
 40
1.0
 40
1.0
 10
68.0666344386
 20
27.4441885812
 30
0.0
 10
68.0666513732
 20
27.2638734569
 30
0.0
 10
68.0353107325
 20
26.8991137129
 30
0.0
 10
67.8955841522
 20
26.3603281776
 30
0.0
 10
67.6648179227
 20
25.833181569
 30
0.0
 10
67.3461447256
 20
25.322948864
 30
0.0
 10
66.9429877162
 20
24.8342971902
 30
0.0
 10
66.4594910033
 20
24.3714504047
 30
0.0
 10
65.9004563096
 20
23.9388834024
 30
0.0
 10
65.491640272
 20
23.6796858949
 30
0.0
 10
65.2768813639
 20
23.5556955216
 30
0.0
  0
SPLINE
  5
246
100
AcDbEntity
  8
0
100
AcDbSpline
 62
7
  6
BYLAYER
 70
0
 71
3
 72
15
 73
11
 74
0
 42
0.0000001
 43
0.0000001
 44
0.0000000001
 40
0.0
 40
0.0
 40
0.0
 40
0.0
 40
0.1080096505
 40
0.2180557796
 40
0.3319982787
 40
0.4513514114
 40
0.5772561057
 40
0.7104940704
 40
0.8514670108
 40
1.0
 40
1.0
 40
1.0
 40
1.0
 10
11.2739398355
 20
78.7394225852
 30
0.0
 10
11.2739275433
 20
78.9077161538
 30
0.0
 10
11.3032183738
 20
79.2481523885
 30
0.0
 10
11.4335871097
 20
79.7510317652
 30
0.0
 10
11.6490129355
 20
80.2430136052
 30
0.0
 10
11.9464000939
 20
80.7192483443
 30
0.0
 10
12.3226979424
 20
81.1753134293
 30
0.0
 10
12.7739677094
 20
81.6073211444
 30
0.0
 10
13.2957456568
 20
82.0110410958
 30
0.0
 10
13.6772954596
 20
82.2529661635
 30
0.0
 10
13.877723814
 20
82.3686828371
 30
0.0
  0
SPLINE
  5
247
100
AcDbEntity
  8
0
100
AcDbSpline
 62
7
  6
BYLAYER
 70
0
 71
3
 72
15
 73
11
 74
0
 42
0.0000001
 43
0.0000001
 44
0.0000000001
 40
0.0
 40
0.0
 40
0.0
 40
0.0
 40
0.1080114152
 40
0.2180597761
 40
0.3319982387
 40
0.4513586288
 40
0.5772657827
 40
0.7104892788
 40
0.8514444676
 40
1.0
 40
1.0
 40
1.0
 40
1.0
 10
8.7339723921
 20
78.7394225294
 30
0.0
 10
8.7339723916
 20
78.5230384474
 30
0.0
 10
8.7715028024
 20
78.0853057788
 30
0.0
 10
8.9392781021
 20
77.4387754193
 30
0.0
 10
9.2161145488
 20
76.8061480251
 30
0.0
 10
9.5986161193
 20
76.193903336
 30
0.0
 10
10.0823748569
 20
75.6074979301
 30
0.0
 10
10.6625716482
 20
75.0521173443
 30
0.0
 10
11.3333914715
 20
74.5330142554
 30
0.0
 10
11.823994956
 20
74.2219932735
 30
0.0
 10
12.0817324317
 20
74.0731918388
 30
0.0
  0
SPLINE
  5
248
100
AcDbEntity
  8
0
100
AcDbSpline
 62
7
  6
BYLAYER
 70
0
 71
3
 72
13
 73
9
 74
0
 42
0.0000001
 43
0.0000001
 44
0.0000000001
 40
0.0
 40
0.0
 40
0.0
 40
0.0
 40
0.1080957331
 40
0.2182376275
 40
0.3322520467
 40
0.4516795008
 40
0.7106580599
 40
1.0
 40
1.0
 40
1.0
 40
1.0
 10
61.7166422466
 20
47.8722626852
 30
0.0
 10
61.7166528908
 20
47.8121567074
 30
0.0
 10
61.7062026789
 20
47.6905596176
 30
0.0
 10
61.6595668983
 20
47.5109885767
 30
0.0
 10
61.5827372294
 20
47.3352435275
 30
0.0
 10
61.4372030864
 20
47.1023246665
 30
0.0
 10
61.1787647153
 20
46.8304622072
 30
0.0
 10
60.9260669044
 20
46.6565413449
 30
0.0
 10
60.7867346092
 20
46.576098287
 30
0.0
  0
SPLINE
  5
249
100
AcDbEntity
  8
0
100
AcDbSpline
 62
7
  6
BYLAYER
 70
0
 71
3
 72
13
 73
9
 74
0
 42
0.0000001
 43
0.0000001
 44
0.0000000001
 40
0.0
 40
0.0
 40
0.0
 40
0.0
 40
0.289376488
 40
0.5483133888
 40
0.6677429628
 40
0.781768027
 40
0.8919070585
 40
1.0
 40
1.0
 40
1.0
 40
1.0
 10
24.6541433243
 20
60.3855312028
 30
0.0
 10
24.6541433243
 20
60.1924360903
 30
0.0
 10
24.6250355079
 20
59.8254616335
 30
0.0
 10
24.4975539901
 20
59.3937493404
 30
0.0
 10
24.3427766473
 20
59.1027862999
 30
0.0
 10
24.2062694532
 20
58.9174536536
 30
0.0
 10
24.0476272903
 20
58.7612259669
 30
0.0
 10
23.9274990173
 20
58.6774527464
 30
0.0
 10
23.865033755
 20
58.6413892611
 30
0.0
  0
SPLINE
  5
24A
100
AcDbEntity
  8
0
100
AcDbSpline
 62
7
  6
BYLAYER
 70
0
 71
3
 72
13
 73
9
 74
0
 42
0.0000001
 43
0.0000001
 44
0.0000000001
 40
0.0
 40
0.0
 40
0.0
 40
0.0
 40
0.108092921
 40
0.2182327527
 40
0.3322577558
 40
0.4516878702
 40
0.7106275001
 40
1.0
 40
1.0
 40
1.0
 40
1.0
 10
21.1709670981
 20
57.0859808344
 30
0.0
 10
21.2334329199
 20
57.1220432385
 30
0.0
 10
21.3535621526
 20
57.2058164984
 30
0.0
 10
21.5122010459
 20
57.3620475627
 30
0.0
 10
21.6487136696
 20
57.5473770089
 30
0.0
 10
21.8034878704
 20
57.8383443772
 30
0.0
 10
21.9309699725
 20
58.2700550066
 30
0.0
 10
21.9600777045
 20
58.6370286387
 30
0.0
 10
21.9600777045
 20
58.8301209765
 30
0.0
  0
SPLINE
  5
24B
100
AcDbEntity
  8
0
100
AcDbSpline
 62
7
  6
BYLAYER
 70
0
 71
3
 72
24
 73
20
 74
0
 42
0.0000001
 43
0.0000001
 44
0.0000000001
 40
0.0
 40
0.0
 40
0.0
 40
0.0
 40
0.0213337644
 40
0.0428957329
 40
0.0874725192
 40
0.135250891
 40
0.1871556401
 40
0.2435972019
 40
0.3045493347
 40
0.3696421188
 40
0.4382447441
 40
0.5095364092
 40
0.5825661014
 40
0.6563030541
 40
0.7296849757
 40
0.8016687755
 40
0.8712622752
 40
0.9376184986
 40
1.0
 40
1.0
 40
1.0
 40
1.0
 10
50.5406936996
 20
47.8722627586
 30
0.0
 10
50.54070461
 20
47.7587580582
 30
0.0
 10
50.5553614327
 20
47.5302562994
 30
0.0
 10
50.6436787975
 20
47.0722735435
 30
0.0
 10
50.869342522
 20
46.5031284904
 30
0.0
 10
51.3038902861
 20
45.8643526925
 30
0.0
 10
51.8928271814
 20
45.2728437183
 30
0.0
 10
52.6225962049
 20
44.7396160268
 30
0.0
 10
53.4776579617
 20
44.2745311349
 30
0.0
 10
54.4401188174
 20
43.8867984929
 30
0.0
 10
55.489747771
 20
43.5843089438
 30
0.0
 10
56.6043498855
 20
43.3733575659
 30
0.0
 10
57.7602487863
 20
43.2584026034
 30
0.0
 10
58.9328131571
 20
43.2418913368
 30
0.0
 10
60.0970501533
 20
43.3241868038
 30
0.0
 10
61.2280748755
 20
43.5035674484
 30
0.0
 10
62.3020181965
 20
43.7761417552
 30
0.0
 10
63.2957429391
 20
44.1362644757
 30
0.0
 10
63.9118152422
 20
44.4399810884
 30
0.0
 10
64.1992461428
 20
44.6059284057
 30
0.0
  0
SPLINE
  5
24C
100
AcDbEntity
  8
0
100
AcDbSpline
 62
7
  6
BYLAYER
 70
0
 71
3
 72
15
 73
11
 74
0
 42
0.0000001
 43
0.0000001
 44
0.0000000001
 40
0.0
 40
0.0
 40
0.0
 40
0.0
 40
0.1485265902
 40
0.2895021089
 40
0.4227429133
 40
0.5486462437
 40
0.6679966168
 40
0.7819402693
 40
0.8919886027
 40
1.0
 40
1.0
 40
1.0
 40
1.0
 10
64.1992461428
 20
44.6059284057
 30
0.0
 10
64.3796237898
 20
44.7100688671
 30
0.0
 10
64.7230108406
 20
44.9278028667
 30
0.0
 10
65.1926149504
 20
45.291142792
 30
0.0
 10
65.5987628862
 20
45.679951887
 30
0.0
 10
65.9374364389
 20
46.0904040575
 30
0.0
 10
66.2050716409
 20
46.5190178713
 30
0.0
 10
66.3989659291
 20
46.9617972368
 30
0.0
 10
66.5162867338
 20
47.4144000351
 30
0.0
 10
66.5426475623
 20
47.7207961055
 30
0.0
 10
66.5426475725
 20
47.8722626826
 30
0.0
  0
SPLINE
  5
24D
100
AcDbEntity
  8
0
100
AcDbSpline
 62
7
  6
BYLAYER
 70
0
 71
3
 72
15
 73
11
 74
0
 42
0.0000001
 43
0.0000001
 44
0.0000000001
 40
0.0
 40
0.0
 40
0.0
 40
0.0
 40
0.1485425546
 40
0.2895069466
 40
0.422737444
 40
0.548643133
 40
0.6680005141
 40
0.7819414479
 40
0.8919886747
 40
1.0
 40
1.0
 40
1.0
 40
1.0
 10
65.2768813639
 20
33.9252762192
 30
0.0
 10
65.4916401386
 20
34.0492665155
 30
0.0
 10
65.9004543024
 20
34.3084602711
 30
0.0
 10
66.4594832115
 20
34.7410250666
 30
0.0
 10
66.9429778575
 20
35.2038659468
 30
0.0
 10
67.346133609
 20
35.692516964
 30
0.0
 10
67.6648144339
 20
36.2027473994
 30
0.0
 10
67.8955790777
 20
36.7298985241
 30
0.0
 10
68.0353131651
 20
37.2686872358
 30
0.0
 10
68.0666510186
 20
37.6334516812
 30
0.0
 10
68.0666340681
 20
37.8137692497
 30
0.0
  0
SPLINE
  5
24E
100
AcDbEntity
  8
0
100
AcDbSpline
 62
7
  6
BYLAYER
 70
0
 71
3
 72
20
 73
16
 74
0
 42
0.0000001
 43
0.0000001
 44
0.0000000001
 40
0.0
 40
0.0
 40
0.0
 40
0.0
 40
0.0623913485
 40
0.1288089838
 40
0.2703026616
 40
0.4173651243
 40
0.5616181013
 40
0.6302547849
 40
0.6953816452
 40
0.7563640445
 40
0.8128332072
 40
0.8647656874
 40
0.9125671244
 40
0.9571679177
 40
1.0
 40
1.0
 40
1.0
 40
1.0
 10
60.7867346092
 20
46.576098287
 30
0.0
 10
60.6727154776
 20
46.5102697036
 30
0.0
 10
60.4282006012
 20
46.3897758048
 30
0.0
 10
59.8911493049
 20
46.1951134024
 30
0.0
 10
59.1519461769
 20
46.0472963118
 30
0.0
 10
58.2351948716
 20
46.0219865388
 30
0.0
 10
57.4786035801
 20
46.1280747066
 30
0.0
 10
56.9140906105
 20
46.2907464134
 30
0.0
 10
56.5321370813
 20
46.4445937123
 30
0.0
 10
56.1928396572
 20
46.629156067
 30
0.0
 10
55.9032603014
 20
46.8407701182
 30
0.0
 10
55.6695209341
 20
47.0754249171
 30
0.0
 10
55.4971473081
 20
47.3290775042
 30
0.0
 10
55.3908253031
 20
47.5965878859
 30
0.0
 10
55.3666962233
 20
47.7818787422
 30
0.0
 10
55.3666802171
 20
47.87226268
 30
0.0
  0
SPLINE
  5
24F
100
AcDbEntity
  8
0
100
AcDbSpline
 62
7
  6
BYLAYER
 70
0
 71
3
 72
13
 73
9
 74
0
 42
0.0000001
 43
0.0000001
 44
0.0000000001
 40
0.0
 40
0.0
 40
0.0
 40
0.0
 40
0.2893483905
 40
0.5483239859
 40
0.6677499515
 40
0.7817640904
 40
0.8919051578
 40
1.0
 40
1.0
 40
1.0
 40
1.0
 10
60.7867346092
 20
47.1982731288
 30
0.0
 10
60.9260701316
 20
47.27871805
 30
0.0
 10
61.1787696159
 20
47.4526402381
 30
0.0
 10
61.4372093993
 20
47.7245038231
 30
0.0
 10
61.5827387999
 20
47.9574228657
 30
0.0
 10
61.6595690394
 20
48.133165751
 30
0.0
 10
61.7062097705
 20
48.3127351482
 30
0.0
 10
61.716653022
 20
48.4343319898
 30
0.0
 10
61.7166427517
 20
48.4944375245
 30
0.0
  0
SPLINE
  5
250
100
AcDbEntity
  8
0
100
AcDbSpline
 62
7
  6
BYLAYER
 70
0
 71
3
 72
21
 73
17
 74
0
 42
0.0000001
 43
0.0000001
 44
0.0000000001
 40
0.0
 40
0.0
 40
0.0
 40
0.0
 40
0.062390581
 40
0.1287889117
 40
0.1984042298
 40
0.2704109974
 40
0.4174473261
 40
0.5616784001
 40
0.6303072025
 40
0.6954227848
 40
0.7563977867
 40
0.8128610467
 40
0.8647835487
 40
0.9125801548
 40
0.9571748821
 40
1.0
 40
1.0
 40
1.0
 40
1.0
 10
21.9600777045
 20
58.8301209765
 30
0.0
 10
21.9600777045
 20
58.988132422
 30
0.0
 10
21.9386052741
 20
59.3145190089
 30
0.0
 10
21.8505750646
 20
59.8100722269
 30
0.0
 10
21.7072819251
 20
60.3179164762
 30
0.0
 10
21.445024298
 20
61.0012030519
 30
0.0
 10
21.0049353391
 20
61.8143872261
 30
0.0
 10
20.4408077633
 20
62.5367740621
 30
0.0
 10
19.9330802636
 20
63.0259113372
 30
0.0
 10
19.5439731678
 20
63.3304811244
 30
0.0
 10
19.1486065977
 20
63.5723834181
 30
0.0
 10
18.7549397703
 20
63.7463833622
 30
0.0
 10
18.3708099883
 20
63.8484061346
 30
0.0
 10
18.0037847964
 20
63.8754458012
 30
0.0
 10
17.6619874505
 20
63.8253618677
 30
0.0
 10
17.4549424608
 20
63.7392829357
 30
0.0
 10
17.3610122053
 20
63.6850556681
 30
0.0
  0
SPLINE
  5
251
100
AcDbEntity
  8
0
100
AcDbSpline
 62
7
  6
BYLAYER
 70
0
 71
3
 72
22
 73
18
 74
0
 42
0.0000001
 43
0.0000001
 44
0.0000000001
 40
0.0
 40
0.0
 40
0.0
 40
0.0
 40
0.0428179908
 40
0.0874057498
 40
0.1351955694
 40
0.1871106093
 40
0.2435653353
 40
0.3045310611
 40
0.3696361589
 40
0.4382536167
 40
0.5095603088
 40
0.5826042728
 40
0.7296222959
 40
0.8016204261
 40
0.871227757
 40
0.9376182375
 40
1.0
 40
1.0
 40
1.0
 40
1.0
 10
20.055076788
 20
65.2404676939
 30
0.0
 10
20.1490037948
 20
65.2946951972
 30
0.0
 10
20.3560472187
 20
65.3807658938
 30
0.0
 10
20.6978376745
 20
65.4308615025
 30
0.0
 10
21.0648615309
 20
65.4038177862
 30
0.0
 10
21.4489897489
 20
65.3017976686
 30
0.0
 10
21.8426550525
 20
65.1278048728
 30
0.0
 10
22.2380216608
 20
64.8859048468
 30
0.0
 10
22.6270996024
 20
64.5813431311
 30
0.0
 10
23.0017414509
 20
64.2205170145
 30
0.0
 10
23.3541420941
 20
63.8110577198
 30
0.0
 10
23.7849798241
 20
63.2110128102
 30
0.0
 10
24.1391049847
 20
62.5565705315
 30
0.0
 10
24.401333846
 20
61.8733652048
 30
0.0
 10
24.5446395603
 20
61.3654913896
 30
0.0
 10
24.6326691793
 20
60.8699340996
 30
0.0
 10
24.6541433243
 20
60.5435426847
 30
0.0
 10
24.6541433243
 20
60.3855312028
 30
0.0
  0
SPLINE
  5
252
100
AcDbEntity
  8
0
100
AcDbSpline
 62
7
  6
BYLAYER
 70
0
 71
3
 72
24
 73
20
 74
0
 42
0.0000001
 43
0.0000001
 44
0.0000000001
 40
0.0
 40
0.0
 40
0.0
 40
0.0
 40
0.0213337202
 40
0.0428956839
 40
0.0874739788
 40
0.1352531142
 40
0.1871579135
 40
0.2435993347
 40
0.3045513747
 40
0.3696440434
 40
0.43824643
 40
0.5095378857
 40
0.5825676762
 40
0.656304901
 40
0.7296862039
 40
0.8016692938
 40
0.8712625923
 40
0.9376183171
 40
1.0
 40
1.0
 40
1.0
 40
1.0
 10
49.0166883956
 20
37.8137695622
 30
0.0
 10
49.0167010978
 20
37.678645211
 30
0.0
 10
49.0341656841
 20
37.4066205682
 30
0.0
 10
49.1393038949
 20
36.8613941905
 30
0.0
 10
49.4079694758
 20
36.1838310914
 30
0.0
 10
49.925295476
 20
35.4233722691
 30
0.0
 10
50.6264172182
 20
34.7191947407
 30
0.0
 10
51.4951895367
 20
34.0844017614
 30
0.0
 10
52.5131223286
 20
33.5307374195
 30
0.0
 10
53.6589090983
 20
33.0691595669
 30
0.0
 10
54.9084640009
 20
32.7090551228
 30
0.0
 10
56.2353690935
 20
32.457923342
 30
0.0
 10
57.6114403695
 20
32.3210741596
 30
0.0
 10
59.0073487598
 20
32.3014222467
 30
0.0
 10
60.3933379811
 20
32.3993965355
 30
0.0
 10
61.7397862607
 20
32.6129435671
 30
0.0
 10
63.018280791
 20
32.9374368427
 30
0.0
 10
64.2012839705
 20
33.3661512163
 30
0.0
 10
64.934700755
 20
33.7277193318
 30
0.0
 10
65.2768813639
 20
33.9252762192
 30
0.0
  0
SPLINE
  5
253
100
AcDbEntity
  8
0
100
AcDbSpline
 62
7
  6
BYLAYER
 70
0
 71
3
 72
15
 73
11
 74
0
 42
0.0000001
 43
0.0000001
 44
0.0000000001
 40
0.0
 40
0.0
 40
0.0
 40
0.0
 40
0.1485425546
 40
0.2895069466
 40
0.422737444
 40
0.548643133
 40
0.6680005141
 40
0.7819414479
 40
0.8919886747
 40
1.0
 40
1.0
 40
1.0
 40
1.0
 10
65.2768813639
 20
28.7404858704
 30
0.0
 10
65.4916401386
 20
28.8644761667
 30
0.0
 10
65.9004543024
 20
29.1236699224
 30
0.0
 10
66.4594832115
 20
29.5562347178
 30
0.0
 10
66.9429778575
 20
30.0190755981
 30
0.0
 10
67.346133609
 20
30.5077266152
 30
0.0
 10
67.6648144339
 20
31.0179570507
 30
0.0
 10
67.8955790777
 20
31.5451081754
 30
0.0
 10
68.0353131651
 20
32.083896887
 30
0.0
 10
68.0666510186
 20
32.4486613324
 30
0.0
 10
68.0666340681
 20
32.6289789009
 30
0.0
  0
SPLINE
  5
254
100
AcDbEntity
  8
0
100
AcDbSpline
 62
7
  6
BYLAYER
 70
0
 71
3
 72
20
 73
16
 74
0
 42
0.0000001
 43
0.0000001
 44
0.0000000001
 40
0.0
 40
0.0
 40
0.0
 40
0.0
 40
0.0428301934
 40
0.0874300654
 40
0.135230809
 40
0.1871626849
 40
0.2436313949
 40
0.3046123661
 40
0.3697377603
 40
0.4383727879
 40
0.5826247827
 40
0.729691332
 40
0.8711897027
 40
0.9376088885
 40
1.0
 40
1.0
 40
1.0
 40
1.0
 10
55.366679712
 20
48.4944375244
 30
0.0
 10
55.3666951553
 20
48.4040575684
 30
0.0
 10
55.3908173022
 20
48.2187718056
 30
0.0
 10
55.4971389226
 20
47.9512686243
 30
0.0
 10
55.6695067846
 20
47.6976187815
 30
0.0
 10
55.9032372396
 20
47.4629597373
 30
0.0
 10
56.1928142626
 20
47.2513512779
 30
0.0
 10
56.532100341
 20
47.0667835219
 30
0.0
 10
56.9140444626
 20
46.9129376081
 30
0.0
 10
57.4785477951
 20
46.7502644546
 30
0.0
 10
58.2351406592
 20
46.6441659414
 30
0.0
 10
59.151908979
 20
46.6694668865
 30
0.0
 10
59.8911350528
 20
46.8172832721
 30
0.0
 10
60.4281981871
 20
47.0119503793
 30
0.0
 10
60.6727159056
 20
47.1324447926
 30
0.0
 10
60.7867346092
 20
47.1982731288
 30
0.0
  0
SPLINE
  5
255
100
AcDbEntity
  8
0
100
AcDbSpline
 62
7
  6
BYLAYER
 70
0
 71
3
 72
24
 73
20
 74
0
 42
0.0000001
 43
0.0000001
 44
0.0000000001
 40
0.0
 40
0.0
 40
0.0
 40
0.0
 40
0.0213337202
 40
0.0428956839
 40
0.0874739788
 40
0.1352531142
 40
0.1871579135
 40
0.2435993347
 40
0.3045513747
 40
0.3696440434
 40
0.43824643
 40
0.5095378857
 40
0.5825676762
 40
0.656304901
 40
0.7296862039
 40
0.8016692938
 40
0.8712625923
 40
0.9376183171
 40
1.0
 40
1.0
 40
1.0
 40
1.0
 10
49.0166883956
 20
32.6289792134
 30
0.0
 10
49.0167010978
 20
32.4938548623
 30
0.0
 10
49.0341656841
 20
32.2218302194
 30
0.0
 10
49.1393038949
 20
31.6766038418
 30
0.0
 10
49.4079694758
 20
30.9990407426
 30
0.0
 10
49.925295476
 20
30.2385819204
 30
0.0
 10
50.6264172182
 20
29.5344043919
 30
0.0
 10
51.4951895367
 20
28.8996114126
 30
0.0
 10
52.5131223286
 20
28.3459470707
 30
0.0
 10
53.6589090983
 20
27.8843692181
 30
0.0
 10
54.9084640009
 20
27.524264774
 30
0.0
 10
56.2353690935
 20
27.2731329932
 30
0.0
 10
57.6114403695
 20
27.1362838108
 30
0.0
 10
59.0073487598
 20
27.116631898
 30
0.0
 10
60.3933379811
 20
27.2146061868
 30
0.0
 10
61.7397862607
 20
27.4281532183
 30
0.0
 10
63.018280791
 20
27.7526464939
 30
0.0
 10
64.2012839705
 20
28.1813608675
 30
0.0
 10
64.934700755
 20
28.542928983
 30
0.0
 10
65.2768813639
 20
28.7404858704
 30
0.0
  0
SPLINE
  5
256
100
AcDbEntity
  8
0
100
AcDbSpline
 62
7
  6
BYLAYER
 70
0
 71
3
 72
25
 73
21
 74
0
 42
0.0000001
 43
0.0000001
 44
0.0000000001
 40
0.0
 40
0.0
 40
0.0
 40
0.0
 40
0.0623745276
 40
0.1287272511
 40
0.1983137177
 40
0.2702912373
 40
0.3436674138
 40
0.4173993334
 40
0.4904249122
 40
0.5617125812
 40
0.630310805
 40
0.6953983736
 40
0.7563458143
 40
0.8127835103
 40
0.864684487
 40
0.9124588406
 40
0.9351034288
 40
0.9571083872
 40
0.9786687628
 40
1.0
 40
1.0
 40
1.0
 40
1.0
 10
13.877723814
 20
82.3686828371
 30
0.0
 10
14.197079926
 20
82.5530620737
 30
0.0
 10
14.8816051543
 20
82.8905135281
 30
0.0
 10
15.9857248004
 20
83.2906576515
 30
0.0
 10
17.1789894354
 20
83.5935150667
 30
0.0
 10
18.4356652061
 20
83.7928354807
 30
0.0
 10
19.7292593381
 20
83.8842748295
 30
0.0
 10
21.0321186449
 20
83.8659295415
 30
0.0
 10
22.3164718638
 20
83.7382173964
 30
0.0
 10
23.5549426023
 20
83.5038354613
 30
0.0
 10
24.721205197
 20
83.1677240004
 30
0.0
 10
25.7905986506
 20
82.736874398
 30
0.0
 10
26.740665084
 20
82.2201487697
 30
0.0
 10
27.5515511858
 20
81.627597625
 30
0.0
 10
28.2058877072
 20
80.9706855534
 30
0.0
 10
28.6154413838
 20
80.3679439028
 30
0.0
 10
28.8437234899
 20
79.8703316034
 30
0.0
 10
28.964661949
 20
79.4970310731
 30
0.0
 10
29.0376547082
 20
79.1194066099
 30
0.0
 10
29.0539148891
 20
78.8655334643
 30
0.0
 10
29.0539047336
 20
78.7394225351
 30
0.0
  0
ELLIPSE
  5
257
100
AcDbEntity
  8
0
100
AcDbEllipse
 62
7
  6
BYLAYER
 10
36.3826486495
 20
70.2677669422
 30
0.0
 11
-3.0376188318
 21
7.3211934008
 31
0.0
 40
0.46929334
 41
3.6673700778
 42
5.5592180927
  0
ENDSEC
  0
SECTION
  2
OBJECTS
  0
DICTIONARY
  5
C
100
AcDbDictionary
280
0
281
1
  3
ACAD_GROUP
350
D
  3
ACAD_MLINESTYLE
350
17
  3
ACAD_LAYOUT
350
1A
  3
ACAD_PLOTSETTINGS
350
19
  3
ACAD_PLOTSTYLENAME
350
E
  0
DICTIONARY
  5
D
102
{ACAD_REACTORS
330
C
102
}
100
AcDbDictionary
280
0
281
1
  0
ACDBDICTIONARYWDFLT
  5
E
102
{ACAD_REACTORS
330
C
102
}
100
AcDbDictionary
281
1
  3
Normal
350
F
100
AcDbDictionaryWithDefault
340
F
  0
DICTIONARY
  5
17
102
{ACAD_REACTORS
330
C
102
}
100
AcDbDictionary
280
0
281
1
  3
Standard
350
18
  0
DICTIONARY
  5
19
102
{ACAD_REACTORS
330
C
102
}
100
AcDbDictionary
281
1
  0
DICTIONARY
  5
1A
102
{ACAD_REACTORS
330
C
102
}
100
AcDbDictionary
281
1
  3
Model
350
258
  3
Layout1
350
259
  0
ACDBPLACEHOLDER
  5
F
102
{ACAD_REACTORS
330
E
102
}
  0
MLINESTYLE
  5
18
102
{ACAD_REACTORS
330
17
102
}
100
AcDbMlineStyle
  2
STANDARD
 70
0
  3

 62
256
 51
90.0
 52
90.0
 71
2
 49
0.5
 62
256
  6
BYLAYER
 49
-0.5
 62
256
  6
BYLAYER
  0
LAYOUT
  5
258
102
{ACAD_REACTORS
330
1A
102
}
100
AcDbPlotSettings
  1

  2
none_device
  4

  6

 40
0.0
 41
0.0
 42
0.0
 43
0.0
 44
210.0
 45
297.0
 46
0.0
 47
0.0
 48
0.0
 49
0.0
140
0.0
141
0.0
142
1.0
143
1.0
 70
1024
 72
1
 73
0
 74
0
  7

 75
0
147
1.0
148
0.0
149
0.0
100
AcDbLayout
  1
Model
 70
0
 71
0
 10
0.0
 20
0.0
 11
210.0
 21
297.0
 12
0.0
 22
0.0
 32
0.0
 14
0.0
 24
0.0
 34
0.0
 15
0.0
 25
0.0
 35
0.0
146
0.0
 13
0.0
 23
0.0
 33
0.0
 16
1.0
 26
0.0
 36
0.0
 17
0.0
 27
1.0
 37
0.0
 76
0
330
210
345
0
346
0
  0
LAYOUT
  5
259
102
{ACAD_REACTORS
330
1A
102
}
100
AcDbPlotSettings
  1

  2
none_device
  4

  6

 40
0.0
 41
0.0
 42
0.0
 43
0.0
 44
210.0
 45
297.0
 46
0.0
 47
0.0
 48
0.0
 49
0.0
140
0.0
141
0.0
142
1.0
143
1.0
 70
0
 72
1
 73
0
 74
0
  7

 75
0
147
1.0
148
0.0
149
0.0
100
AcDbLayout
  1
Layout1
 70
0
 71
1
 10
0.0
 20
0.0
 11
210.0
 21
297.0
 12
0.0
 22
0.0
 32
0.0
 14
0.0
 24
0.0
 34
0.0
 15
0.0
 25
0.0
 35
0.0
146
0.0
 13
0.0
 23
0.0
 33
0.0
 16
1.0
 26
0.0
 36
0.0
 17
0.0
 27
1.0
 37
0.0
 76
0
330
211
345
0
346
0
  0
ENDSEC
  0
EOF
