999
DXF file: C:\Users\sesa63760\Dev\_Creo\CAD\MCADPD0004111_3D-CAD\drw0001_1.dxf
999
Pro/ENGINEER 2019471 by Parametric Technology Corporation
  0
SECTION
  2
HEADER
  9
$ACADVER
  1
AC1024
  9
$DWGCODEPAGE
  3
ANSI_1252
  9
$EXTMAX
 10
78.7412026352
 20
111.3625580126
 30
0.0
  9
$EXTMIN
 10
0.0
 20
0.0
 30
0.0
  9
$LIMMIN
 10
0.0
 20
0.0
  9
$LIMMAX
 10
78.7412026352
 20
111.3625580126
  9
$VIEWCTR
 10
39.3706013176
 20
55.6812790063
  9
$VIEWSIZE
 40
111.3625580126
  9
$CLAYER
  8
0
  9
$LTSCALE
 40
7.2591889667
  9
$CELTYPE
  6
BYLAYER
  9
$DIMSCALE
 40
1.0
  9
$DIMASZ
 40
0.9373952695
  9
$DIMEXO
 40
1.0
  9
$DIMDLI
 40
5.0154396498
  9
$DIMEXE
 40
1.0
  9
$DIMCEN
 40
1.1878672855
  9
$DIMLFAC
 40
1.0
  9
$DIMBLK
  1
_FILLED
  9
$DIMALT
 70
0
  9
$DIMALTF
 40
0.0393700787
  9
$DIMTXT
 40
1.3123533773
  9
$DIMTOL
 70
1
  9
$DIMLIM
 70
0
  9
$DIMTFAC
 40
1.0
  9
$DIMTP
 40
0.01
  9
$DIMTM
 40
0.01
  9
$DIMGAP
 40
0.625
  9
$DIMDSEP
 70
46
  9
$AUNITS
 70
0
  9
$PDMODE
 70
3
  9
$PDSIZE
 40
0.3125
  9
$HANDSEED
  5
263
  9
$TILEMODE
 70
1
  9
$MEASUREMENT
 70
1
  9
$INSUNITS
 70
4
  0
ENDSEC
  0
SECTION
  2
CLASSES
  0
CLASS
  1
ACDBDICTIONARYWDFLT
  2
AcDbDictionaryWithDefault
  3
AutoCAD 2000
 90
0
 91
1
280
0
281
0
  0
CLASS
  1
ACDBPLACEHOLDER
  2
AcDbPlaceHolder
  3
AutoCAD 2000
 90
0
 91
1
280
0
281
0
  0
CLASS
  1
LAYOUT
  2
AcDbLayout
  3
AutoCAD 2000
 90
0
 91
0
280
0
281
0
  0
ENDSEC
  0
SECTION
  2
TABLES
  0
TABLE
  2
VPORT
  5
8
100
AcDbSymbolTable
 70
2
  0
VPORT
  5
1F4
100
AcDbSymbolTableRecord
100
AcDbViewportTableRecord
  2
*ACTIVE
 70
0
 10
0.0
 20
0.0
 11
1.0
 21
1.0
 12
39.3706013176
 22
55.6812790063
 13
0.0
 23
0.0
 14
1.0
 24
1.0
 15
0.0
 25
0.0
 16
0.0
 26
0.0
 36
1.0
 17
0.0
 27
0.0
 37
0.0
 40
111.3625580126
 41
0.7070707071
 42
50.0
 43
0.0
 44
0.0
 50
0.0
 51
0.0
 71
0
 72
100
 73
1
 74
1
 75
0
 76
0
 77
0
 78
0
  0
ENDTAB
  0
TABLE
  2
LTYPE
  5
5
100
AcDbSymbolTable
 70
6
  0
LTYPE
  5
14
100
AcDbSymbolTableRecord
100
AcDbLinetypeTableRecord
  2
BYBLOCK
 70
0
  3

 72
65
 73
0
 40
0.0
  0
LTYPE
  5
15
100
AcDbSymbolTableRecord
100
AcDbLinetypeTableRecord
  2
BYLAYER
 70
0
  3

 72
65
 73
0
 40
0.0
  0
LTYPE
  5
16
100
AcDbSymbolTableRecord
100
AcDbLinetypeTableRecord
  2
CONTINUOUS
 70
64
  3
Solid line
 72
65
 73
0
 40
0.0
  0
LTYPE
  5
1F5
100
AcDbSymbolTableRecord
100
AcDbLinetypeTableRecord
  2
CENTER
 70
64
  3
____ _ ____ _ ____ _ ____ _ ____ _ ____ _ ____
 72
65
 73
4
 40
0.6
 49
0.375
 74
0
 49
-0.075
 74
0
 49
0.075
 74
0
 49
-0.075
 74
0
  0
LTYPE
  5
1F6
100
AcDbSymbolTableRecord
100
AcDbLinetypeTableRecord
  2
HIDDEN
 70
64
  3
- - - - - - - - - - - - - - - - - - - -
 72
65
 73
2
 40
0.2
 49
0.1
 74
0
 49
-0.1
 74
0
  0
LTYPE
  5
1F7
100
AcDbSymbolTableRecord
100
AcDbLinetypeTableRecord
  2
PHANTOM
 70
64
  3
_____ _ _ _____ _ _ _____ _ _ _____
 72
65
 73
6
 40
0.8
 49
0.45
 74
0
 49
-0.05
 74
0
 49
0.1
 74
0
 49
-0.05
 74
0
 49
0.1
 74
0
 49
-0.05
 74
0
  0
LTYPE
  5
1F8
100
AcDbSymbolTableRecord
100
AcDbLinetypeTableRecord
  2
DOT
 70
64
  3
. . . . . . . . . . . . . . . . . . . .
 72
65
 73
2
 40
0.2
 49
0.1
 74
0
 49
-0.1
 74
0
  0
LTYPE
  5
1F9
100
AcDbSymbolTableRecord
100
AcDbLinetypeTableRecord
  2
DASHED
 70
64
  3
- - - - - - - - - - - - - - - - - - - -
 72
65
 73
2
 40
0.2
 49
0.1
 74
0
 49
-0.1
 74
0
  0
ENDTAB
  0
TABLE
  2
LAYER
  5
2
100
AcDbSymbolTable
 70
36
  0
LAYER
  5
10
100
AcDbSymbolTableRecord
100
AcDbLayerTableRecord
  2
0
 70
0
 62
7
  6
CONTINUOUS
370
-3
390
F
  0
LAYER
  5
1FA
100
AcDbSymbolTableRecord
100
AcDbLayerTableRecord
  2
DEFAULT_1
 70
0
 62
7
  6
CENTER
370
-3
390
F
  0
LAYER
  5
1FB
100
AcDbSymbolTableRecord
100
AcDbLayerTableRecord
  2
DEFAULT_2
 70
0
 62
7
  6
HIDDEN
370
-3
390
F
  0
LAYER
  5
1FC
100
AcDbSymbolTableRecord
100
AcDbLayerTableRecord
  2
DEFAULT_3
 70
0
 62
7
  6
PHANTOM
370
-3
390
F
  0
LAYER
  5
1FD
100
AcDbSymbolTableRecord
100
AcDbLayerTableRecord
  2
00_COMPONENTS
 70
0
 62
7
  6
CONTINUOUS
370
-3
390
F
  0
LAYER
  5
1FE
100
AcDbSymbolTableRecord
100
AcDbLayerTableRecord
  2
01_1_DEFAULT_DATUMS
 70
0
 62
7
  6
CONTINUOUS
370
-3
390
F
  0
LAYER
  5
1FF
100
AcDbSymbolTableRecord
100
AcDbLayerTableRecord
  2
01_PLANES
 70
0
 62
7
  6
CONTINUOUS
370
-3
390
F
  0
LAYER
  5
200
100
AcDbSymbolTableRecord
100
AcDbLayerTableRecord
  2
02_COORD_SYS
 70
0
 62
7
  6
CONTINUOUS
370
-3
390
F
  0
LAYER
  5
201
100
AcDbSymbolTableRecord
100
AcDbLayerTableRecord
  2
03_AXES
 70
0
 62
7
  6
CONTINUOUS
370
-3
390
F
  0
LAYER
  5
202
100
AcDbSymbolTableRecord
100
AcDbLayerTableRecord
  2
04_POINTS
 70
0
 62
7
  6
CONTINUOUS
370
-3
390
F
  0
LAYER
  5
203
100
AcDbSymbolTableRecord
100
AcDbLayerTableRecord
  2
05_CURVES
 70
0
 62
7
  6
CONTINUOUS
370
-3
390
F
  0
LAYER
  5
204
100
AcDbSymbolTableRecord
100
AcDbLayerTableRecord
  2
06_SURFS
 70
0
 62
7
  6
CONTINUOUS
370
-3
390
F
  0
LAYER
  5
205
100
AcDbSymbolTableRecord
100
AcDbLayerTableRecord
  2
07_COSMETICS
 70
0
 62
7
  6
CONTINUOUS
370
-3
390
F
  0
LAYER
  5
206
100
AcDbSymbolTableRecord
100
AcDbLayerTableRecord
  2
10_NOTES
 70
0
 62
7
  6
CONTINUOUS
370
-3
390
F
  0
LAYER
  5
207
100
AcDbSymbolTableRecord
100
AcDbLayerTableRecord
  2
11_NOTES_PUB
 70
0
 62
7
  6
CONTINUOUS
370
-3
390
F
  0
LAYER
  5
208
100
AcDbSymbolTableRecord
100
AcDbLayerTableRecord
  2
13_REF_GTOL
 70
0
 62
7
  6
CONTINUOUS
370
-3
390
F
  0
LAYER
  5
209
100
AcDbSymbolTableRecord
100
AcDbLayerTableRecord
  2
16_MISC
 70
0
 62
7
  6
CONTINUOUS
370
-3
390
F
  0
LAYER
  5
20A
100
AcDbSymbolTableRecord
100
AcDbLayerTableRecord
  2
17_NO_PRINT
 70
0
 62
7
  6
CONTINUOUS
370
-3
390
F
  0
LAYER
  5
20B
100
AcDbSymbolTableRecord
100
AcDbLayerTableRecord
  2
18_DATUM_CAMS_JOINTS
 70
0
 62
7
  6
CONTINUOUS
370
-3
390
F
  0
LAYER
  5
20C
100
AcDbSymbolTableRecord
100
AcDbLayerTableRecord
  2
19_DATUM_FUNCTIONAL
 70
0
 62
7
  6
CONTINUOUS
370
-3
390
F
  0
LAYER
  5
20D
100
AcDbSymbolTableRecord
100
AcDbLayerTableRecord
  2
20_DATUM_KINEMATIC_SCHEME
 70
0
 62
7
  6
CONTINUOUS
370
-3
390
F
  0
ENDTAB
  0
TABLE
  2
STYLE
  5
3
100
AcDbSymbolTable
 70
1
  0
STYLE
  5
11
100
AcDbSymbolTableRecord
100
AcDbTextStyleTableRecord
  2
STANDARD
 70
0
 40
0.0
 41
1.0
 50
0.0
 71
0
 42
0.2
  3
ARIAL.TTF
  4

  0
STYLE
  5
20E
100
AcDbSymbolTableRecord
100
AcDbTextStyleTableRecord
  2
TEXTSTYLE_1
 70
0
 40
0.0
 41
0.8
 50
0.0
 71
0
 42
0.2
  3
gdt
  4

  0
ENDTAB
  0
TABLE
  2
VIEW
  5
6
100
AcDbSymbolTable
 70
0
  0
ENDTAB
  0
TABLE
  2
UCS
  5
7
100
AcDbSymbolTable
 70
0
  0
ENDTAB
  0
TABLE
  2
APPID
  5
9
100
AcDbSymbolTable
 70
1
  0
APPID
  5
20F
100
AcDbSymbolTableRecord
100
AcDbRegAppTableRecord
  2
ACAD
 70
0
  0
ENDTAB
  0
TABLE
  2
BLOCK_RECORD
  5
1
100
AcDbSymbolTable
 70
0
  0
BLOCK_RECORD
  5
210
100
AcDbSymbolTableRecord
100
AcDbBlockTableRecord
  2
*Model_Space
  0
BLOCK_RECORD
  5
211
100
AcDbSymbolTableRecord
100
AcDbBlockTableRecord
  2
*Paper_Space
  0
BLOCK_RECORD
  5
212
100
AcDbSymbolTableRecord
100
AcDbBlockTableRecord
  2
_FILLED
  0
ENDTAB
  0
TABLE
  2
DIMSTYLE
  5
A
100
AcDbSymbolTable
 70
1
100
AcDbDimStyleTable
 71
0
  0
DIMSTYLE
105
213
100
AcDbSymbolTableRecord
100
AcDbDimStyleTableRecord
  2
STANDARD
 70
0
  3

  4

 40
1.0
 41
0.9373952695
 42
1.0
 43
0.38
 44
1.0
 45
0.0
 46
0.0
 47
0.01
 48
0.01
140
1.3123533773
141
0.09
142
0.0
143
25.4
144
1.0
145
0.0
146
1.0
147
0.625
 71
1
 72
0
 73
0
 74
0
 75
0
 76
0
 77
1
 78
8
 79
2
170
0
171
1
172
0
173
0
174
0
175
0
176
0
177
0
178
0
270
2
179
2
271
2
272
2
273
2
274
2
275
0
280
0
281
0
282
0
283
1
284
8
285
0
286
0
287
3
288
0
340
11
278
46
341
212
342
212
343
212
344
212
  0
ENDTAB
  0
ENDSEC
  0
SECTION
  2
BLOCKS
  0
BLOCK
  5
20
100
AcDbEntity
  8
0
100
AcDbBlockBegin
  2
*Model_Space
 70
0
 10
0.0
 20
0.0
 30
0.0
  3
*Model_Space
  1

  0
ENDBLK
  5
21
100
AcDbEntity
  8
0
100
AcDbBlockEnd
  0
BLOCK
  5
1C
100
AcDbEntity
  8
0
100
AcDbBlockBegin
  2
*Paper_Space
 70
0
 10
0.0
 20
0.0
 30
0.0
  3
*Paper_Space
  1

  0
ENDBLK
  5
1D
100
AcDbEntity
  8
0
100
AcDbBlockEnd
  0
BLOCK
  5
214
100
AcDbEntity
  8
0
100
AcDbBlockBegin
  2
_FILLED
 70
64
 10
0.0
 20
0.0
  3
_FILLED
  1

  0
SOLID
  5
215
100
AcDbEntity
  8
0
  6
BYBLOCK
 62
0
100
AcDbTrace
 10
0.0
 20
0.0
 11
-1.0
 21
0.25
 12
-1.0
 22
-0.25
 13
-1.0
 23
-0.25
  0
ENDBLK
  5
216
100
AcDbEntity
  8
0
  6
BYBLOCK
 62
0
100
AcDbBlockEnd
  0
ENDSEC
  0
SECTION
  2
ENTITIES
  0
LINE
  5
217
100
AcDbEntity
  8
0
100
AcDbLine
 62
7
  6
BYLAYER
 10
28.527030959
 20
8.5950967594
 11
21.8094885701
 21
12.4733839273
  0
LINE
  5
218
100
AcDbEntity
  8
0
100
AcDbLine
 62
7
  6
BYLAYER
 10
23.2238022274
 20
15.7396946437
 11
10.4958271747
 21
23.0880282251
  0
LINE
  5
219
100
AcDbEntity
  8
0
100
AcDbLine
 62
7
  6
BYLAYER
 10
31.2846969938
 20
12.7592090971
 11
32.8050091742
 21
11.8814763074
  0
LINE
  5
21A
100
AcDbEntity
  8
0
100
AcDbLine
 62
7
  6
BYLAYER
 10
34.5374636228
 20
14.9230793515
 11
28.527030959
 21
18.3931257649
  0
LINE
  5
21B
100
AcDbEntity
  8
0
100
AcDbLine
 62
7
  6
BYLAYER
 10
21.8094885701
 20
83.5385699548
 11
55.5858466288
 21
103.0392429689
  0
LINE
  5
21C
100
AcDbEntity
  8
0
100
AcDbLine
 62
7
  6
BYLAYER
 10
46.3178135508
 20
11.9263979494
 11
40.307380887
 21
15.3964443629
  0
LINE
  5
21D
100
AcDbEntity
  8
0
100
AcDbLine
 62
7
  6
BYLAYER
 10
10.4958271747
 20
23.0880282251
 11
10.4958271747
 21
59.8601127332
  0
LINE
  5
21E
100
AcDbEntity
  8
0
100
AcDbLine
 62
7
  6
BYLAYER
 10
28.3148479941
 20
86.7228767346
 11
30.4361595057
 21
87.9476091962
  0
LINE
  5
21F
100
AcDbEntity
  8
0
100
AcDbLine
 62
7
  6
BYLAYER
 10
36.1637482794
 20
84.6408590846
 11
34.0424367678
 21
83.416126623
  0
LINE
  5
220
100
AcDbEntity
  8
0
100
AcDbLine
 62
7
  6
BYLAYER
 10
28.527030959
 20
79.6602827869
 11
40.307380887
 21
86.4616303904
  0
LINE
  5
221
100
AcDbEntity
  8
0
100
AcDbLine
 62
7
  6
BYLAYER
 10
45.9288605144
 20
89.1356319778
 11
48.0501720261
 21
90.3603644394
  0
LINE
  5
222
100
AcDbEntity
  8
0
100
AcDbLine
 62
7
  6
BYLAYER
 10
21.8094885701
 20
12.4733839273
 11
21.8094885701
 21
16.5562305419
  0
LINE
  5
223
100
AcDbEntity
  8
0
100
AcDbLine
 62
7
  6
BYLAYER
 10
21.8094885701
 20
66.3920191951
 11
21.8094885701
 21
83.5385699548
  0
LINE
  5
224
100
AcDbEntity
  8
0
100
AcDbLine
 62
7
  6
BYLAYER
 10
53.0706510746
 20
87.4618550823
 11
50.949339563
 21
86.2371226207
  0
LINE
  5
225
100
AcDbEntity
  8
0
100
AcDbLine
 62
7
  6
BYLAYER
 10
46.3178135508
 20
82.991583977
 11
68.3138216815
 21
95.6909093876
  0
LINE
  5
226
100
AcDbEntity
  8
0
100
AcDbLine
 62
7
  6
BYLAYER
 10
10.4958271747
 20
59.8601127332
 11
21.8094885701
 21
66.3920191951
  0
LINE
  5
227
100
AcDbEntity
  8
0
100
AcDbLine
 62
7
  6
BYLAYER
 10
23.2238022274
 20
15.7396946437
 11
23.2238022274
 21
52.5117791518
  0
LINE
  5
228
100
AcDbEntity
  8
0
100
AcDbLine
 62
7
  6
BYLAYER
 10
28.527030959
 20
69.6286524398
 11
40.307380887
 21
76.4300000433
  0
LINE
  5
229
100
AcDbEntity
  8
0
100
AcDbLine
 62
7
  6
BYLAYER
 10
28.527030959
 20
8.5950967594
 11
28.527030959
 21
18.3931257649
  0
LINE
  5
22A
100
AcDbEntity
  8
0
100
AcDbLine
 62
7
  6
BYLAYER
 10
28.527030959
 20
69.6286524398
 11
28.527030959
 21
79.6602827869
  0
LINE
  5
22B
100
AcDbEntity
  8
0
100
AcDbLine
 62
7
  6
BYLAYER
 10
34.5374636228
 20
66.1586060264
 11
46.3178135508
 21
72.9599536299
  0
LINE
  5
22C
100
AcDbEntity
  8
0
100
AcDbLine
 62
7
  6
BYLAYER
 10
23.2238022274
 20
52.5117791518
 11
10.4958271747
 21
59.8601127332
  0
LINE
  5
22D
100
AcDbEntity
  8
0
100
AcDbLine
 62
7
  6
BYLAYER
 10
29.552331523
 20
10.0035531996
 11
29.552331523
 21
11.7590333964
  0
LINE
  5
22E
100
AcDbEntity
  8
0
100
AcDbLine
 62
7
  6
BYLAYER
 10
30.4361595057
 20
87.9476091962
 11
30.4361595057
 21
85.498164669
  0
LINE
  5
22F
100
AcDbEntity
  8
0
100
AcDbLine
 62
7
  6
BYLAYER
 10
32.8050091742
 20
13.6369565042
 11
32.8050091742
 21
11.8814763074
  0
LINE
  5
230
100
AcDbEntity
  8
0
100
AcDbLine
 62
7
  6
BYLAYER
 10
34.5374636228
 20
14.9230793515
 11
34.5374636228
 21
22.2716011057
  0
LINE
  5
231
100
AcDbEntity
  8
0
100
AcDbLine
 62
7
  6
BYLAYER
 10
34.5374636228
 20
59.0436856137
 11
34.5374636228
 21
66.1586060264
  0
LINE
  5
232
100
AcDbEntity
  8
0
100
AcDbLine
 62
7
  6
BYLAYER
 10
23.2238022274
 20
52.5117791518
 11
34.5374636228
 21
59.0436856137
  0
LINE
  5
233
100
AcDbEntity
  8
0
100
AcDbLine
 62
7
  6
BYLAYER
 10
69.4683931811
 20
76.7466608699
 11
65.2964805416
 21
74.338020362
  0
LINE
  5
234
100
AcDbEntity
  8
0
100
AcDbLine
 62
7
  6
BYLAYER
 10
40.307380887
 20
15.3964443629
 11
40.307380887
 21
18.2543227524
  0
LINE
  5
235
100
AcDbEntity
  8
0
100
AcDbLine
 62
7
  6
BYLAYER
 10
40.307380887
 20
76.4300000433
 11
40.307380887
 21
86.4616303904
  0
LINE
  5
236
100
AcDbEntity
  8
0
100
AcDbLine
 62
7
  6
BYLAYER
 10
34.5374636228
 20
59.0436856137
 11
21.8094885701
 21
66.3920191951
  0
LINE
  5
237
100
AcDbEntity
  8
0
100
AcDbLine
 62
7
  6
BYLAYER
 10
46.3178135508
 20
82.991583977
 11
46.3178135508
 21
72.9599536299
  0
LINE
  5
238
100
AcDbEntity
  8
0
100
AcDbLine
 62
7
  6
BYLAYER
 10
46.3178135508
 20
11.9263979494
 11
46.3178135508
 21
21.724426955
  0
LINE
  5
239
100
AcDbEntity
  8
0
100
AcDbLine
 62
7
  6
BYLAYER
 10
69.4683931811
 20
44.684243954
 11
65.2964805416
 21
47.0928861658
  0
LINE
  5
23A
100
AcDbEntity
  8
0
100
AcDbLine
 62
7
  6
BYLAYER
 10
34.5374636228
 20
66.1586060264
 11
28.527030959
 21
69.6286524398
  0
LINE
  5
23B
100
AcDbEntity
  8
0
100
AcDbLine
 62
7
  6
BYLAYER
 10
48.0501720261
 20
90.3603644394
 11
48.0501720261
 21
87.9109199122
  0
LINE
  5
23C
100
AcDbEntity
  8
0
100
AcDbLine
 62
7
  6
BYLAYER
 10
28.527030959
 20
79.6602827869
 11
21.8094885701
 21
83.5385699548
  0
LINE
  5
23D
100
AcDbEntity
  8
0
100
AcDbLine
 62
7
  6
BYLAYER
 10
46.3178135508
 20
72.9599536299
 11
40.307380887
 21
76.4300000433
  0
LINE
  5
23E
100
AcDbEntity
  8
0
100
AcDbLine
 62
7
  6
BYLAYER
 10
34.0424367678
 20
83.416126623
 11
28.3148479941
 21
86.7228767346
  0
LINE
  5
23F
100
AcDbEntity
  8
0
100
AcDbLine
 62
7
  6
BYLAYER
 10
65.2964805416
 20
74.338020362
 11
65.2964805416
 21
43.9086082804
  0
LINE
  5
240
100
AcDbEntity
  8
0
100
AcDbLine
 62
7
  6
BYLAYER
 10
65.2964805416
 20
43.9086082804
 11
68.0541855067
 21
45.5007604805
  0
LINE
  5
241
100
AcDbEntity
  8
0
100
AcDbLine
 62
7
  6
BYLAYER
 10
34.5374636228
 20
22.2716011057
 11
23.2238022274
 21
15.7396946437
  0
LINE
  5
242
100
AcDbEntity
  8
0
100
AcDbLine
 62
7
  6
BYLAYER
 10
30.4361595057
 20
87.9476091962
 11
36.1637482794
 21
84.6408590846
  0
LINE
  5
243
100
AcDbEntity
  8
0
100
AcDbLine
 62
7
  6
BYLAYER
 10
69.4683931811
 20
86.8712908423
 11
69.4683931811
 21
76.7466608699
  0
LINE
  5
244
100
AcDbEntity
  8
0
100
AcDbLine
 62
7
  6
BYLAYER
 10
69.4683931811
 20
44.684243954
 11
69.4683931811
 21
25.2923115472
  0
LINE
  5
245
100
AcDbEntity
  8
0
100
AcDbLine
 62
7
  6
BYLAYER
 10
46.3178135508
 20
82.991583977
 11
40.307380887
 21
86.4616303904
  0
LINE
  5
246
100
AcDbEntity
  8
0
100
AcDbLine
 62
7
  6
BYLAYER
 10
46.3178135508
 20
21.724426955
 11
34.5374636228
 21
14.9230793515
  0
LINE
  5
247
100
AcDbEntity
  8
0
100
AcDbLine
 62
7
  6
BYLAYER
 10
29.552331523
 20
11.7590333964
 11
32.8050091742
 21
13.6369565042
  0
LINE
  5
248
100
AcDbEntity
  8
0
100
AcDbLine
 62
7
  6
BYLAYER
 10
50.949339563
 20
86.2371226207
 11
45.9288605144
 21
89.1356319778
  0
LINE
  5
249
100
AcDbEntity
  8
0
100
AcDbLine
 62
7
  6
BYLAYER
 10
69.4683931811
 20
86.8712908423
 11
68.3138216815
 21
95.6909093876
  0
LINE
  5
24A
100
AcDbEntity
  8
0
100
AcDbLine
 62
7
  6
BYLAYER
 10
32.8050091742
 20
11.8814763074
 11
29.552331523
 21
10.0035531996
  0
LINE
  5
24B
100
AcDbEntity
  8
0
100
AcDbLine
 62
7
  6
BYLAYER
 10
28.527030959
 20
8.5950967594
 11
40.307380887
 21
15.3964443629
  0
LINE
  5
24C
100
AcDbEntity
  8
0
100
AcDbLine
 62
7
  6
BYLAYER
 10
48.0501720261
 20
90.3603644394
 11
53.0706510746
 21
87.4618550823
  0
LINE
  5
24D
100
AcDbEntity
  8
0
100
AcDbLine
 62
7
  6
BYLAYER
 10
69.4683931811
 20
25.2923115472
 11
46.3178135508
 21
11.9263979494
  0
LINE
  5
24E
100
AcDbEntity
  8
0
100
AcDbLine
 62
7
  6
BYLAYER
 10
68.3138216815
 20
95.6909093876
 11
55.5858466288
 21
103.0392429689
  0
SPLINE
  5
24F
100
AcDbEntity
  8
0
100
AcDbSpline
 62
7
  6
BYLAYER
 70
0
 71
3
 72
15
 73
11
 74
0
 42
0.0000001
 43
0.0000001
 44
0.0000000001
 40
0.0
 40
0.0
 40
0.0
 40
0.0
 40
0.1568759131
 40
0.3076173007
 40
0.4495624278
 40
0.5807403792
 40
0.7001509254
 40
0.8081214985
 40
0.9067396983
 40
1.0
 40
1.0
 40
1.0
 40
1.0
 10
44.856958983
 20
20.8692472944
 30
0.0
 10
44.9292018925
 20
20.7104645333
 30
0.0
 10
45.0551562602
 20
20.3916315696
 30
0.0
 10
45.1877412003
 20
19.9085578238
 30
0.0
 10
45.257415285
 20
19.4410969243
 30
0.0
 10
45.2620202412
 20
19.0030157049
 30
0.0
 10
45.2009523207
 20
18.606839706
 30
0.0
 10
45.0744272672
 20
18.2639085023
 30
0.0
 10
44.8842300426
 20
17.9853773277
 30
0.0
 10
44.7152686673
 20
17.8488586938
 30
0.0
 10
44.6254504921
 20
17.7970188219
 30
0.0
  0
SPLINE
  5
250
100
AcDbEntity
  8
0
100
AcDbSpline
 62
7
  6
BYLAYER
 70
0
 71
3
 72
15
 73
11
 74
0
 42
0.0000001
 43
0.0000001
 44
0.0000000001
 40
0.0
 40
0.0
 40
0.0
 40
0.0
 40
0.1567333984
 40
0.3076020162
 40
0.4498109208
 40
0.5812589044
 40
0.7008268063
 40
0.8087619586
 40
0.9071325225
 40
1.0
 40
1.0
 40
1.0
 40
1.0
 10
26.753496869
 20
17.7656402135
 30
0.0
 10
26.8294227749
 20
17.6046628899
 30
0.0
 10
26.9623266152
 20
17.2807899942
 30
0.0
 10
27.1038506951
 20
16.7888810236
 30
0.0
 10
27.1807420339
 20
16.3116210452
 30
0.0
 10
27.1905450359
 20
15.8635283756
 30
0.0
 10
27.1324674372
 20
15.4578372275
 30
0.0
 10
27.006661053
 20
15.1064976704
 30
0.0
 10
26.8148538657
 20
14.8212293318
 30
0.0
 10
26.6431616003
 20
14.681730758
 30
0.0
 10
26.5518240103
 20
14.6290139336
 30
0.0
  0
SPLINE
  5
251
100
AcDbEntity
  8
0
100
AcDbSpline
 62
7
  6
BYLAYER
 70
0
 71
3
 72
19
 73
15
 74
0
 42
0.0000001
 43
0.0000001
 44
0.0000000001
 40
0.0
 40
0.0
 40
0.0
 40
0.0
 40
0.0428394104
 40
0.0874448899
 40
0.1352571039
 40
0.1871950253
 40
0.2436735499
 40
0.3046656819
 40
0.4382689093
 40
0.5825434307
 40
0.7296392143
 40
0.871166535
 40
0.9376088396
 40
1.0
 40
1.0
 40
1.0
 40
1.0
 10
23.5018498498
 20
77.6679522452
 30
0.0
 10
23.5770390435
 20
77.711370063
 30
0.0
 10
23.7428062922
 20
77.7802016986
 30
0.0
 10
24.0163954091
 20
77.8203640037
 30
0.0
 10
24.310202576
 20
77.7986943759
 30
0.0
 10
24.6176864238
 20
77.7170214623
 30
0.0
 10
24.9328438032
 20
77.5777728609
 30
0.0
 10
25.3678749779
 20
77.3114712312
 30
0.0
 10
25.8861352925
 20
76.8525148476
 30
0.0
 10
26.4188065717
 20
76.1705475367
 30
0.0
 10
26.8382447959
 20
75.3954691377
 30
0.0
 10
27.070336425
 20
74.7095122928
 30
0.0
 10
27.1662930329
 20
74.1691895556
 30
0.0
 10
27.1835224813
 20
73.9078966388
 30
0.0
 10
27.1835224813
 20
73.7814455209
 30
0.0
  0
SPLINE
  5
252
100
AcDbEntity
  8
0
100
AcDbSpline
 62
7
  6
BYLAYER
 70
0
 71
3
 72
19
 73
15
 74
0
 42
0.0000001
 43
0.0000001
 44
0.0000000001
 40
0.0
 40
0.0
 40
0.0
 40
0.0
 40
0.0428394104
 40
0.0874448899
 40
0.1352571039
 40
0.1871950253
 40
0.2436735499
 40
0.3046656819
 40
0.4382689093
 40
0.5825434307
 40
0.7296392143
 40
0.871166535
 40
0.9376088396
 40
1.0
 40
1.0
 40
1.0
 40
1.0
 10
41.5754763316
 20
80.8359571335
 30
0.0
 10
41.6506655252
 20
80.8793749512
 30
0.0
 10
41.816432774
 20
80.9482065868
 30
0.0
 10
42.0900218909
 20
80.988368892
 30
0.0
 10
42.3838290578
 20
80.9666992641
 30
0.0
 10
42.6913129056
 20
80.8850263506
 30
0.0
 10
43.006470285
 20
80.7457777492
 30
0.0
 10
43.4415014597
 20
80.4794761194
 30
0.0
 10
43.9597617743
 20
80.0205197359
 30
0.0
 10
44.4924330535
 20
79.3385524249
 30
0.0
 10
44.9118712777
 20
78.5634740259
 30
0.0
 10
45.1439629068
 20
77.8775171811
 30
0.0
 10
45.2399195146
 20
77.3371944439
 30
0.0
 10
45.257148963
 20
77.0759015271
 30
0.0
 10
45.257148963
 20
76.9494504091
 30
0.0
  0
SPLINE
  5
253
100
AcDbEntity
  8
0
100
AcDbSpline
 62
7
  6
BYLAYER
 70
0
 71
3
 72
11
 73
7
 74
0
 42
0.0000001
 43
0.0000001
 44
0.0000000001
 40
0.0
 40
0.0
 40
0.0
 40
0.0
 40
0.2897016594
 40
0.5490895814
 40
0.7822189142
 40
1.0
 40
1.0
 40
1.0
 40
1.0
 10
27.1835224813
 20
73.7814455209
 30
0.0
 10
27.1835224813
 20
73.6269082247
 30
0.0
 10
27.1600925188
 20
73.3330095315
 30
0.0
 10
27.0410733004
 20
72.9292051515
 30
0.0
 10
26.8406698641
 20
72.6015410168
 30
0.0
 10
26.6524296893
 20
72.4433008775
 30
0.0
 10
26.5518257893
 20
72.3852073991
 30
0.0
  0
SPLINE
  5
254
100
AcDbEntity
  8
0
100
AcDbSpline
 62
7
  6
BYLAYER
 70
0
 71
3
 72
11
 73
7
 74
0
 42
0.0000001
 43
0.0000001
 44
0.0000000001
 40
0.0
 40
0.0
 40
0.0
 40
0.0
 40
0.2897016594
 40
0.5490895814
 40
0.7822189142
 40
1.0
 40
1.0
 40
1.0
 40
1.0
 10
45.257148963
 20
76.9494504091
 30
0.0
 10
45.257148963
 20
76.794913113
 30
0.0
 10
45.2337190006
 20
76.5010144198
 30
0.0
 10
45.1146997822
 20
76.0972100397
 30
0.0
 10
44.9142963459
 20
75.7695459051
 30
0.0
 10
44.7260561711
 20
75.6113057658
 30
0.0
 10
44.6254522711
 20
75.5532122874
 30
0.0
  0
SPLINE
  5
255
100
AcDbEntity
  8
0
100
AcDbSpline
 62
7
  6
BYLAYER
 70
0
 71
3
 72
11
 73
7
 74
0
 42
0.0000001
 43
0.0000001
 44
0.0000000001
 40
0.0
 40
0.0
 40
0.0
 40
0.0
 40
0.2897016594
 40
0.5490895814
 40
0.7822189142
 40
1.0
 40
1.0
 40
1.0
 40
1.0
 10
22.8701531579
 20
76.2717141234
 30
0.0
 10
22.8701531579
 20
76.4262514196
 30
0.0
 10
22.8935831203
 20
76.7201501128
 30
0.0
 10
23.0126023387
 20
77.1239544929
 30
0.0
 10
23.213005775
 20
77.4516186275
 30
0.0
 10
23.4012459498
 20
77.6098587668
 30
0.0
 10
23.5018498498
 20
77.6679522452
 30
0.0
  0
SPLINE
  5
256
100
AcDbEntity
  8
0
100
AcDbSpline
 62
7
  6
BYLAYER
 70
0
 71
3
 72
10
 73
6
 74
0
 42
0.0000001
 43
0.0000001
 44
0.0000000001
 40
0.0
 40
0.0
 40
0.0
 40
0.0
 40
0.2302980101
 40
0.4761118174
 40
1.0
 40
1.0
 40
1.0
 40
1.0
 10
43.1004643013
 20
17.9480557099
 30
0.0
 10
42.9851869482
 20
18.0146096151
 30
0.0
 10
42.756221771
 20
18.1688545501
 30
0.0
 10
42.3163545777
 20
18.5450378825
 30
0.0
 10
42.025080365
 20
18.8862325783
 30
0.0
 10
41.8490958165
 20
19.1326443011
 30
0.0
  0
SPLINE
  5
257
100
AcDbEntity
  8
0
100
AcDbSpline
 62
7
  6
BYLAYER
 70
0
 71
3
 72
11
 73
7
 74
0
 42
0.0000001
 43
0.0000001
 44
0.0000000001
 40
0.0
 40
0.0
 40
0.0
 40
0.0
 40
0.2897016594
 40
0.5490895814
 40
0.7822189142
 40
1.0
 40
1.0
 40
1.0
 40
1.0
 10
40.9437796397
 20
79.4397190117
 30
0.0
 10
40.9437796397
 20
79.5942563079
 30
0.0
 10
40.9672096021
 20
79.8881550011
 30
0.0
 10
41.0862288205
 20
80.2919593811
 30
0.0
 10
41.2866322568
 20
80.6196235158
 30
0.0
 10
41.4748724316
 20
80.7778636551
 30
0.0
 10
41.5754763316
 20
80.8359571335
 30
0.0
  0
SPLINE
  5
258
100
AcDbEntity
  8
0
100
AcDbSpline
 62
7
  6
BYLAYER
 70
0
 71
3
 72
11
 73
7
 74
0
 42
0.0000001
 43
0.0000001
 44
0.0000000001
 40
0.0
 40
0.0
 40
0.0
 40
0.0
 40
0.2177849011
 40
0.4509184398
 40
0.7103088704
 40
1.0
 40
1.0
 40
1.0
 40
1.0
 10
26.5518240103
 20
14.6290139336
 30
0.0
 10
26.4512087961
 20
14.570942393
 30
0.0
 10
26.2200577411
 20
14.4870292336
 30
0.0
 10
25.8360924134
 20
14.4773158959
 30
0.0
 10
25.426892096
 20
14.5761374051
 30
0.0
 10
25.1606632443
 20
14.7027884245
 30
0.0
 10
25.0268378196
 20
14.7800508216
 30
0.0
  0
SPLINE
  5
259
100
AcDbEntity
  8
0
100
AcDbSpline
 62
7
  6
BYLAYER
 70
0
 71
3
 72
19
 73
15
 74
0
 42
0.0000001
 43
0.0000001
 44
0.0000000001
 40
0.0
 40
0.0
 40
0.0
 40
0.0
 40
0.0428394104
 40
0.0874448899
 40
0.1352571039
 40
0.1871950253
 40
0.2436735499
 40
0.3046656819
 40
0.4382689093
 40
0.5825434307
 40
0.7296392143
 40
0.871166535
 40
0.9376088396
 40
1.0
 40
1.0
 40
1.0
 40
1.0
 10
44.6254522711
 20
75.5532122874
 30
0.0
 10
44.5502630775
 20
75.5097944696
 30
0.0
 10
44.3844958287
 20
75.440962834
 30
0.0
 10
44.1109067118
 20
75.4008005289
 30
0.0
 10
43.8170995449
 20
75.4224701567
 30
0.0
 10
43.5096156971
 20
75.5041430703
 30
0.0
 10
43.1944583177
 20
75.6433916717
 30
0.0
 10
42.759427143
 20
75.9096933014
 30
0.0
 10
42.2411668284
 20
76.368649685
 30
0.0
 10
41.7084955492
 20
77.0506169959
 30
0.0
 10
41.289057325
 20
77.8256953949
 30
0.0
 10
41.0569656959
 20
78.5116522398
 30
0.0
 10
40.9610090881
 20
79.051974977
 30
0.0
 10
40.9437796397
 20
79.3132678938
 30
0.0
 10
40.9437796397
 20
79.4397190117
 30
0.0
  0
SPLINE
  5
25A
100
AcDbEntity
  8
0
100
AcDbSpline
 62
7
  6
BYLAYER
 70
0
 71
3
 72
11
 73
7
 74
0
 42
0.0000001
 43
0.0000001
 44
0.0000000001
 40
0.0
 40
0.0
 40
0.0
 40
0.0
 40
0.2177849011
 40
0.4509184398
 40
0.7103088704
 40
1.0
 40
1.0
 40
1.0
 40
1.0
 10
44.6254504921
 20
17.7970188219
 30
0.0
 10
44.5248352779
 20
17.7389472813
 30
0.0
 10
44.2936842228
 20
17.6550341219
 30
0.0
 10
43.9097188952
 20
17.6453207842
 30
0.0
 10
43.5005185777
 20
17.7441422933
 30
0.0
 10
43.2342897261
 20
17.8707933128
 30
0.0
 10
43.1004643013
 20
17.9480557099
 30
0.0
  0
SPLINE
  5
25B
100
AcDbEntity
  8
0
100
AcDbSpline
 62
7
  6
BYLAYER
 70
0
 71
3
 72
10
 73
6
 74
0
 42
0.0000001
 43
0.0000001
 44
0.0000000001
 40
0.0
 40
0.0
 40
0.0
 40
0.0
 40
0.5238976603
 40
0.7697109457
 40
1.0
 40
1.0
 40
1.0
 40
1.0
 10
42.5560930907
 20
19.541039539
 30
0.0
 10
42.7320880286
 20
19.2945890009
 30
0.0
 10
43.023390229
 20
18.9533472268
 30
0.0
 10
43.4632990906
 20
18.5771182105
 30
0.0
 10
43.6922830305
 20
18.4228582461
 30
0.0
 10
43.8075681386
 20
18.3562998637
 30
0.0
  0
SPLINE
  5
25C
100
AcDbEntity
  8
0
100
AcDbSpline
 62
7
  6
BYLAYER
 70
0
 71
3
 72
10
 73
6
 74
0
 42
0.0000001
 43
0.0000001
 44
0.0000000001
 40
0.0
 40
0.0
 40
0.0
 40
0.0
 40
0.2299567282
 40
0.475837667
 40
1.0
 40
1.0
 40
1.0
 40
1.0
 10
25.0268378196
 20
14.7800508216
 30
0.0
 10
24.9070377845
 20
14.8492158394
 30
0.0
 10
24.6692432208
 20
15.0103227699
 30
0.0
 10
24.2139165184
 20
15.4047979744
 30
0.0
 10
23.9143841031
 20
15.7635411804
 30
0.0
 10
23.7346583316
 20
16.0226197378
 30
0.0
  0
SPLINE
  5
25D
100
AcDbEntity
  8
0
100
AcDbSpline
 62
7
  6
BYLAYER
 70
0
 71
3
 72
11
 73
7
 74
0
 42
0.0000001
 43
0.0000001
 44
0.0000000001
 40
0.0
 40
0.0
 40
0.0
 40
0.0
 40
0.2790695429
 40
0.5382337605
 40
0.7775865366
 40
1.0
 40
1.0
 40
1.0
 40
1.0
 10
43.8075681386
 20
18.3562998637
 30
0.0
 10
43.9023501624
 20
18.3015786747
 30
0.0
 10
44.0914629085
 20
18.2063807405
 30
0.0
 10
44.3808508042
 20
18.1068107383
 30
0.0
 10
44.6607306071
 20
18.058354128
 30
0.0
 10
44.843259295
 20
18.0611622171
 30
0.0
 10
44.9297940523
 20
18.0721146345
 30
0.0
  0
SPLINE
  5
25E
100
AcDbEntity
  8
0
100
AcDbSpline
 62
7
  6
BYLAYER
 70
0
 71
3
 72
10
 73
6
 74
0
 42
0.0000001
 43
0.0000001
 44
0.0000000001
 40
0.0
 40
0.0
 40
0.0
 40
0.0
 40
0.5241622863
 40
0.7700432871
 40
1.0
 40
1.0
 40
1.0
 40
1.0
 10
24.4417610653
 20
16.4308654924
 30
0.0
 10
24.6214869005
 20
16.1717866018
 30
0.0
 10
24.9210195334
 20
15.8130428956
 30
0.0
 10
25.3763466926
 20
15.4185672336
 30
0.0
 10
25.6141415012
 20
15.2574600628
 30
0.0
 10
25.7339416568
 20
15.1882949755
 30
0.0
  0
SPLINE
  5
25F
100
AcDbEntity
  8
0
100
AcDbSpline
 62
7
  6
BYLAYER
 70
0
 71
3
 72
19
 73
15
 74
0
 42
0.0000001
 43
0.0000001
 44
0.0000000001
 40
0.0
 40
0.0
 40
0.0
 40
0.0
 40
0.0428394104
 40
0.0874448899
 40
0.1352571039
 40
0.1871950253
 40
0.2436735499
 40
0.3046656819
 40
0.4382689093
 40
0.5825434307
 40
0.7296392143
 40
0.871166535
 40
0.9376088396
 40
1.0
 40
1.0
 40
1.0
 40
1.0
 10
26.5518257893
 20
72.3852073991
 30
0.0
 10
26.4766365957
 20
72.3417895814
 30
0.0
 10
26.310869347
 20
72.2729579458
 30
0.0
 10
26.03728023
 20
72.2327956406
 30
0.0
 10
25.7434730631
 20
72.2544652685
 30
0.0
 10
25.4359892153
 20
72.336138182
 30
0.0
 10
25.1208318359
 20
72.4753867834
 30
0.0
 10
24.6858006612
 20
72.7416884132
 30
0.0
 10
24.1675403466
 20
73.2006447967
 30
0.0
 10
23.6348690675
 20
73.8826121076
 30
0.0
 10
23.2154308432
 20
74.6576905066
 30
0.0
 10
22.9833392141
 20
75.3436473515
 30
0.0
 10
22.8873826063
 20
75.8839700887
 30
0.0
 10
22.8701531579
 20
76.1452630055
 30
0.0
 10
22.8701531579
 20
76.2717141234
 30
0.0
  0
SPLINE
  5
260
100
AcDbEntity
  8
0
100
AcDbSpline
 62
7
  6
BYLAYER
 70
0
 71
3
 72
11
 73
7
 74
0
 42
0.0000001
 43
0.0000001
 44
0.0000000001
 40
0.0
 40
0.0
 40
0.0
 40
0.0
 40
0.2790695429
 40
0.5382337605
 40
0.7775865366
 40
1.0
 40
1.0
 40
1.0
 40
1.0
 10
25.7339416568
 20
15.1882949755
 30
0.0
 10
25.8287236806
 20
15.1335737864
 30
0.0
 10
26.0178364267
 20
15.0383758522
 30
0.0
 10
26.3072243224
 20
14.93880585
 30
0.0
 10
26.5871041253
 20
14.8903492397
 30
0.0
 10
26.7696328132
 20
14.8931573288
 30
0.0
 10
26.8561675705
 20
14.9041097462
 30
0.0
  0
ENDSEC
  0
SECTION
  2
OBJECTS
  0
DICTIONARY
  5
C
100
AcDbDictionary
280
0
281
1
  3
ACAD_GROUP
350
D
  3
ACAD_MLINESTYLE
350
17
  3
ACAD_LAYOUT
350
1A
  3
ACAD_PLOTSETTINGS
350
19
  3
ACAD_PLOTSTYLENAME
350
E
  0
DICTIONARY
  5
D
102
{ACAD_REACTORS
330
C
102
}
100
AcDbDictionary
280
0
281
1
  0
ACDBDICTIONARYWDFLT
  5
E
102
{ACAD_REACTORS
330
C
102
}
100
AcDbDictionary
281
1
  3
Normal
350
F
100
AcDbDictionaryWithDefault
340
F
  0
DICTIONARY
  5
17
102
{ACAD_REACTORS
330
C
102
}
100
AcDbDictionary
280
0
281
1
  3
Standard
350
18
  0
DICTIONARY
  5
19
102
{ACAD_REACTORS
330
C
102
}
100
AcDbDictionary
281
1
  0
DICTIONARY
  5
1A
102
{ACAD_REACTORS
330
C
102
}
100
AcDbDictionary
281
1
  3
Model
350
261
  3
Layout1
350
262
  0
ACDBPLACEHOLDER
  5
F
102
{ACAD_REACTORS
330
E
102
}
  0
MLINESTYLE
  5
18
102
{ACAD_REACTORS
330
17
102
}
100
AcDbMlineStyle
  2
STANDARD
 70
0
  3

 62
256
 51
90.0
 52
90.0
 71
2
 49
0.5
 62
256
  6
BYLAYER
 49
-0.5
 62
256
  6
BYLAYER
  0
LAYOUT
  5
261
102
{ACAD_REACTORS
330
1A
102
}
100
AcDbPlotSettings
  1

  2
none_device
  4

  6

 40
0.0
 41
0.0
 42
0.0
 43
0.0
 44
210.0
 45
297.0
 46
0.0
 47
0.0
 48
0.0
 49
0.0
140
0.0
141
0.0
142
1.0
143
1.0
 70
1024
 72
1
 73
0
 74
0
  7

 75
0
147
1.0
148
0.0
149
0.0
100
AcDbLayout
  1
Model
 70
0
 71
0
 10
0.0
 20
0.0
 11
210.0
 21
297.0
 12
0.0
 22
0.0
 32
0.0
 14
0.0
 24
0.0
 34
0.0
 15
0.0
 25
0.0
 35
0.0
146
0.0
 13
0.0
 23
0.0
 33
0.0
 16
1.0
 26
0.0
 36
0.0
 17
0.0
 27
1.0
 37
0.0
 76
0
330
210
345
0
346
0
  0
LAYOUT
  5
262
102
{ACAD_REACTORS
330
1A
102
}
100
AcDbPlotSettings
  1

  2
none_device
  4

  6

 40
0.0
 41
0.0
 42
0.0
 43
0.0
 44
210.0
 45
297.0
 46
0.0
 47
0.0
 48
0.0
 49
0.0
140
0.0
141
0.0
142
1.0
143
1.0
 70
0
 72
1
 73
0
 74
0
  7

 75
0
147
1.0
148
0.0
149
0.0
100
AcDbLayout
  1
Layout1
 70
0
 71
1
 10
0.0
 20
0.0
 11
210.0
 21
297.0
 12
0.0
 22
0.0
 32
0.0
 14
0.0
 24
0.0
 34
0.0
 15
0.0
 25
0.0
 35
0.0
146
0.0
 13
0.0
 23
0.0
 33
0.0
 16
1.0
 26
0.0
 36
0.0
 17
0.0
 27
1.0
 37
0.0
 76
0
330
211
345
0
346
0
  0
ENDSEC
  0
EOF
