999
DXF file: C:\Users\sesa63760\Dev\_Creo\CAD\MCADID0001769_3D-CAD\drw0001_1.dxf
999
Pro/ENGINEER 2019471 by Parametric Technology Corporation
  0
SECTION
  2
HEADER
  9
$ACADVER
  1
AC1024
  9
$DWGCODEPAGE
  3
ANSI_1252
  9
$EXTMAX
 10
101.8905296763
 20
144.1023205422
 30
0.0
  9
$EXTMIN
 10
0.0
 20
0.0
 30
0.0
  9
$LIMMIN
 10
0.0
 20
0.0
  9
$LIMMAX
 10
101.8905296763
 20
144.1023205422
  9
$VIEWCTR
 10
50.9452648382
 20
72.0511602711
  9
$VIEWSIZE
 40
144.1023205422
  9
$CLAYER
  8
0
  9
$LTSCALE
 40
9.3933364502
  9
$CELTYPE
  6
BYLAYER
  9
$DIMSCALE
 40
1.0
  9
$DIMASZ
 40
1.2129824961
  9
$DIMEXO
 40
1.0
  9
$DIMDLI
 40
6.4899415474
  9
$DIMEXE
 40
1.0
  9
$DIMCEN
 40
1.5370914191
  9
$DIMLFAC
 40
1.0
  9
$DIMBLK
  1
_FILLED
  9
$DIMALT
 70
0
  9
$DIMALTF
 40
0.0393700787
  9
$DIMTXT
 40
1.6981754946
  9
$DIMTOL
 70
1
  9
$DIMLIM
 70
0
  9
$DIMTFAC
 40
1.0
  9
$DIMTP
 40
0.01
  9
$DIMTM
 40
0.01
  9
$DIMGAP
 40
0.625
  9
$DIMDSEP
 70
46
  9
$AUNITS
 70
0
  9
$PDMODE
 70
3
  9
$PDSIZE
 40
0.3125
  9
$HANDSEED
  5
2A7
  9
$TILEMODE
 70
1
  9
$MEASUREMENT
 70
1
  9
$INSUNITS
 70
4
  0
ENDSEC
  0
SECTION
  2
CLASSES
  0
CLASS
  1
ACDBDICTIONARYWDFLT
  2
AcDbDictionaryWithDefault
  3
AutoCAD 2000
 90
0
 91
1
280
0
281
0
  0
CLASS
  1
ACDBPLACEHOLDER
  2
AcDbPlaceHolder
  3
AutoCAD 2000
 90
0
 91
1
280
0
281
0
  0
CLASS
  1
LAYOUT
  2
AcDbLayout
  3
AutoCAD 2000
 90
0
 91
0
280
0
281
0
  0
ENDSEC
  0
SECTION
  2
TABLES
  0
TABLE
  2
VPORT
  5
8
100
AcDbSymbolTable
 70
2
  0
VPORT
  5
1F4
100
AcDbSymbolTableRecord
100
AcDbViewportTableRecord
  2
*ACTIVE
 70
0
 10
0.0
 20
0.0
 11
1.0
 21
1.0
 12
50.9452648382
 22
72.0511602711
 13
0.0
 23
0.0
 14
1.0
 24
1.0
 15
0.0
 25
0.0
 16
0.0
 26
0.0
 36
1.0
 17
0.0
 27
0.0
 37
0.0
 40
144.1023205422
 41
0.7070707071
 42
50.0
 43
0.0
 44
0.0
 50
0.0
 51
0.0
 71
0
 72
100
 73
1
 74
1
 75
0
 76
0
 77
0
 78
0
  0
ENDTAB
  0
TABLE
  2
LTYPE
  5
5
100
AcDbSymbolTable
 70
6
  0
LTYPE
  5
14
100
AcDbSymbolTableRecord
100
AcDbLinetypeTableRecord
  2
BYBLOCK
 70
0
  3

 72
65
 73
0
 40
0.0
  0
LTYPE
  5
15
100
AcDbSymbolTableRecord
100
AcDbLinetypeTableRecord
  2
BYLAYER
 70
0
  3

 72
65
 73
0
 40
0.0
  0
LTYPE
  5
16
100
AcDbSymbolTableRecord
100
AcDbLinetypeTableRecord
  2
CONTINUOUS
 70
64
  3
Solid line
 72
65
 73
0
 40
0.0
  0
LTYPE
  5
1F5
100
AcDbSymbolTableRecord
100
AcDbLinetypeTableRecord
  2
CENTER
 70
64
  3
____ _ ____ _ ____ _ ____ _ ____ _ ____ _ ____
 72
65
 73
4
 40
0.6
 49
0.375
 74
0
 49
-0.075
 74
0
 49
0.075
 74
0
 49
-0.075
 74
0
  0
LTYPE
  5
1F6
100
AcDbSymbolTableRecord
100
AcDbLinetypeTableRecord
  2
HIDDEN
 70
64
  3
- - - - - - - - - - - - - - - - - - - -
 72
65
 73
2
 40
0.2
 49
0.1
 74
0
 49
-0.1
 74
0
  0
LTYPE
  5
1F7
100
AcDbSymbolTableRecord
100
AcDbLinetypeTableRecord
  2
PHANTOM
 70
64
  3
_____ _ _ _____ _ _ _____ _ _ _____
 72
65
 73
6
 40
0.8
 49
0.45
 74
0
 49
-0.05
 74
0
 49
0.1
 74
0
 49
-0.05
 74
0
 49
0.1
 74
0
 49
-0.05
 74
0
  0
LTYPE
  5
1F8
100
AcDbSymbolTableRecord
100
AcDbLinetypeTableRecord
  2
DOT
 70
64
  3
. . . . . . . . . . . . . . . . . . . .
 72
65
 73
2
 40
0.2
 49
0.1
 74
0
 49
-0.1
 74
0
  0
LTYPE
  5
1F9
100
AcDbSymbolTableRecord
100
AcDbLinetypeTableRecord
  2
DASHED
 70
64
  3
- - - - - - - - - - - - - - - - - - - -
 72
65
 73
2
 40
0.2
 49
0.1
 74
0
 49
-0.1
 74
0
  0
ENDTAB
  0
TABLE
  2
LAYER
  5
2
100
AcDbSymbolTable
 70
36
  0
LAYER
  5
10
100
AcDbSymbolTableRecord
100
AcDbLayerTableRecord
  2
0
 70
0
 62
7
  6
CONTINUOUS
370
-3
390
F
  0
LAYER
  5
1FA
100
AcDbSymbolTableRecord
100
AcDbLayerTableRecord
  2
DEFAULT_1
 70
0
 62
7
  6
CENTER
370
-3
390
F
  0
LAYER
  5
1FB
100
AcDbSymbolTableRecord
100
AcDbLayerTableRecord
  2
DEFAULT_2
 70
0
 62
8
  6
HIDDEN
370
-3
390
F
  0
LAYER
  5
1FC
100
AcDbSymbolTableRecord
100
AcDbLayerTableRecord
  2
DEFAULT_3
 70
0
 62
7
  6
PHANTOM
370
-3
390
F
  0
LAYER
  5
1FD
100
AcDbSymbolTableRecord
100
AcDbLayerTableRecord
  2
00_COMPONENTS
 70
0
 62
7
  6
CONTINUOUS
370
-3
390
F
  0
LAYER
  5
1FE
100
AcDbSymbolTableRecord
100
AcDbLayerTableRecord
  2
01_1_DEFAULT_DATUMS
 70
0
 62
7
  6
CONTINUOUS
370
-3
390
F
  0
LAYER
  5
1FF
100
AcDbSymbolTableRecord
100
AcDbLayerTableRecord
  2
01_PLANES
 70
0
 62
7
  6
CONTINUOUS
370
-3
390
F
  0
LAYER
  5
200
100
AcDbSymbolTableRecord
100
AcDbLayerTableRecord
  2
02_COORD_SYS
 70
0
 62
7
  6
CONTINUOUS
370
-3
390
F
  0
LAYER
  5
201
100
AcDbSymbolTableRecord
100
AcDbLayerTableRecord
  2
03_AXES
 70
0
 62
7
  6
CONTINUOUS
370
-3
390
F
  0
LAYER
  5
202
100
AcDbSymbolTableRecord
100
AcDbLayerTableRecord
  2
04_POINTS
 70
0
 62
7
  6
CONTINUOUS
370
-3
390
F
  0
LAYER
  5
203
100
AcDbSymbolTableRecord
100
AcDbLayerTableRecord
  2
05_CURVES
 70
0
 62
7
  6
CONTINUOUS
370
-3
390
F
  0
LAYER
  5
204
100
AcDbSymbolTableRecord
100
AcDbLayerTableRecord
  2
06_SURFS
 70
0
 62
7
  6
CONTINUOUS
370
-3
390
F
  0
LAYER
  5
205
100
AcDbSymbolTableRecord
100
AcDbLayerTableRecord
  2
07_COSMETICS
 70
0
 62
7
  6
CONTINUOUS
370
-3
390
F
  0
LAYER
  5
206
100
AcDbSymbolTableRecord
100
AcDbLayerTableRecord
  2
10_NOTES
 70
0
 62
7
  6
CONTINUOUS
370
-3
390
F
  0
LAYER
  5
207
100
AcDbSymbolTableRecord
100
AcDbLayerTableRecord
  2
11_NOTES_PUB
 70
0
 62
7
  6
CONTINUOUS
370
-3
390
F
  0
LAYER
  5
208
100
AcDbSymbolTableRecord
100
AcDbLayerTableRecord
  2
13_REF_GTOL
 70
0
 62
7
  6
CONTINUOUS
370
-3
390
F
  0
LAYER
  5
209
100
AcDbSymbolTableRecord
100
AcDbLayerTableRecord
  2
16_MISC
 70
0
 62
7
  6
CONTINUOUS
370
-3
390
F
  0
LAYER
  5
20A
100
AcDbSymbolTableRecord
100
AcDbLayerTableRecord
  2
17_NO_PRINT
 70
0
 62
7
  6
CONTINUOUS
370
-3
390
F
  0
LAYER
  5
20B
100
AcDbSymbolTableRecord
100
AcDbLayerTableRecord
  2
18_DATUM_CAMS_JOINTS
 70
0
 62
7
  6
CONTINUOUS
370
-3
390
F
  0
LAYER
  5
20C
100
AcDbSymbolTableRecord
100
AcDbLayerTableRecord
  2
19_DATUM_FUNCTIONAL
 70
0
 62
7
  6
CONTINUOUS
370
-3
390
F
  0
LAYER
  5
20D
100
AcDbSymbolTableRecord
100
AcDbLayerTableRecord
  2
20_DATUM_KINEMATIC_SCHEME
 70
0
 62
7
  6
CONTINUOUS
370
-3
390
F
  0
ENDTAB
  0
TABLE
  2
STYLE
  5
3
100
AcDbSymbolTable
 70
1
  0
STYLE
  5
11
100
AcDbSymbolTableRecord
100
AcDbTextStyleTableRecord
  2
STANDARD
 70
0
 40
0.0
 41
0.8
 50
0.0
 71
0
 42
0.2
  3
txt
  4

  0
STYLE
  5
20E
100
AcDbSymbolTableRecord
100
AcDbTextStyleTableRecord
  2
TEXTSTYLE_1
 70
0
 40
0.0
 41
0.8
 50
0.0
 71
0
 42
0.2
  3
gdt
  4

  0
ENDTAB
  0
TABLE
  2
VIEW
  5
6
100
AcDbSymbolTable
 70
0
  0
ENDTAB
  0
TABLE
  2
UCS
  5
7
100
AcDbSymbolTable
 70
0
  0
ENDTAB
  0
TABLE
  2
APPID
  5
9
100
AcDbSymbolTable
 70
1
  0
APPID
  5
20F
100
AcDbSymbolTableRecord
100
AcDbRegAppTableRecord
  2
ACAD
 70
0
  0
ENDTAB
  0
TABLE
  2
BLOCK_RECORD
  5
1
100
AcDbSymbolTable
 70
0
  0
BLOCK_RECORD
  5
210
100
AcDbSymbolTableRecord
100
AcDbBlockTableRecord
  2
*Model_Space
  0
BLOCK_RECORD
  5
211
100
AcDbSymbolTableRecord
100
AcDbBlockTableRecord
  2
*Paper_Space
  0
BLOCK_RECORD
  5
212
100
AcDbSymbolTableRecord
100
AcDbBlockTableRecord
  2
_FILLED
  0
ENDTAB
  0
TABLE
  2
DIMSTYLE
  5
A
100
AcDbSymbolTable
 70
1
100
AcDbDimStyleTable
 71
0
  0
DIMSTYLE
105
213
100
AcDbSymbolTableRecord
100
AcDbDimStyleTableRecord
  2
STANDARD
 70
0
  3

  4

 40
1.0
 41
1.2129824961
 42
1.0
 43
0.38
 44
1.0
 45
0.0
 46
0.0
 47
0.01
 48
0.01
140
1.6981754946
141
0.09
142
0.0
143
25.4
144
1.0
145
0.0
146
1.0
147
0.625
 71
1
 72
0
 73
0
 74
0
 75
0
 76
0
 77
1
 78
8
 79
2
170
0
171
1
172
0
173
0
174
0
175
0
176
0
177
0
178
0
270
2
179
2
271
2
272
2
273
2
274
2
275
0
280
0
281
0
282
0
283
1
284
8
285
0
286
0
287
3
288
0
340
11
278
46
341
212
342
212
343
212
344
212
  0
ENDTAB
  0
ENDSEC
  0
SECTION
  2
BLOCKS
  0
BLOCK
  5
20
100
AcDbEntity
  8
0
100
AcDbBlockBegin
  2
*Model_Space
 70
0
 10
0.0
 20
0.0
 30
0.0
  3
*Model_Space
  1

  0
ENDBLK
  5
21
100
AcDbEntity
  8
0
100
AcDbBlockEnd
  0
BLOCK
  5
1C
100
AcDbEntity
  8
0
100
AcDbBlockBegin
  2
*Paper_Space
 70
0
 10
0.0
 20
0.0
 30
0.0
  3
*Paper_Space
  1

  0
ENDBLK
  5
1D
100
AcDbEntity
  8
0
100
AcDbBlockEnd
  0
BLOCK
  5
214
100
AcDbEntity
  8
0
100
AcDbBlockBegin
  2
_FILLED
 70
64
 10
0.0
 20
0.0
  3
_FILLED
  1

  0
SOLID
  5
215
100
AcDbEntity
  8
0
  6
BYBLOCK
 62
0
100
AcDbTrace
 10
0.0
 20
0.0
 11
-1.0
 21
0.25
 12
-1.0
 22
-0.25
 13
-1.0
 23
-0.25
  0
ENDBLK
  5
216
100
AcDbEntity
  8
0
  6
BYBLOCK
 62
0
100
AcDbBlockEnd
  0
ENDSEC
  0
SECTION
  2
ENTITIES
  0
LINE
  5
217
100
AcDbEntity
  8
0
100
AcDbLine
 62
7
  6
CONTINUOUS
 10
44.202724397
 20
23.1553573225
 11
42.2935281391
 21
24.2576073597
  0
LINE
  5
218
100
AcDbEntity
  8
0
100
AcDbLine
 62
7
  6
CONTINUOUS
 10
29.6754273405
 20
31.542506446
 11
28.0099116911
 21
32.504070601
  0
LINE
  5
219
100
AcDbEntity
  8
0
100
AcDbLine
 62
7
  6
CONTINUOUS
 10
43.923122764
 20
23.7733686221
 11
42.0139265061
 21
24.8756186593
  0
LINE
  5
21A
100
AcDbEntity
  8
0
100
AcDbLine
 62
7
  6
CONTINUOUS
 10
29.639506316
 20
32.0198318634
 11
27.7303100581
 21
33.1220819006
  0
LINE
  5
21B
100
AcDbEntity
  8
0
100
AcDbLine
 62
7
  6
CONTINUOUS
 10
42.0139265061
 20
27.0393500647
 11
29.639506316
 21
34.1835632688
  0
LINE
  5
21C
100
AcDbEntity
  8
0
100
AcDbLine
 62
7
  6
CONTINUOUS
 10
11.8204737208
 20
77.6583649735
 11
11.8204737208
 21
84.5129027653
  0
LINE
  5
21D
100
AcDbEntity
  8
0
100
AcDbLine
 62
7
  6
CONTINUOUS
 10
11.8563947453
 20
77.6376264295
 11
11.8563947453
 21
65.4557364359
  0
LINE
  5
21E
100
AcDbEntity
  8
0
100
AcDbLine
 62
7
  6
CONTINUOUS
 10
12.7539998304
 20
75.4159633086
 11
12.7539998304
 21
66.8426879287
  0
LINE
  5
21F
100
AcDbEntity
  8
0
100
AcDbLine
 62
7
  6
CONTINUOUS
 10
14.7382392632
 20
67.9882822611
 11
14.7382392632
 21
74.2703880543
  0
LINE
  5
220
100
AcDbEntity
  8
0
100
AcDbLine
 62
7
  6
CONTINUOUS
 10
16.3444201708
 20
64.7698046736
 11
16.3444201708
 21
73.3430800534
  0
LINE
  5
221
100
AcDbEntity
  8
0
100
AcDbLine
 62
7
  6
CONTINUOUS
 10
18.139630341
 20
72.3066384259
 11
18.139630341
 21
63.733363046
  0
LINE
  5
222
100
AcDbEntity
  8
0
100
AcDbLine
 62
7
  6
CONTINUOUS
 10
19.811312914
 20
60.8630661899
 11
19.811312914
 21
53.1468831323
  0
LINE
  5
223
100
AcDbEntity
  8
0
100
AcDbLine
 62
7
  6
CONTINUOUS
 10
20.1238697738
 20
64.8789573784
 11
20.1238697738
 21
71.1610631716
  0
LINE
  5
224
100
AcDbEntity
  8
0
100
AcDbLine
 62
7
  6
CONTINUOUS
 10
20.7089179991
 20
60.3448453761
 11
20.7089179991
 21
54.5338346252
  0
LINE
  5
225
100
AcDbEntity
  8
0
100
AcDbLine
 62
7
  6
CONTINUOUS
 10
21.7300506814
 20
61.6604797908
 11
21.7300506814
 21
70.2337551707
  0
LINE
  5
226
100
AcDbEntity
  8
0
100
AcDbLine
 62
7
  6
CONTINUOUS
 10
11.8204737208
 20
84.5129027653
 11
21.0128236046
 21
91.0121702947
  0
LINE
  5
227
100
AcDbEntity
  8
0
100
AcDbLine
 62
7
  6
CONTINUOUS
 10
21.0128236046
 20
91.0121702947
 11
30.2051734884
 21
96.319344295
  0
LINE
  5
228
100
AcDbEntity
  8
0
100
AcDbLine
 62
7
  6
CONTINUOUS
 10
57.0751193025
 20
111.8326221421
 11
75.4598190701
 21
122.4469701428
  0
LINE
  5
229
100
AcDbEntity
  8
0
100
AcDbLine
 62
7
  6
CONTINUOUS
 10
35.9682044458
 20
43.8189084842
 11
19.811312914
 21
53.1468831323
  0
LINE
  5
22A
100
AcDbEntity
  8
0
100
AcDbLine
 62
7
  6
CONTINUOUS
 10
38.7273615303
 20
43.0406420269
 11
38.0541577165
 21
43.4293076372
  0
LINE
  5
22B
100
AcDbEntity
  8
0
100
AcDbLine
 62
7
  6
CONTINUOUS
 10
20.7089179991
 20
54.5338346252
 11
24.2993383395
 21
52.46095137
  0
LINE
  5
22C
100
AcDbEntity
  8
0
100
AcDbLine
 62
7
  6
CONTINUOUS
 10
26.0945485097
 20
51.4245097425
 11
29.6849688501
 21
49.3516264873
  0
LINE
  5
22D
100
AcDbEntity
  8
0
100
AcDbLine
 62
7
  6
CONTINUOUS
 10
31.4801790203
 20
48.3151848597
 11
35.0705993607
 21
46.2423016046
  0
LINE
  5
22E
100
AcDbEntity
  8
0
100
AcDbLine
 62
7
  6
CONTINUOUS
 10
22.6931574319
 20
55.6794289576
 11
22.6931574319
 21
59.1992701218
  0
LINE
  5
22F
100
AcDbEntity
  8
0
100
AcDbLine
 62
7
  6
CONTINUOUS
 10
23.5252608516
 20
69.1973135431
 11
23.5252608516
 21
60.6240381633
  0
LINE
  5
230
100
AcDbEntity
  8
0
100
AcDbLine
 62
7
  6
CONTINUOUS
 10
24.2993383395
 20
52.46095137
 11
24.2993383395
 21
58.271962121
  0
LINE
  5
231
100
AcDbEntity
  8
0
100
AcDbLine
 62
7
  6
CONTINUOUS
 10
25.5095002844
 20
61.7696324956
 11
25.5095002844
 21
68.0517382888
  0
LINE
  5
232
100
AcDbEntity
  8
0
100
AcDbLine
 62
7
  6
CONTINUOUS
 10
26.0945485097
 20
57.2355204934
 11
26.0945485097
 21
51.4245097425
  0
LINE
  5
233
100
AcDbEntity
  8
0
100
AcDbLine
 62
7
  6
CONTINUOUS
 10
34.0236319881
 20
94.1148061256
 11
57.0751193025
 21
107.4235090896
  0
LINE
  5
234
100
AcDbEntity
  8
0
100
AcDbLine
 62
7
  6
CONTINUOUS
 10
22.6931574319
 20
55.6794289576
 11
24.2993383395
 21
54.7521209567
  0
LINE
  5
235
100
AcDbEntity
  8
0
100
AcDbLine
 62
7
  6
CONTINUOUS
 10
28.0787879425
 20
52.5701040748
 11
29.6849688501
 21
51.642796074
  0
LINE
  5
236
100
AcDbEntity
  8
0
100
AcDbLine
 62
7
  6
CONTINUOUS
 10
33.4644184531
 20
49.4607791921
 11
35.0705993607
 21
48.5334711913
  0
LINE
  5
237
100
AcDbEntity
  8
0
100
AcDbLine
 62
7
  6
CONTINUOUS
 10
28.0132862772
 20
56.1277617877
 11
11.8563947453
 21
65.4557364359
  0
LINE
  5
238
100
AcDbEntity
  8
0
100
AcDbLine
 62
7
  6
CONTINUOUS
 10
30.7724433617
 20
55.3494953304
 11
30.0992395479
 21
55.7381609407
  0
LINE
  5
239
100
AcDbEntity
  8
0
100
AcDbLine
 62
7
  6
CONTINUOUS
 10
27.115681192
 20
58.5511549081
 11
27.115681192
 21
67.124430288
  0
LINE
  5
23A
100
AcDbEntity
  8
0
100
AcDbLine
 62
7
  6
CONTINUOUS
 10
27.7303100581
 20
33.1220819006
 11
27.7303100581
 21
48.5749514304
  0
LINE
  5
23B
100
AcDbEntity
  8
0
100
AcDbLine
 62
7
  6
CONTINUOUS
 10
28.0132864267
 20
75.1641894868
 11
28.0132862772
 21
56.1277617877
  0
LINE
  5
23C
100
AcDbEntity
  8
0
100
AcDbLine
 62
7
  6
CONTINUOUS
 10
28.0787879425
 20
52.5701040748
 11
28.0787879425
 21
56.1277617877
  0
LINE
  5
23D
100
AcDbEntity
  8
0
100
AcDbLine
 62
7
  6
CONTINUOUS
 10
29.639506316
 20
34.1835632688
 11
29.639506316
 21
32.0198318634
  0
LINE
  5
23E
100
AcDbEntity
  8
0
100
AcDbLine
 62
7
  6
CONTINUOUS
 10
29.6754273405
 20
29.1305084889
 11
29.6754273405
 21
34.1628247248
  0
LINE
  5
23F
100
AcDbEntity
  8
0
100
AcDbLine
 62
7
  6
CONTINUOUS
 10
29.6849688501
 20
49.3516264873
 11
29.6849688501
 21
56.2712746247
  0
LINE
  5
240
100
AcDbEntity
  8
0
100
AcDbLine
 62
7
  6
CONTINUOUS
 10
29.9224667872
 20
69.4119109105
 11
29.9224667872
 21
71.4980745862
  0
LINE
  5
241
100
AcDbEntity
  8
0
100
AcDbLine
 62
7
  6
CONTINUOUS
 10
12.7539998304
 20
66.8426879287
 11
16.3444201708
 21
64.7698046736
  0
LINE
  5
242
100
AcDbEntity
  8
0
100
AcDbLine
 62
7
  6
CONTINUOUS
 10
18.139630341
 20
63.733363046
 11
21.7300506814
 21
61.6604797908
  0
LINE
  5
243
100
AcDbEntity
  8
0
100
AcDbLine
 62
7
  6
CONTINUOUS
 10
23.5252608516
 20
60.6240381633
 11
27.115681192
 21
58.5511549081
  0
LINE
  5
244
100
AcDbEntity
  8
0
100
AcDbLine
 62
7
  6
CONTINUOUS
 10
35.0705993607
 20
54.8155769844
 11
33.2339995942
 21
55.875914366
  0
LINE
  5
245
100
AcDbEntity
  8
0
100
AcDbLine
 62
7
  6
CONTINUOUS
 10
14.7382392632
 20
67.9882822611
 11
16.3444201708
 21
67.0609742602
  0
LINE
  5
246
100
AcDbEntity
  8
0
100
AcDbLine
 62
7
  6
CONTINUOUS
 10
20.1238697738
 20
64.8789573784
 11
21.7300506814
 21
63.9516493775
  0
LINE
  5
247
100
AcDbEntity
  8
0
100
AcDbLine
 62
7
  6
CONTINUOUS
 10
25.5095002844
 20
61.7696324956
 11
27.115681192
 21
60.8423244948
  0
LINE
  5
248
100
AcDbEntity
  8
0
100
AcDbLine
 62
7
  6
CONTINUOUS
 10
35.9682045954
 20
56.0007983915
 11
34.7092449959
 21
56.7276426117
  0
LINE
  5
249
100
AcDbEntity
  8
0
100
AcDbLine
 62
7
  6
CONTINUOUS
 10
31.4801790203
 20
55.1820976215
 11
31.4801790203
 21
48.3151848597
  0
LINE
  5
24A
100
AcDbEntity
  8
0
100
AcDbLine
 62
7
  6
CONTINUOUS
 10
33.4644184531
 20
49.4607791921
 11
33.4644184531
 21
55.7428849853
  0
LINE
  5
24B
100
AcDbEntity
  8
0
100
AcDbLine
 62
7
  6
CONTINUOUS
 10
35.0705993607
 20
46.2423016046
 11
35.0705993607
 21
54.8155769844
  0
LINE
  5
24C
100
AcDbEntity
  8
0
100
AcDbLine
 62
7
  6
CONTINUOUS
 10
27.115681192
 20
67.124430288
 11
23.5252608516
 21
69.1973135431
  0
LINE
  5
24D
100
AcDbEntity
  8
0
100
AcDbLine
 62
7
  6
CONTINUOUS
 10
21.7300506814
 20
70.2337551707
 11
18.139630341
 21
72.3066384259
  0
LINE
  5
24E
100
AcDbEntity
  8
0
100
AcDbLine
 62
7
  6
CONTINUOUS
 10
16.3444201708
 20
73.3430800534
 11
12.7539998304
 21
75.4159633086
  0
LINE
  5
24F
100
AcDbEntity
  8
0
100
AcDbLine
 62
7
  6
CONTINUOUS
 10
35.9502440083
 20
57.4441294487
 11
35.9502440083
 21
74.978192614
  0
LINE
  5
250
100
AcDbEntity
  8
0
100
AcDbLine
 62
7
  6
CONTINUOUS
 10
35.9682045954
 20
74.9885621018
 11
35.9682044458
 21
43.8189084842
  0
LINE
  5
251
100
AcDbEntity
  8
0
100
AcDbLine
 62
7
  6
CONTINUOUS
 10
37.8773849558
 20
57.1030576069
 11
37.8773849558
 21
59.1892212827
  0
LINE
  5
252
100
AcDbEntity
  8
0
100
AcDbLine
 62
7
  6
CONTINUOUS
 10
37.2056363105
 20
81.6634570162
 11
28.0132864267
 21
75.1641894868
  0
LINE
  5
253
100
AcDbEntity
  8
0
100
AcDbLine
 62
7
  6
CONTINUOUS
 10
91.652631776
 20
113.0982568643
 11
73.2679320084
 21
102.4839088636
  0
LINE
  5
254
100
AcDbEntity
  8
0
100
AcDbLine
 62
7
  6
CONTINUOUS
 10
46.3979861943
 20
86.9706310165
 11
37.2056363105
 21
81.6634570162
  0
LINE
  5
255
100
AcDbEntity
  8
0
100
AcDbLine
 62
7
  6
CONTINUOUS
 10
12.7539998304
 20
66.8426879287
 11
14.7382392632
 21
67.9882822611
  0
LINE
  5
256
100
AcDbEntity
  8
0
100
AcDbLine
 62
7
  6
CONTINUOUS
 10
46.3979861943
 20
83.6637962271
 11
47.0343796478
 21
84.0312159656
  0
LINE
  5
257
100
AcDbEntity
  8
0
100
AcDbLine
 62
7
  6
CONTINUOUS
 10
28.0132864267
 20
68.309651695
 11
11.8204737208
 21
77.6583649735
  0
LINE
  5
258
100
AcDbEntity
  8
0
100
AcDbLine
 62
7
  6
CONTINUOUS
 10
42.0139263566
 20
22.0070339151
 11
42.0139265061
 21
27.0393500647
  0
LINE
  5
259
100
AcDbEntity
  8
0
100
AcDbLine
 62
7
  6
CONTINUOUS
 10
47.0343796478
 20
84.0312159656
 11
47.6707731012
 21
85.5009139672
  0
LINE
  5
25A
100
AcDbEntity
  8
0
100
AcDbLine
 62
7
  6
CONTINUOUS
 10
73.2679320084
 20
98.0747958111
 11
46.3979861943
 21
82.561517964
  0
LINE
  5
25B
100
AcDbEntity
  8
0
100
AcDbLine
 62
7
  6
CONTINUOUS
 10
29.9224667872
 20
71.4980745862
 11
35.9682045954
 21
74.9885621018
  0
LINE
  5
25C
100
AcDbEntity
  8
0
100
AcDbLine
 62
7
  6
CONTINUOUS
 10
83.6977136073
 20
102.5450424882
 11
89.7434514155
 21
106.0355300038
  0
LINE
  5
25D
100
AcDbEntity
  8
0
100
AcDbLine
 62
7
  6
CONTINUOUS
 10
18.139630341
 20
63.733363046
 11
20.1238697738
 21
64.8789573784
  0
LINE
  5
25E
100
AcDbEntity
  8
0
100
AcDbLine
 62
7
  6
CONTINUOUS
 10
28.0132864267
 20
68.309651695
 11
29.9224667872
 21
69.4119109105
  0
LINE
  5
25F
100
AcDbEntity
  8
0
100
AcDbLine
 62
7
  6
CONTINUOUS
 10
89.7434514155
 20
103.949366328
 11
91.652631776
 21
105.0516255434
  0
LINE
  5
260
100
AcDbEntity
  8
0
100
AcDbLine
 62
7
  6
CONTINUOUS
 10
28.0132864267
 20
75.1641894868
 11
11.8204737208
 21
84.5129027653
  0
LINE
  5
261
100
AcDbEntity
  8
0
100
AcDbLine
 62
7
  6
CONTINUOUS
 10
43.905162177
 20
45.1352761452
 11
43.905162177
 21
62.6693393105
  0
LINE
  5
262
100
AcDbEntity
  8
0
100
AcDbLine
 62
7
  6
CONTINUOUS
 10
43.923122764
 20
62.6797087983
 11
43.923122764
 21
23.7733686221
  0
LINE
  5
263
100
AcDbEntity
  8
0
100
AcDbLine
 62
7
  6
CONTINUOUS
 10
46.3979861943
 20
82.561517964
 11
46.3979861943
 21
83.6637962271
  0
LINE
  5
264
100
AcDbEntity
  8
0
100
AcDbLine
 62
7
  6
CONTINUOUS
 10
47.7414833354
 20
23.5899436391
 11
47.7414833354
 21
28.1416184584
  0
LINE
  5
265
100
AcDbEntity
  8
0
100
AcDbLine
 62
7
  6
CONTINUOUS
 10
59.850535572
 20
106.5560478193
 11
61.123322479
 21
109.4954438225
  0
LINE
  5
266
100
AcDbEntity
  8
0
100
AcDbLine
 62
7
  6
CONTINUOUS
 10
23.5252608516
 20
60.6240381633
 11
25.5095002844
 21
61.7696324956
  0
LINE
  5
267
100
AcDbEntity
  8
0
100
AcDbLine
 62
7
  6
CONTINUOUS
 10
20.7089179991
 20
54.5338346252
 11
22.6931574319
 21
55.6794289576
  0
LINE
  5
268
100
AcDbEntity
  8
0
100
AcDbLine
 62
7
  6
CONTINUOUS
 10
69.2197288319
 20
104.8210871832
 11
67.9469419249
 21
101.88169118
  0
LINE
  5
269
100
AcDbEntity
  8
0
100
AcDbLine
 62
7
  6
CONTINUOUS
 10
37.8773849558
 20
59.1892212827
 11
43.923122764
 21
62.6797087983
  0
LINE
  5
26A
100
AcDbEntity
  8
0
100
AcDbLine
 62
7
  6
CONTINUOUS
 10
75.7427954386
 20
81.0506957225
 11
81.7885332468
 21
84.5411832381
  0
LINE
  5
26B
100
AcDbEntity
  8
0
100
AcDbLine
 62
7
  6
CONTINUOUS
 10
37.2056363105
 20
81.6634570162
 11
21.0128236046
 21
91.0121702947
  0
LINE
  5
26C
100
AcDbEntity
  8
0
100
AcDbLine
 62
7
  6
CONTINUOUS
 10
57.0751193025
 20
107.4235090896
 11
57.0751193025
 21
111.8326221421
  0
LINE
  5
26D
100
AcDbEntity
  8
0
100
AcDbLine
 62
7
  6
CONTINUOUS
 10
86.9868187416
 20
86.9099337223
 11
83.6977136073
 21
85.0109793229
  0
LINE
  5
26E
100
AcDbEntity
  8
0
100
AcDbLine
 62
7
  6
CONTINUOUS
 10
32.643178287
 20
55.5348055614
 11
35.9502440083
 21
57.4441294487
  0
LINE
  5
26F
100
AcDbEntity
  8
0
100
AcDbLine
 62
7
  6
CONTINUOUS
 10
26.0945485097
 20
51.4245097425
 11
28.0787879425
 21
52.5701040748
  0
LINE
  5
270
100
AcDbEntity
  8
0
100
AcDbLine
 62
7
  6
CONTINUOUS
 10
35.9682045954
 20
56.0007983915
 11
37.8773849558
 21
57.1030576069
  0
LINE
  5
271
100
AcDbEntity
  8
0
100
AcDbLine
 62
7
  6
CONTINUOUS
 10
81.7885332468
 20
82.4550195624
 11
83.6977136073
 21
83.5572787778
  0
LINE
  5
272
100
AcDbEntity
  8
0
100
AcDbLine
 62
7
  6
CONTINUOUS
 10
47.6707731012
 20
85.5009139672
 11
46.3979861943
 21
86.9706310165
  0
LINE
  5
273
100
AcDbEntity
  8
0
100
AcDbLine
 62
7
  6
CONTINUOUS
 10
31.4801790203
 20
48.3151848597
 11
33.4644184531
 21
49.4607791921
  0
LINE
  5
274
100
AcDbEntity
  8
0
100
AcDbLine
 62
7
  6
CONTINUOUS
 10
46.3979861943
 20
86.9706310165
 11
30.2051734884
 21
96.319344295
  0
LINE
  5
275
100
AcDbEntity
  8
0
100
AcDbLine
 62
7
  6
CONTINUOUS
 10
69.2197288319
 20
101.5142523939
 11
69.2197288319
 21
104.8210871832
  0
LINE
  5
276
100
AcDbEntity
  8
0
100
AcDbLine
 62
7
  6
CONTINUOUS
 10
46.116156073
 20
24.4228146687
 11
47.741483485
 21
28.1416184584
  0
LINE
  5
277
100
AcDbEntity
  8
0
100
AcDbLine
 62
7
  6
CONTINUOUS
 10
73.2679320084
 20
102.4839088636
 11
73.2679320084
 21
98.0747958111
  0
LINE
  5
278
100
AcDbEntity
  8
0
100
AcDbLine
 62
7
  6
CONTINUOUS
 10
79.0319005729
 20
65.4155869567
 11
75.7427954386
 21
63.5166325573
  0
LINE
  5
279
100
AcDbEntity
  8
0
100
AcDbLine
 62
7
  6
CONTINUOUS
 10
40.5980964557
 20
43.2259522579
 11
43.905162177
 21
45.1352761452
  0
LINE
  5
27A
100
AcDbEntity
  8
0
100
AcDbLine
 62
7
  6
CONTINUOUS
 10
75.7068744142
 20
44.2873480623
 11
75.7068744142
 21
39.7356733294
  0
LINE
  5
27B
100
AcDbEntity
  8
0
100
AcDbLine
 62
7
  6
CONTINUOUS
 10
75.7427954386
 20
44.3080869517
 11
75.7427954386
 21
81.0506957225
  0
LINE
  5
27C
100
AcDbEntity
  8
0
100
AcDbLine
 62
7
  6
CONTINUOUS
 10
81.7885332468
 20
82.4550195624
 11
81.7705726598
 21
82.4653888775
  0
LINE
  5
27D
100
AcDbEntity
  8
0
100
AcDbLine
 62
7
  6
CONTINUOUS
 10
81.7705726598
 20
82.4653888775
 11
81.7705726598
 21
84.5308137503
  0
LINE
  5
27E
100
AcDbEntity
  8
0
100
AcDbLine
 62
7
  6
CONTINUOUS
 10
81.7885332468
 20
84.5411832381
 11
81.7885332468
 21
82.4550195624
  0
LINE
  5
27F
100
AcDbEntity
  8
0
100
AcDbLine
 62
7
  6
CONTINUOUS
 10
83.6617925828
 20
83.5365398885
 11
83.6617925828
 21
71.3546500675
  0
LINE
  5
280
100
AcDbEntity
  8
0
100
AcDbLine
 62
7
  6
CONTINUOUS
 10
83.6977136073
 20
83.5572787778
 11
83.6977136073
 21
102.5450424882
  0
LINE
  5
281
100
AcDbEntity
  8
0
100
AcDbLine
 62
7
  6
CONTINUOUS
 10
67.9469419249
 20
101.88169118
 11
69.2197288319
 21
101.5142523939
  0
LINE
  5
282
100
AcDbEntity
  8
0
100
AcDbLine
 62
7
  6
CONTINUOUS
 10
73.2679320084
 20
98.0747958111
 11
57.0751193025
 21
107.4235090896
  0
LINE
  5
283
100
AcDbEntity
  8
0
100
AcDbLine
 62
7
  6
CONTINUOUS
 10
67.9469419249
 20
101.88169118
 11
59.850535572
 21
106.5560478193
  0
LINE
  5
284
100
AcDbEntity
  8
0
100
AcDbLine
 62
7
  6
CONTINUOUS
 10
89.7254908285
 20
103.9597356432
 11
89.7254908285
 21
106.0251605159
  0
LINE
  5
285
100
AcDbEntity
  8
0
100
AcDbLine
 62
7
  6
CONTINUOUS
 10
89.7434514155
 20
106.0355300038
 11
89.7434514155
 21
103.949366328
  0
LINE
  5
286
100
AcDbEntity
  8
0
100
AcDbLine
 62
7
  6
CONTINUOUS
 10
47.741483485
 20
28.1416184584
 11
75.7427954386
 21
44.3080869517
  0
LINE
  5
287
100
AcDbEntity
  8
0
100
AcDbLine
 62
7
  6
CONTINUOUS
 10
44.1028077236
 20
23.2130429358
 11
42.0139263566
 21
22.0070339151
  0
LINE
  5
288
100
AcDbEntity
  8
0
100
AcDbLine
 62
7
  6
CONTINUOUS
 10
44.8777129443
 20
23.2222199667
 11
45.3249452679
 21
23.4804281278
  0
LINE
  5
289
100
AcDbEntity
  8
0
100
AcDbLine
 62
7
  6
CONTINUOUS
 10
73.2679320084
 20
102.4839088636
 11
57.0751193025
 21
111.8326221421
  0
LINE
  5
28A
100
AcDbEntity
  8
0
100
AcDbLine
 62
7
  6
CONTINUOUS
 10
91.6167107515
 20
105.0308866541
 11
91.6167107515
 21
92.8489968331
  0
LINE
  5
28B
100
AcDbEntity
  8
0
100
AcDbLine
 62
7
  6
CONTINUOUS
 10
91.652631776
 20
105.0516255434
 11
91.652631776
 21
113.0982568643
  0
LINE
  5
28C
100
AcDbEntity
  8
0
100
AcDbLine
 62
7
  6
CONTINUOUS
 10
75.7068744142
 20
39.7356733294
 11
47.7414833354
 21
23.5899436391
  0
LINE
  5
28D
100
AcDbEntity
  8
0
100
AcDbLine
 62
7
  6
CONTINUOUS
 10
89.7434514155
 20
103.949366328
 11
89.7254908285
 21
103.9597356432
  0
LINE
  5
28E
100
AcDbEntity
  8
0
100
AcDbLine
 62
7
  6
CONTINUOUS
 10
91.652631776
 20
113.0982568643
 11
75.4598190701
 21
122.4469701428
  0
ARC
  5
28F
100
AcDbEntity
  8
0
100
AcDbCircle
 62
7
  6
CONTINUOUS
 10
52.1941393059
 20
102.7067638863
 40
44.420358437
100
AcDbArc
 50
311.5167093067
 51
315.1053795032
  0
ARC
  5
290
100
AcDbEntity
  8
0
100
AcDbCircle
 62
7
  6
CONTINUOUS
 10
60.1490574745
 20
124.201110652
 40
44.420358437
100
AcDbArc
 50
311.5167093067
 51
315.1053795032
  0
ARC
  5
291
100
AcDbEntity
  8
0
100
AcDbCircle
 62
7
  6
CONTINUOUS
 10
56.5541204741
 20
53.897203818
 40
31.5625187982
100
AcDbArc
 50
250.4107209603
 51
253.786814018
  0
SPLINE
  5
292
100
AcDbEntity
  8
0
100
AcDbSpline
 62
7
  6
CONTINUOUS
 70
0
 71
3
 72
11
 73
7
 74
0
 42
0.0000001
 43
0.0000001
 44
0.0000000001
 40
0.0
 40
0.0
 40
0.0
 40
0.0
 40
0.2669632911
 40
0.5230227341
 40
0.767489563
 40
1.0
 40
1.0
 40
1.0
 40
1.0
 10
29.6754273405
 20
29.1305084889
 30
0.0
 10
30.6723850737
 20
28.3389506822
 30
0.0
 10
32.6779793923
 20
26.8525235288
 30
0.0
 10
35.77281133
 20
24.8926765386
 30
0.0
 10
38.8692810075
 20
23.2627632918
 30
0.0
 10
40.9709981289
 20
22.3832193062
 30
0.0
 10
42.0139263566
 20
22.0070339151
 30
0.0
  0
SPLINE
  5
293
100
AcDbEntity
  8
0
100
AcDbSpline
 62
7
  6
CONTINUOUS
 70
0
 71
3
 72
9
 73
5
 74
0
 42
0.0000001
 43
0.0000001
 44
0.0000000001
 40
0.0
 40
0.0
 40
0.0
 40
0.0
 40
0.4836010579
 40
1.0
 40
1.0
 40
1.0
 40
1.0
 10
30.0992607336
 20
55.7381975347
 30
0.0
 10
29.9788726851
 20
55.8077252641
 30
0.0
 10
29.7532918327
 20
55.9953855441
 30
0.0
 10
29.5982524657
 20
56.2426905977
 30
0.0
 10
29.535376959
 20
56.3771693222
 30
0.0
  0
SPLINE
  5
294
100
AcDbEntity
  8
0
100
AcDbSpline
 62
7
  6
CONTINUOUS
 70
0
 71
3
 72
12
 73
8
 74
0
 42
0.0000001
 43
0.0000001
 44
0.0000000001
 40
0.0
 40
0.0
 40
0.0
 40
0.0
 40
0.1081672088
 40
0.2183773671
 40
0.4513484335
 40
0.7104603253
 40
1.0
 40
1.0
 40
1.0
 40
1.0
 10
30.7724645407
 20
55.3495319124
 30
0.0
 10
30.8338038063
 20
55.3141066311
 30
0.0
 10
30.9640538955
 20
55.2530882437
 30
0.0
 10
31.2500698032
 20
55.174006144
 30
0.0
 10
31.6506715814
 20
55.1632617942
 30
0.0
 10
32.1523284308
 20
55.2846437285
 30
0.0
 10
32.4789736081
 20
55.4400025117
 30
0.0
 10
32.643178287
 20
55.5348055614
 30
0.0
  0
SPLINE
  5
295
100
AcDbEntity
  8
0
100
AcDbSpline
 62
7
  6
CONTINUOUS
 70
0
 71
3
 72
9
 73
5
 74
0
 42
0.0000001
 43
0.0000001
 44
0.0000000001
 40
0.0
 40
0.0
 40
0.0
 40
0.0
 40
0.2451101072
 40
1.0
 40
1.0
 40
1.0
 40
1.0
 10
28.0132862772
 20
56.1277617877
 30
0.0
 10
28.1804609218
 20
56.1532325832
 30
0.0
 10
28.8609298664
 20
56.2673052565
 30
0.0
 10
29.5346013743
 20
56.4211342648
 30
0.0
 10
30.0374184722
 20
56.5568318903
 30
0.0
  0
SPLINE
  5
296
100
AcDbEntity
  8
0
100
AcDbSpline
 62
7
  6
CONTINUOUS
 70
0
 71
3
 72
11
 73
7
 74
0
 42
0.0000001
 43
0.0000001
 44
0.0000000001
 40
0.0
 40
0.0
 40
0.0
 40
0.0
 40
0.2276491507
 40
0.4762060311
 40
0.7370972278
 40
1.0
 40
1.0
 40
1.0
 40
1.0
 10
45.3249452679
 20
23.4804281278
 30
0.0
 10
45.406998823
 20
23.5278014872
 30
0.0
 10
45.5678545617
 20
23.6459815761
 30
0.0
 10
45.7823001264
 20
23.8669227784
 30
0.0
 10
45.9703914486
 20
24.1289069064
 30
0.0
 10
46.0723359478
 20
24.3225527481
 30
0.0
 10
46.116156073
 20
24.4228146687
 30
0.0
  0
SPLINE
  5
297
100
AcDbEntity
  8
0
100
AcDbSpline
 62
7
  6
CONTINUOUS
 70
0
 71
3
 72
9
 73
5
 74
0
 42
0.0000001
 43
0.0000001
 44
0.0000000001
 40
0.0
 40
0.0
 40
0.0
 40
0.0
 40
0.4836010579
 40
1.0
 40
1.0
 40
1.0
 40
1.0
 10
38.0541789022
 20
43.4293442312
 30
0.0
 10
37.9337908538
 20
43.4988719606
 30
0.0
 10
37.7082100013
 20
43.6865322406
 30
0.0
 10
37.5531706344
 20
43.9338372941
 30
0.0
 10
37.4902951277
 20
44.0683160186
 30
0.0
  0
SPLINE
  5
298
100
AcDbEntity
  8
0
100
AcDbSpline
 62
7
  6
CONTINUOUS
 70
0
 71
3
 72
12
 73
8
 74
0
 42
0.0000001
 43
0.0000001
 44
0.0000000001
 40
0.0
 40
0.0
 40
0.0
 40
0.0
 40
0.1081672088
 40
0.2183773671
 40
0.4513484335
 40
0.7104603253
 40
1.0
 40
1.0
 40
1.0
 40
1.0
 10
38.7273827093
 20
43.0406786089
 30
0.0
 10
38.788721975
 20
43.0052533276
 30
0.0
 10
38.9189720641
 20
42.9442349402
 30
0.0
 10
39.2049879719
 20
42.8651528405
 30
0.0
 10
39.6055897501
 20
42.8544084907
 30
0.0
 10
40.1072465994
 20
42.975790425
 30
0.0
 10
40.4338917767
 20
43.1311492082
 30
0.0
 10
40.5980964557
 20
43.2259522579
 30
0.0
  0
SPLINE
  5
299
100
AcDbEntity
  8
0
100
AcDbSpline
 62
7
  6
CONTINUOUS
 70
0
 71
3
 72
11
 73
7
 74
0
 42
0.0000001
 43
0.0000001
 44
0.0000000001
 40
0.0
 40
0.0
 40
0.0
 40
0.0
 40
0.2177442246
 40
0.4508817658
 40
0.7104588047
 40
1.0
 40
1.0
 40
1.0
 40
1.0
 10
28.0099494592
 20
32.5041360176
 30
0.0
 10
27.9654262
 20
32.5298409757
 30
0.0
 10
27.8820388003
 20
32.5997831286
 30
0.0
 10
27.793335012
 20
32.7448827047
 30
0.0
 10
27.7407482326
 20
32.9236377131
 30
0.0
 10
27.7303100581
 20
33.053719441
 30
0.0
 10
27.7303100581
 20
33.1220819006
 30
0.0
  0
SPLINE
  5
29A
100
AcDbEntity
  8
0
100
AcDbSpline
 62
7
  6
CONTINUOUS
 70
0
 71
3
 72
11
 73
7
 74
0
 42
0.0000001
 43
0.0000001
 44
0.0000000001
 40
0.0
 40
0.0
 40
0.0
 40
0.0
 40
0.2177442246
 40
0.4508817658
 40
0.7104588047
 40
1.0
 40
1.0
 40
1.0
 40
1.0
 10
42.2935659072
 20
24.2576727763
 30
0.0
 10
42.2490426479
 20
24.2833777344
 30
0.0
 10
42.1656552483
 20
24.3533198873
 30
0.0
 10
42.07695146
 20
24.4984194634
 30
0.0
 10
42.0243646806
 20
24.6771744718
 30
0.0
 10
42.0139265061
 20
24.8072561997
 30
0.0
 10
42.0139265061
 20
24.8756186593
 30
0.0
  0
SPLINE
  5
29B
100
AcDbEntity
  8
0
100
AcDbSpline
 62
7
  6
CONTINUOUS
 70
0
 71
3
 72
11
 73
7
 74
0
 42
0.0000001
 43
0.0000001
 44
0.0000000001
 40
0.0
 40
0.0
 40
0.0
 40
0.0
 40
0.2177456295
 40
0.4508837762
 40
0.7104602913
 40
1.0
 40
1.0
 40
1.0
 40
1.0
 10
44.2027621642
 20
23.1554227397
 30
0.0
 10
44.2472839607
 20
23.1297186578
 30
0.0
 10
44.3495461172
 20
23.0924768857
 30
0.0
 10
44.5195514597
 20
23.0882078075
 30
0.0
 10
44.7006436987
 20
23.1320419719
 30
0.0
 10
44.8185118785
 20
23.1880404194
 30
0.0
 10
44.8777129443
 20
23.2222199667
 30
0.0
  0
SPLINE
  5
29C
100
AcDbEntity
  8
0
100
AcDbSpline
 62
7
  6
CONTINUOUS
 70
0
 71
3
 72
9
 73
5
 74
0
 42
0.0000001
 43
0.0000001
 44
0.0000000001
 40
0.0
 40
0.0
 40
0.0
 40
0.0
 40
0.2451101072
 40
1.0
 40
1.0
 40
1.0
 40
1.0
 10
35.9682044458
 20
43.8189084842
 30
0.0
 10
36.1353790905
 20
43.8443792796
 30
0.0
 10
36.815848035
 20
43.9584519529
 30
0.0
 10
37.4895195429
 20
44.1122809613
 30
0.0
 10
37.9923366409
 20
44.2479785868
 30
0.0
  0
SPLINE
  5
29D
100
AcDbEntity
  8
0
100
AcDbSpline
 62
7
  6
CONTINUOUS
 70
0
 71
3
 72
14
 73
10
 74
0
 42
0.0000001
 43
0.0000001
 44
0.0000000001
 40
0.0
 40
0.0
 40
0.0
 40
0.0
 40
0.1123563375
 40
0.2329231562
 40
0.3596811817
 40
0.4903781812
 40
0.7527305132
 40
0.879531256
 40
1.0
 40
1.0
 40
1.0
 40
1.0
 10
79.0319005729
 20
65.4155869567
 30
0.0
 10
79.1922001737
 20
65.5081354219
 30
0.0
 10
79.50976745
 20
65.7261660359
 30
0.0
 10
79.9526307083
 20
66.1217515935
 30
0.0
 10
80.3680528838
 20
66.5875026187
 30
0.0
 10
80.8688464623
 20
67.2834148948
 30
0.0
 10
81.2637630235
 20
68.0514109842
 30
0.0
 10
81.5269506127
 20
68.8498840003
 30
0.0
 10
81.6101757087
 20
69.2499176747
 30
0.0
 10
81.6376603877
 20
69.4464675862
 30
0.0
  0
SPLINE
  5
29E
100
AcDbEntity
  8
0
100
AcDbSpline
 62
7
  6
CONTINUOUS
 70
0
 71
3
 72
14
 73
10
 74
0
 42
0.0000001
 43
0.0000001
 44
0.0000000001
 40
0.0
 40
0.0
 40
0.0
 40
0.0
 40
0.1123563375
 40
0.2329231562
 40
0.3596811817
 40
0.4903781812
 40
0.7527305132
 40
0.879531256
 40
1.0
 40
1.0
 40
1.0
 40
1.0
 10
86.9868187416
 20
86.9099337223
 30
0.0
 10
87.1471183424
 20
87.0024821876
 30
0.0
 10
87.4646856186
 20
87.2205128016
 30
0.0
 10
87.907548877
 20
87.6160983591
 30
0.0
 10
88.3229710525
 20
88.0818493843
 30
0.0
 10
88.823764631
 20
88.7777616604
 30
0.0
 10
89.2186811921
 20
89.5457577498
 30
0.0
 10
89.4818687814
 20
90.3442307659
 30
0.0
 10
89.5650938774
 20
90.7442644403
 30
0.0
 10
89.5925785564
 20
90.9408143518
 30
0.0
  0
SPLINE
  5
29F
100
AcDbEntity
  8
0
100
AcDbSpline
 62
7
  6
CONTINUOUS
 70
0
 71
3
 72
11
 73
7
 74
0
 42
0.0000001
 43
0.0000001
 44
0.0000000001
 40
0.0
 40
0.0
 40
0.0
 40
0.0
 40
0.2895411595
 40
0.5491183966
 40
0.7822559144
 40
1.0
 40
1.0
 40
1.0
 40
1.0
 10
43.923122764
 20
23.7733686221
 30
0.0
 10
43.923122764
 20
23.705006172
 30
0.0
 10
43.93356102
 20
23.5749244214
 30
0.0
 10
43.986147716
 20
23.396169351
 30
0.0
 10
44.0748515781
 20
23.2510698162
 30
0.0
 10
44.1582389204
 20
23.1811276572
 30
0.0
 10
44.2027621642
 20
23.1554227397
 30
0.0
  0
SPLINE
  5
2A0
100
AcDbEntity
  8
0
100
AcDbSpline
 62
7
  6
CONTINUOUS
 70
0
 71
3
 72
9
 73
5
 74
0
 42
0.0000001
 43
0.0000001
 44
0.0000000001
 40
0.0
 40
0.0
 40
0.0
 40
0.0
 40
0.2675434761
 40
1.0
 40
1.0
 40
1.0
 40
1.0
 10
37.9923366409
 20
44.2479785868
 30
0.0
 10
38.0041890079
 20
44.1769051569
 30
0.0
 10
38.059164144
 20
43.9134265203
 30
0.0
 10
38.160844041
 20
43.6575791797
 30
0.0
 10
38.2665498857
 20
43.4910260455
 30
0.0
  0
SPLINE
  5
2A1
100
AcDbEntity
  8
0
100
AcDbSpline
 62
7
  6
CONTINUOUS
 70
0
 71
3
 72
9
 73
5
 74
0
 42
0.0000001
 43
0.0000001
 44
0.0000000001
 40
0.0
 40
0.0
 40
0.0
 40
0.0
 40
0.5100000039
 40
1.0
 40
1.0
 40
1.0
 40
1.0
 10
38.2665498857
 20
43.4910260455
 30
0.0
 10
38.325682233
 20
43.3978554379
 30
0.0
 10
38.4615058566
 20
43.2266316033
 30
0.0
 10
38.6355706125
 20
43.0937028719
 30
0.0
 10
38.7273827093
 20
43.0406786089
 30
0.0
  0
SPLINE
  5
2A2
100
AcDbEntity
  8
0
100
AcDbSpline
 62
7
  6
CONTINUOUS
 70
0
 71
3
 72
9
 73
5
 74
0
 42
0.0000001
 43
0.0000001
 44
0.0000000001
 40
0.0
 40
0.0
 40
0.0
 40
0.0
 40
0.2555611139
 40
1.0
 40
1.0
 40
1.0
 40
1.0
 10
29.639506316
 20
32.0198318634
 30
0.0
 10
29.639506316
 20
32.0089419776
 30
0.0
 10
29.6400625664
 20
31.9663331745
 30
0.0
 10
29.6428762383
 20
31.9237456207
 30
0.0
 10
29.6463814021
 20
31.8922180866
 30
0.0
  0
SPLINE
  5
2A3
100
AcDbEntity
  8
0
100
AcDbSpline
 62
7
  6
CONTINUOUS
 70
0
 71
3
 72
9
 73
5
 74
0
 42
0.0000001
 43
0.0000001
 44
0.0000000001
 40
0.0
 40
0.0
 40
0.0
 40
0.0
 40
0.2675434761
 40
1.0
 40
1.0
 40
1.0
 40
1.0
 10
30.0374184722
 20
56.5568318903
 30
0.0
 10
30.0492708392
 20
56.4857584604
 30
0.0
 10
30.1042459753
 20
56.2222798238
 30
0.0
 10
30.2059258723
 20
55.9664324832
 30
0.0
 10
30.311631717
 20
55.799879349
 30
0.0
  0
SPLINE
  5
2A4
100
AcDbEntity
  8
0
100
AcDbSpline
 62
7
  6
CONTINUOUS
 70
0
 71
3
 72
9
 73
5
 74
0
 42
0.0000001
 43
0.0000001
 44
0.0000000001
 40
0.0
 40
0.0
 40
0.0
 40
0.0
 40
0.5100000039
 40
1.0
 40
1.0
 40
1.0
 40
1.0
 10
30.311631717
 20
55.799879349
 30
0.0
 10
30.3707640643
 20
55.7067087414
 30
0.0
 10
30.5065876879
 20
55.5354849068
 30
0.0
 10
30.6806524438
 20
55.4025561754
 30
0.0
 10
30.7724645407
 20
55.3495319124
 30
0.0
  0
ENDSEC
  0
SECTION
  2
OBJECTS
  0
DICTIONARY
  5
C
100
AcDbDictionary
280
0
281
1
  3
ACAD_GROUP
350
D
  3
ACAD_MLINESTYLE
350
17
  3
ACAD_LAYOUT
350
1A
  3
ACAD_PLOTSETTINGS
350
19
  3
ACAD_PLOTSTYLENAME
350
E
  0
DICTIONARY
  5
D
102
{ACAD_REACTORS
330
C
102
}
100
AcDbDictionary
280
0
281
1
  0
ACDBDICTIONARYWDFLT
  5
E
102
{ACAD_REACTORS
330
C
102
}
100
AcDbDictionary
281
1
  3
Normal
350
F
100
AcDbDictionaryWithDefault
340
F
  0
DICTIONARY
  5
17
102
{ACAD_REACTORS
330
C
102
}
100
AcDbDictionary
280
0
281
1
  3
Standard
350
18
  0
DICTIONARY
  5
19
102
{ACAD_REACTORS
330
C
102
}
100
AcDbDictionary
281
1
  0
DICTIONARY
  5
1A
102
{ACAD_REACTORS
330
C
102
}
100
AcDbDictionary
281
1
  3
Model
350
2A5
  3
Layout1
350
2A6
  0
ACDBPLACEHOLDER
  5
F
102
{ACAD_REACTORS
330
E
102
}
  0
MLINESTYLE
  5
18
102
{ACAD_REACTORS
330
17
102
}
100
AcDbMlineStyle
  2
STANDARD
 70
0
  3

 62
256
 51
90.0
 52
90.0
 71
2
 49
0.5
 62
256
  6
BYLAYER
 49
-0.5
 62
256
  6
BYLAYER
  0
LAYOUT
  5
2A5
102
{ACAD_REACTORS
330
1A
102
}
100
AcDbPlotSettings
  1

  2
none_device
  4

  6

 40
0.0
 41
0.0
 42
0.0
 43
0.0
 44
210.0
 45
297.0
 46
0.0
 47
0.0
 48
0.0
 49
0.0
140
0.0
141
0.0
142
1.0
143
1.0
 70
1024
 72
1
 73
0
 74
0
  7

 75
0
147
1.0
148
0.0
149
0.0
100
AcDbLayout
  1
Model
 70
0
 71
0
 10
0.0
 20
0.0
 11
210.0
 21
297.0
 12
0.0
 22
0.0
 32
0.0
 14
0.0
 24
0.0
 34
0.0
 15
0.0
 25
0.0
 35
0.0
146
0.0
 13
0.0
 23
0.0
 33
0.0
 16
1.0
 26
0.0
 36
0.0
 17
0.0
 27
1.0
 37
0.0
 76
0
330
210
345
0
346
0
  0
LAYOUT
  5
2A6
102
{ACAD_REACTORS
330
1A
102
}
100
AcDbPlotSettings
  1

  2
none_device
  4

  6

 40
0.0
 41
0.0
 42
0.0
 43
0.0
 44
210.0
 45
297.0
 46
0.0
 47
0.0
 48
0.0
 49
0.0
140
0.0
141
0.0
142
1.0
143
1.0
 70
0
 72
1
 73
0
 74
0
  7

 75
0
147
1.0
148
0.0
149
0.0
100
AcDbLayout
  1
Layout1
 70
0
 71
1
 10
0.0
 20
0.0
 11
210.0
 21
297.0
 12
0.0
 22
0.0
 32
0.0
 14
0.0
 24
0.0
 34
0.0
 15
0.0
 25
0.0
 35
0.0
146
0.0
 13
0.0
 23
0.0
 33
0.0
 16
1.0
 26
0.0
 36
0.0
 17
0.0
 27
1.0
 37
0.0
 76
0
330
211
345
0
346
0
  0
ENDSEC
  0
EOF
