999
DXF file: C:\Users\sesa63760\Dev\_Creo\CAD\MCADPD0005317_3D-CAD\drw0001_7.dxf
999
Pro/ENGINEER 2019471 by Parametric Technology Corporation
  0
SECTION
  2
HEADER
  9
$ACADVER
  1
AC1024
  9
$DWGCODEPAGE
  3
ANSI_1252
  9
$EXTMAX
 10
269.7750505051
 20
381.539
 30
0.0
  9
$EXTMIN
 10
0.0
 20
0.0
 30
0.0
  9
$LIMMIN
 10
0.0
 20
0.0
  9
$LIMMAX
 10
269.7750505051
 20
381.539
  9
$VIEWCTR
 10
134.8875252525
 20
190.7695
  9
$VIEWSIZE
 40
381.539
  9
$CLAYER
  8
0
  9
$LTSCALE
 40
24.8706903704
  9
$CELTYPE
  6
BYLAYER
  9
$DIMSCALE
 40
1.0
  9
$DIMASZ
 40
3.2116077441
  9
$DIMEXO
 40
1.0
  9
$DIMDLI
 40
17.1833860741
  9
$DIMEXE
 40
1.0
  9
$DIMCEN
 40
4.0697493333
  9
$DIMLFAC
 40
1.0
  9
$DIMBLK
  1
_FILLED
  9
$DIMALT
 70
0
  9
$DIMALTF
 40
0.0393700787
  9
$DIMTXT
 40
4.4962508418
  9
$DIMTOL
 70
1
  9
$DIMLIM
 70
0
  9
$DIMTFAC
 40
1.0
  9
$DIMTP
 40
0.01
  9
$DIMTM
 40
0.01
  9
$DIMGAP
 40
0.625
  9
$DIMDSEP
 70
46
  9
$AUNITS
 70
0
  9
$PDMODE
 70
3
  9
$PDSIZE
 40
0.3125
  9
$HANDSEED
  5
2A1
  9
$TILEMODE
 70
1
  9
$MEASUREMENT
 70
1
  9
$INSUNITS
 70
4
  0
ENDSEC
  0
SECTION
  2
CLASSES
  0
CLASS
  1
ACDBDICTIONARYWDFLT
  2
AcDbDictionaryWithDefault
  3
AutoCAD 2000
 90
0
 91
1
280
0
281
0
  0
CLASS
  1
ACDBPLACEHOLDER
  2
AcDbPlaceHolder
  3
AutoCAD 2000
 90
0
 91
1
280
0
281
0
  0
CLASS
  1
LAYOUT
  2
AcDbLayout
  3
AutoCAD 2000
 90
0
 91
0
280
0
281
0
  0
ENDSEC
  0
SECTION
  2
TABLES
  0
TABLE
  2
VPORT
  5
8
100
AcDbSymbolTable
 70
2
  0
VPORT
  5
1F4
100
AcDbSymbolTableRecord
100
AcDbViewportTableRecord
  2
*ACTIVE
 70
0
 10
0.0
 20
0.0
 11
1.0
 21
1.0
 12
134.8875252525
 22
190.7695
 13
0.0
 23
0.0
 14
1.0
 24
1.0
 15
0.0
 25
0.0
 16
0.0
 26
0.0
 36
1.0
 17
0.0
 27
0.0
 37
0.0
 40
381.539
 41
0.7070707071
 42
50.0
 43
0.0
 44
0.0
 50
0.0
 51
0.0
 71
0
 72
100
 73
1
 74
1
 75
0
 76
0
 77
0
 78
0
  0
ENDTAB
  0
TABLE
  2
LTYPE
  5
5
100
AcDbSymbolTable
 70
6
  0
LTYPE
  5
14
100
AcDbSymbolTableRecord
100
AcDbLinetypeTableRecord
  2
BYBLOCK
 70
0
  3

 72
65
 73
0
 40
0.0
  0
LTYPE
  5
15
100
AcDbSymbolTableRecord
100
AcDbLinetypeTableRecord
  2
BYLAYER
 70
0
  3

 72
65
 73
0
 40
0.0
  0
LTYPE
  5
16
100
AcDbSymbolTableRecord
100
AcDbLinetypeTableRecord
  2
CONTINUOUS
 70
64
  3
Solid line
 72
65
 73
0
 40
0.0
  0
LTYPE
  5
1F5
100
AcDbSymbolTableRecord
100
AcDbLinetypeTableRecord
  2
CENTER
 70
64
  3
____ _ ____ _ ____ _ ____ _ ____ _ ____ _ ____
 72
65
 73
4
 40
0.6
 49
0.375
 74
0
 49
-0.075
 74
0
 49
0.075
 74
0
 49
-0.075
 74
0
  0
LTYPE
  5
1F6
100
AcDbSymbolTableRecord
100
AcDbLinetypeTableRecord
  2
HIDDEN
 70
64
  3
- - - - - - - - - - - - - - - - - - - -
 72
65
 73
2
 40
0.2
 49
0.1
 74
0
 49
-0.1
 74
0
  0
LTYPE
  5
1F7
100
AcDbSymbolTableRecord
100
AcDbLinetypeTableRecord
  2
PHANTOM
 70
64
  3
_____ _ _ _____ _ _ _____ _ _ _____
 72
65
 73
6
 40
0.8
 49
0.45
 74
0
 49
-0.05
 74
0
 49
0.1
 74
0
 49
-0.05
 74
0
 49
0.1
 74
0
 49
-0.05
 74
0
  0
LTYPE
  5
1F8
100
AcDbSymbolTableRecord
100
AcDbLinetypeTableRecord
  2
DOT
 70
64
  3
. . . . . . . . . . . . . . . . . . . .
 72
65
 73
2
 40
0.2
 49
0.1
 74
0
 49
-0.1
 74
0
  0
LTYPE
  5
1F9
100
AcDbSymbolTableRecord
100
AcDbLinetypeTableRecord
  2
DASHED
 70
64
  3
- - - - - - - - - - - - - - - - - - - -
 72
65
 73
2
 40
0.2
 49
0.1
 74
0
 49
-0.1
 74
0
  0
ENDTAB
  0
TABLE
  2
LAYER
  5
2
100
AcDbSymbolTable
 70
36
  0
LAYER
  5
10
100
AcDbSymbolTableRecord
100
AcDbLayerTableRecord
  2
0
 70
0
 62
7
  6
CONTINUOUS
370
-3
390
F
  0
LAYER
  5
1FA
100
AcDbSymbolTableRecord
100
AcDbLayerTableRecord
  2
DEFAULT_1
 70
0
 62
7
  6
CENTER
370
-3
390
F
  0
LAYER
  5
1FB
100
AcDbSymbolTableRecord
100
AcDbLayerTableRecord
  2
DEFAULT_2
 70
0
 62
7
  6
HIDDEN
370
-3
390
F
  0
LAYER
  5
1FC
100
AcDbSymbolTableRecord
100
AcDbLayerTableRecord
  2
DEFAULT_3
 70
0
 62
7
  6
PHANTOM
370
-3
390
F
  0
LAYER
  5
1FD
100
AcDbSymbolTableRecord
100
AcDbLayerTableRecord
  2
00_COMPONENTS
 70
0
 62
7
  6
CONTINUOUS
370
-3
390
F
  0
LAYER
  5
1FE
100
AcDbSymbolTableRecord
100
AcDbLayerTableRecord
  2
01_1_DEFAULT_DATUMS
 70
0
 62
7
  6
CONTINUOUS
370
-3
390
F
  0
LAYER
  5
1FF
100
AcDbSymbolTableRecord
100
AcDbLayerTableRecord
  2
01_PLANES
 70
0
 62
7
  6
CONTINUOUS
370
-3
390
F
  0
LAYER
  5
200
100
AcDbSymbolTableRecord
100
AcDbLayerTableRecord
  2
02_COORD_SYS
 70
0
 62
7
  6
CONTINUOUS
370
-3
390
F
  0
LAYER
  5
201
100
AcDbSymbolTableRecord
100
AcDbLayerTableRecord
  2
03_AXES
 70
0
 62
7
  6
CONTINUOUS
370
-3
390
F
  0
LAYER
  5
202
100
AcDbSymbolTableRecord
100
AcDbLayerTableRecord
  2
04_POINTS
 70
0
 62
7
  6
CONTINUOUS
370
-3
390
F
  0
LAYER
  5
203
100
AcDbSymbolTableRecord
100
AcDbLayerTableRecord
  2
05_CURVES
 70
0
 62
7
  6
CONTINUOUS
370
-3
390
F
  0
LAYER
  5
204
100
AcDbSymbolTableRecord
100
AcDbLayerTableRecord
  2
06_SURFS
 70
0
 62
7
  6
CONTINUOUS
370
-3
390
F
  0
LAYER
  5
205
100
AcDbSymbolTableRecord
100
AcDbLayerTableRecord
  2
07_COSMETICS
 70
0
 62
7
  6
CONTINUOUS
370
-3
390
F
  0
LAYER
  5
206
100
AcDbSymbolTableRecord
100
AcDbLayerTableRecord
  2
10_NOTES
 70
0
 62
7
  6
CONTINUOUS
370
-3
390
F
  0
LAYER
  5
207
100
AcDbSymbolTableRecord
100
AcDbLayerTableRecord
  2
11_NOTES_PUB
 70
0
 62
7
  6
CONTINUOUS
370
-3
390
F
  0
LAYER
  5
208
100
AcDbSymbolTableRecord
100
AcDbLayerTableRecord
  2
13_REF_GTOL
 70
0
 62
7
  6
CONTINUOUS
370
-3
390
F
  0
LAYER
  5
209
100
AcDbSymbolTableRecord
100
AcDbLayerTableRecord
  2
16_MISC
 70
0
 62
7
  6
CONTINUOUS
370
-3
390
F
  0
LAYER
  5
20A
100
AcDbSymbolTableRecord
100
AcDbLayerTableRecord
  2
17_NO_PRINT
 70
0
 62
7
  6
CONTINUOUS
370
-3
390
F
  0
LAYER
  5
20B
100
AcDbSymbolTableRecord
100
AcDbLayerTableRecord
  2
18_DATUM_CAMS_JOINTS
 70
0
 62
7
  6
CONTINUOUS
370
-3
390
F
  0
LAYER
  5
20C
100
AcDbSymbolTableRecord
100
AcDbLayerTableRecord
  2
19_DATUM_FUNCTIONAL
 70
0
 62
7
  6
CONTINUOUS
370
-3
390
F
  0
LAYER
  5
20D
100
AcDbSymbolTableRecord
100
AcDbLayerTableRecord
  2
20_DATUM_KINEMATIC_SCHEME
 70
0
 62
7
  6
CONTINUOUS
370
-3
390
F
  0
ENDTAB
  0
TABLE
  2
STYLE
  5
3
100
AcDbSymbolTable
 70
1
  0
STYLE
  5
11
100
AcDbSymbolTableRecord
100
AcDbTextStyleTableRecord
  2
STANDARD
 70
0
 40
0.0
 41
1.0
 50
0.0
 71
0
 42
0.2
  3
ARIAL.TTF
  4

  0
STYLE
  5
20E
100
AcDbSymbolTableRecord
100
AcDbTextStyleTableRecord
  2
TEXTSTYLE_1
 70
0
 40
0.0
 41
0.8
 50
0.0
 71
0
 42
0.2
  3
gdt
  4

  0
ENDTAB
  0
TABLE
  2
VIEW
  5
6
100
AcDbSymbolTable
 70
0
  0
ENDTAB
  0
TABLE
  2
UCS
  5
7
100
AcDbSymbolTable
 70
0
  0
ENDTAB
  0
TABLE
  2
APPID
  5
9
100
AcDbSymbolTable
 70
1
  0
APPID
  5
20F
100
AcDbSymbolTableRecord
100
AcDbRegAppTableRecord
  2
ACAD
 70
0
  0
ENDTAB
  0
TABLE
  2
BLOCK_RECORD
  5
1
100
AcDbSymbolTable
 70
0
  0
BLOCK_RECORD
  5
210
100
AcDbSymbolTableRecord
100
AcDbBlockTableRecord
  2
*Model_Space
  0
BLOCK_RECORD
  5
211
100
AcDbSymbolTableRecord
100
AcDbBlockTableRecord
  2
*Paper_Space
  0
BLOCK_RECORD
  5
212
100
AcDbSymbolTableRecord
100
AcDbBlockTableRecord
  2
_FILLED
  0
ENDTAB
  0
TABLE
  2
DIMSTYLE
  5
A
100
AcDbSymbolTable
 70
1
100
AcDbDimStyleTable
 71
0
  0
DIMSTYLE
105
213
100
AcDbSymbolTableRecord
100
AcDbDimStyleTableRecord
  2
STANDARD
 70
0
  3

  4

 40
1.0
 41
3.2116077441
 42
1.0
 43
0.38
 44
1.0
 45
0.0
 46
0.0
 47
0.01
 48
0.01
140
4.4962508418
141
0.09
142
0.0
143
25.4
144
1.0
145
0.0
146
1.0
147
0.625
 71
1
 72
0
 73
0
 74
0
 75
0
 76
0
 77
1
 78
8
 79
2
170
0
171
1
172
0
173
0
174
0
175
0
176
0
177
0
178
0
270
2
179
2
271
2
272
2
273
2
274
2
275
0
280
0
281
0
282
0
283
1
284
8
285
0
286
0
287
3
288
0
340
11
278
46
341
212
342
212
343
212
344
212
  0
ENDTAB
  0
ENDSEC
  0
SECTION
  2
BLOCKS
  0
BLOCK
  5
20
100
AcDbEntity
  8
0
100
AcDbBlockBegin
  2
*Model_Space
 70
0
 10
0.0
 20
0.0
 30
0.0
  3
*Model_Space
  1

  0
ENDBLK
  5
21
100
AcDbEntity
  8
0
100
AcDbBlockEnd
  0
BLOCK
  5
1C
100
AcDbEntity
  8
0
100
AcDbBlockBegin
  2
*Paper_Space
 70
0
 10
0.0
 20
0.0
 30
0.0
  3
*Paper_Space
  1

  0
ENDBLK
  5
1D
100
AcDbEntity
  8
0
100
AcDbBlockEnd
  0
BLOCK
  5
214
100
AcDbEntity
  8
0
100
AcDbBlockBegin
  2
_FILLED
 70
64
 10
0.0
 20
0.0
  3
_FILLED
  1

  0
SOLID
  5
215
100
AcDbEntity
  8
0
  6
BYBLOCK
 62
0
100
AcDbTrace
 10
0.0
 20
0.0
 11
-1.0
 21
0.25
 12
-1.0
 22
-0.25
 13
-1.0
 23
-0.25
  0
ENDBLK
  5
216
100
AcDbEntity
  8
0
  6
BYBLOCK
 62
0
100
AcDbBlockEnd
  0
ENDSEC
  0
SECTION
  2
ENTITIES
  0
LINE
  5
217
100
AcDbEntity
  8
0
100
AcDbLine
 62
7
  6
BYLAYER
 10
114.8546208567
 20
28.2535
 11
155.8544296483
 21
28.2535
  0
LINE
  5
218
100
AcDbEntity
  8
0
100
AcDbLine
 62
7
  6
BYLAYER
 10
112.8545252525
 20
30.2535
 11
157.8545252525
 21
30.2535
  0
LINE
  5
219
100
AcDbEntity
  8
0
100
AcDbLine
 62
7
  6
BYLAYER
 10
113.2017355016
 20
46.2535000248
 11
157.5073150035
 21
46.2534999737
  0
LINE
  5
21A
100
AcDbEntity
  8
0
100
AcDbLine
 62
7
  6
BYLAYER
 10
126.6367273705
 20
58.2535
 11
144.0723231334
 21
58.2535
  0
LINE
  5
21B
100
AcDbEntity
  8
0
100
AcDbLine
 62
7
  6
BYLAYER
 10
125.5470026281
 20
60.7535
 11
145.1620478772
 21
60.7535
  0
LINE
  5
21C
100
AcDbEntity
  8
0
100
AcDbLine
 62
7
  6
BYLAYER
 10
106.3545252525
 20
68.2535
 11
164.3545252525
 21
68.2535
  0
LINE
  5
21D
100
AcDbEntity
  8
0
100
AcDbLine
 62
7
  6
BYLAYER
 10
105.3545252525
 20
69.2535
 11
165.3545252525
 21
69.2535
  0
LINE
  5
21E
100
AcDbEntity
  8
0
100
AcDbLine
 62
7
  6
BYLAYER
 10
103.8545252525
 20
73.5535
 11
166.8545252525
 21
73.5535
  0
LINE
  5
21F
100
AcDbEntity
  8
0
100
AcDbLine
 62
7
  6
BYLAYER
 10
103.8545252525
 20
74.8535
 11
166.8545252525
 21
74.8535
  0
LINE
  5
220
100
AcDbEntity
  8
0
100
AcDbLine
 62
7
  6
BYLAYER
 10
132.8545252525
 20
81.1535
 11
105.6545252525
 21
81.1535
  0
LINE
  5
221
100
AcDbEntity
  8
0
100
AcDbLine
 62
7
  6
BYLAYER
 10
135.3545252525
 20
81.1535
 11
165.0545252525
 21
81.1535
  0
LINE
  5
222
100
AcDbEntity
  8
0
100
AcDbLine
 62
7
  6
BYLAYER
 10
132.8545252525
 20
85.1535
 11
122.8545252525
 21
85.1535
  0
LINE
  5
223
100
AcDbEntity
  8
0
100
AcDbLine
 62
7
  6
BYLAYER
 10
161.3545252525
 20
88.2535
 11
157.3545252525
 21
88.2535
  0
LINE
  5
224
100
AcDbEntity
  8
0
100
AcDbLine
 62
7
  6
BYLAYER
 10
113.3545252525
 20
88.2535
 11
109.3545252525
 21
88.2535
  0
LINE
  5
225
100
AcDbEntity
  8
0
100
AcDbLine
 62
7
  6
BYLAYER
 10
165.0545252525
 20
106.1535
 11
132.4045244508
 21
106.1535
  0
LINE
  5
226
100
AcDbEntity
  8
0
100
AcDbLine
 62
7
  6
BYLAYER
 10
127.3545252525
 20
141.6535
 11
143.3545252525
 21
141.6535
  0
LINE
  5
227
100
AcDbEntity
  8
0
100
AcDbLine
 62
7
  6
BYLAYER
 10
103.8545252525
 20
73.5535
 11
103.8545252525
 21
74.8535
  0
LINE
  5
228
100
AcDbEntity
  8
0
100
AcDbLine
 62
7
  6
BYLAYER
 10
105.3545252525
 20
69.2535
 11
105.3545252525
 21
73.5535
  0
LINE
  5
229
100
AcDbEntity
  8
0
100
AcDbLine
 62
7
  6
BYLAYER
 10
105.6545252525
 20
74.8535
 11
105.6545252525
 21
81.1535
  0
LINE
  5
22A
100
AcDbEntity
  8
0
100
AcDbLine
 62
7
  6
BYLAYER
 10
108.3545252525
 20
68.2535
 11
108.3545252525
 21
73.5535
  0
LINE
  5
22B
100
AcDbEntity
  8
0
100
AcDbLine
 62
7
  6
BYLAYER
 10
108.4294795378
 20
299.8535
 11
108.4294795378
 21
293.8535
  0
LINE
  5
22C
100
AcDbEntity
  8
0
100
AcDbLine
 62
7
  6
BYLAYER
 10
108.5122471175
 20
299.8535
 11
108.5122471175
 21
293.8535
  0
LINE
  5
22D
100
AcDbEntity
  8
0
100
AcDbLine
 62
7
  6
BYLAYER
 10
109.3545252525
 20
81.1535
 11
109.3545252525
 21
88.2535
  0
LINE
  5
22E
100
AcDbEntity
  8
0
100
AcDbLine
 62
7
  6
BYLAYER
 10
110.6545252525
 20
81.1535
 11
110.6545252525
 21
74.8535
  0
LINE
  5
22F
100
AcDbEntity
  8
0
100
AcDbLine
 62
7
  6
BYLAYER
 10
111.4545252525
 20
74.8535
 11
111.4545252525
 21
73.5535
  0
LINE
  5
230
100
AcDbEntity
  8
0
100
AcDbLine
 62
7
  6
BYLAYER
 10
111.9412278034
 20
299.8535
 11
111.9412278034
 21
293.8535
  0
LINE
  5
231
100
AcDbEntity
  8
0
100
AcDbLine
 62
7
  6
BYLAYER
 10
112.1187390765
 20
299.8535
 11
112.1187390765
 21
293.8535
  0
LINE
  5
232
100
AcDbEntity
  8
0
100
AcDbLine
 62
7
  6
BYLAYER
 10
112.8545252525
 20
30.2535
 11
112.8545252525
 21
68.2535
  0
LINE
  5
233
100
AcDbEntity
  8
0
100
AcDbLine
 62
7
  6
BYLAYER
 10
112.8545252525
 20
299.8535
 11
112.8545252525
 21
355.1535
  0
LINE
  5
234
100
AcDbEntity
  8
0
100
AcDbLine
 62
7
  6
BYLAYER
 10
113.2017355041
 20
46.2535001226
 11
113.2017355041
 21
30.2535
  0
LINE
  5
235
100
AcDbEntity
  8
0
100
AcDbLine
 62
7
  6
BYLAYER
 10
113.3545252525
 20
81.1535
 11
113.3545252525
 21
88.2535
  0
LINE
  5
236
100
AcDbEntity
  8
0
100
AcDbLine
 62
7
  6
BYLAYER
 10
115.6631565862
 20
46.2534999908
 11
115.663156585
 21
28.2535
  0
LINE
  5
237
100
AcDbEntity
  8
0
100
AcDbLine
 62
7
  6
BYLAYER
 10
116.3545252525
 20
228.6535
 11
116.3545252525
 21
229.6535
  0
LINE
  5
238
100
AcDbEntity
  8
0
100
AcDbLine
 62
7
  6
BYLAYER
 10
116.3545252525
 20
292.8535
 11
116.3545252525
 21
293.8535
  0
LINE
  5
239
100
AcDbEntity
  8
0
100
AcDbLine
 62
7
  6
BYLAYER
 10
116.3545252525
 20
330.1535
 11
116.3545252525
 21
346.1535
  0
LINE
  5
23A
100
AcDbEntity
  8
0
100
AcDbLine
 62
7
  6
BYLAYER
 10
122.3545252525
 20
351.4035
 11
122.3545252525
 21
355.1535
  0
LINE
  5
23B
100
AcDbEntity
  8
0
100
AcDbLine
 62
7
  6
BYLAYER
 10
122.8545252525
 20
85.1535
 11
122.8545252525
 21
81.1535
  0
LINE
  5
23C
100
AcDbEntity
  8
0
100
AcDbLine
 62
7
  6
BYLAYER
 10
124.3545252525
 20
330.1535
 11
124.3545252525
 21
346.1535
  0
LINE
  5
23D
100
AcDbEntity
  8
0
100
AcDbLine
 62
7
  6
BYLAYER
 10
127.3545252525
 20
141.6535
 11
127.3545252525
 21
85.1535
  0
LINE
  5
23E
100
AcDbEntity
  8
0
100
AcDbLine
 62
7
  6
BYLAYER
 10
127.9383267654
 20
141.6535
 11
127.9383267654
 21
85.1535
  0
LINE
  5
23F
100
AcDbEntity
  8
0
100
AcDbLine
 62
7
  6
BYLAYER
 10
128.7401469749
 20
85.1535
 11
128.7401469749
 21
141.6535
  0
LINE
  5
240
100
AcDbEntity
  8
0
100
AcDbLine
 62
7
  6
BYLAYER
 10
129.1045252525
 20
230.1535
 11
129.1045252525
 21
230.9535
  0
LINE
  5
241
100
AcDbEntity
  8
0
100
AcDbLine
 62
7
  6
BYLAYER
 10
129.9803429019
 20
85.1535
 11
129.9803429019
 21
141.6535
  0
LINE
  5
242
100
AcDbEntity
  8
0
100
AcDbLine
 62
7
  6
BYLAYER
 10
131.1045252525
 20
231.4535
 11
131.1045252525
 21
229.6535
  0
LINE
  5
243
100
AcDbEntity
  8
0
100
AcDbLine
 62
7
  6
BYLAYER
 10
131.3545252525
 20
330.1535
 11
131.3545252525
 21
346.1535
  0
LINE
  5
244
100
AcDbEntity
  8
0
100
AcDbLine
 62
7
  6
BYLAYER
 10
131.4545159106
 20
85.1535
 11
131.4545159106
 21
141.6535
  0
LINE
  5
245
100
AcDbEntity
  8
0
100
AcDbLine
 62
7
  6
BYLAYER
 10
132.3545252525
 20
85.1535
 11
132.3545252525
 21
228.6535
  0
LINE
  5
246
100
AcDbEntity
  8
0
100
AcDbLine
 62
7
  6
BYLAYER
 10
132.3545252525
 20
231.4535
 11
132.3545252525
 21
292.8535
  0
LINE
  5
247
100
AcDbEntity
  8
0
100
AcDbLine
 62
7
  6
BYLAYER
 10
132.4045244508
 20
106.1535
 11
132.4045244508
 21
85.1535
  0
LINE
  5
248
100
AcDbEntity
  8
0
100
AcDbLine
 62
7
  6
BYLAYER
 10
132.8545252525
 20
106.1535
 11
132.8545252525
 21
81.1535
  0
LINE
  5
249
100
AcDbEntity
  8
0
100
AcDbLine
 62
7
  6
BYLAYER
 10
133.3545252525
 20
351.4035
 11
133.3545252525
 21
355.1535
  0
LINE
  5
24A
100
AcDbEntity
  8
0
100
AcDbLine
 62
7
  6
BYLAYER
 10
134.5598620515
 20
350.4035
 11
134.5598620515
 21
355.1535
  0
LINE
  5
24B
100
AcDbEntity
  8
0
100
AcDbLine
 62
7
  6
BYLAYER
 10
135.0849737384
 20
299.8535
 11
135.0849737384
 21
293.8535
  0
LINE
  5
24C
100
AcDbEntity
  8
0
100
AcDbLine
 62
7
  6
BYLAYER
 10
135.3545252525
 20
81.1535
 11
135.3545252525
 21
106.1535
  0
LINE
  5
24D
100
AcDbEntity
  8
0
100
AcDbLine
 62
7
  6
BYLAYER
 10
135.6183220409
 20
299.8535
 11
135.6183220409
 21
293.8535
  0
LINE
  5
24E
100
AcDbEntity
  8
0
100
AcDbLine
 62
7
  6
BYLAYER
 10
138.3545252525
 20
231.4535
 11
138.3545252525
 21
292.8535
  0
LINE
  5
24F
100
AcDbEntity
  8
0
100
AcDbLine
 62
7
  6
BYLAYER
 10
138.3545252525
 20
106.1535
 11
138.3545252525
 21
228.6535
  0
LINE
  5
250
100
AcDbEntity
  8
0
100
AcDbLine
 62
7
  6
BYLAYER
 10
138.8545252525
 20
351.4035
 11
138.8545252525
 21
355.1535
  0
LINE
  5
251
100
AcDbEntity
  8
0
100
AcDbLine
 62
7
  6
BYLAYER
 10
139.2545294196
 20
106.1535
 11
139.2545294196
 21
141.6535
  0
LINE
  5
252
100
AcDbEntity
  8
0
100
AcDbLine
 62
7
  6
BYLAYER
 10
139.3545252525
 20
330.1535
 11
139.3545252525
 21
346.1535
  0
LINE
  5
253
100
AcDbEntity
  8
0
100
AcDbLine
 62
7
  6
BYLAYER
 10
139.6045252525
 20
229.6535
 11
139.6045252525
 21
231.4535
  0
LINE
  5
254
100
AcDbEntity
  8
0
100
AcDbLine
 62
7
  6
BYLAYER
 10
140.7287076031
 20
106.1535
 11
140.7287076031
 21
141.6535
  0
LINE
  5
255
100
AcDbEntity
  8
0
100
AcDbLine
 62
7
  6
BYLAYER
 10
141.6045252525
 20
230.9535
 11
141.6045252525
 21
230.1535
  0
LINE
  5
256
100
AcDbEntity
  8
0
100
AcDbLine
 62
7
  6
BYLAYER
 10
141.9689035302
 20
141.6535
 11
141.9689035302
 21
106.1535
  0
LINE
  5
257
100
AcDbEntity
  8
0
100
AcDbLine
 62
7
  6
BYLAYER
 10
142.7707237396
 20
106.1535
 11
142.7707237396
 21
141.6535
  0
LINE
  5
258
100
AcDbEntity
  8
0
100
AcDbLine
 62
7
  6
BYLAYER
 10
143.3545252525
 20
141.6535
 11
143.3545252525
 21
106.1535
  0
LINE
  5
259
100
AcDbEntity
  8
0
100
AcDbLine
 62
7
  6
BYLAYER
 10
146.3545252525
 20
330.1535
 11
146.3545252525
 21
346.1535
  0
LINE
  5
25A
100
AcDbEntity
  8
0
100
AcDbLine
 62
7
  6
BYLAYER
 10
146.8545252525
 20
355.1535
 11
146.8545252525
 21
351.4035
  0
LINE
  5
25B
100
AcDbEntity
  8
0
100
AcDbLine
 62
7
  6
BYLAYER
 10
148.8545252525
 20
28.2535
 11
148.8545252525
 21
30.2535
  0
LINE
  5
25C
100
AcDbEntity
  8
0
100
AcDbLine
 62
7
  6
BYLAYER
 10
149.2545252525
 20
30.2535
 11
149.2545252525
 21
28.2535
  0
LINE
  5
25D
100
AcDbEntity
  8
0
100
AcDbLine
 62
7
  6
BYLAYER
 10
151.1491884535
 20
355.1535
 11
151.1491884535
 21
350.4035
  0
LINE
  5
25E
100
AcDbEntity
  8
0
100
AcDbLine
 62
7
  6
BYLAYER
 10
154.3545252525
 20
228.6535
 11
154.3545252525
 21
229.6535
  0
LINE
  5
25F
100
AcDbEntity
  8
0
100
AcDbLine
 62
7
  6
BYLAYER
 10
154.3545252525
 20
292.8535
 11
154.3545252525
 21
293.8535
  0
LINE
  5
260
100
AcDbEntity
  8
0
100
AcDbLine
 62
7
  6
BYLAYER
 10
154.3545252525
 20
330.1535
 11
154.3545252525
 21
346.1535
  0
LINE
  5
261
100
AcDbEntity
  8
0
100
AcDbLine
 62
7
  6
BYLAYER
 10
155.04589392
 20
28.2535
 11
155.04589392
 21
46.2534999947
  0
LINE
  5
262
100
AcDbEntity
  8
0
100
AcDbLine
 62
7
  6
BYLAYER
 10
157.3545252525
 20
81.1535
 11
157.3545252525
 21
88.2535
  0
LINE
  5
263
100
AcDbEntity
  8
0
100
AcDbLine
 62
7
  6
BYLAYER
 10
157.5073150009
 20
30.2535
 11
157.5073150009
 21
46.2535001236
  0
LINE
  5
264
100
AcDbEntity
  8
0
100
AcDbLine
 62
7
  6
BYLAYER
 10
157.8545252525
 20
30.2535
 11
157.8545252525
 21
68.2535
  0
LINE
  5
265
100
AcDbEntity
  8
0
100
AcDbLine
 62
7
  6
BYLAYER
 10
157.8545252525
 20
299.8535
 11
157.8545252525
 21
355.1535
  0
LINE
  5
266
100
AcDbEntity
  8
0
100
AcDbLine
 62
7
  6
BYLAYER
 10
158.6958814659
 20
299.8535
 11
158.6958814659
 21
293.8535
  0
LINE
  5
267
100
AcDbEntity
  8
0
100
AcDbLine
 62
7
  6
BYLAYER
 10
158.8721280139
 20
293.8535
 11
158.8721280139
 21
299.8535
  0
LINE
  5
268
100
AcDbEntity
  8
0
100
AcDbLine
 62
7
  6
BYLAYER
 10
159.2545252525
 20
73.5535
 11
159.2545252525
 21
74.8535
  0
LINE
  5
269
100
AcDbEntity
  8
0
100
AcDbLine
 62
7
  6
BYLAYER
 10
160.0545252525
 20
74.8535
 11
160.0545252525
 21
81.1535
  0
LINE
  5
26A
100
AcDbEntity
  8
0
100
AcDbLine
 62
7
  6
BYLAYER
 10
161.3545252525
 20
81.1535
 11
161.3545252525
 21
88.2535
  0
LINE
  5
26B
100
AcDbEntity
  8
0
100
AcDbLine
 62
7
  6
BYLAYER
 10
162.3122471175
 20
299.8535
 11
162.3122471175
 21
293.8535
  0
LINE
  5
26C
100
AcDbEntity
  8
0
100
AcDbLine
 62
7
  6
BYLAYER
 10
162.3545252525
 20
68.2535
 11
162.3545252525
 21
73.5535
  0
LINE
  5
26D
100
AcDbEntity
  8
0
100
AcDbLine
 62
7
  6
BYLAYER
 10
165.0545252525
 20
106.1535
 11
165.0545252525
 21
74.8535
  0
LINE
  5
26E
100
AcDbEntity
  8
0
100
AcDbLine
 62
7
  6
BYLAYER
 10
165.3545252525
 20
69.2535
 11
165.3545252525
 21
73.5535
  0
LINE
  5
26F
100
AcDbEntity
  8
0
100
AcDbLine
 62
7
  6
BYLAYER
 10
166.8545252525
 20
74.8535
 11
166.8545252525
 21
73.5535
  0
LINE
  5
270
100
AcDbEntity
  8
0
100
AcDbLine
 62
7
  6
BYLAYER
 10
116.3545252525
 20
228.6535
 11
154.3545252525
 21
228.6535
  0
LINE
  5
271
100
AcDbEntity
  8
0
100
AcDbLine
 62
7
  6
BYLAYER
 10
154.3545252525
 20
229.6535
 11
116.3545252525
 21
229.6535
  0
LINE
  5
272
100
AcDbEntity
  8
0
100
AcDbLine
 62
7
  6
BYLAYER
 10
129.1045252525
 20
230.1535
 11
141.6045252525
 21
230.1535
  0
LINE
  5
273
100
AcDbEntity
  8
0
100
AcDbLine
 62
7
  6
BYLAYER
 10
141.6045252525
 20
230.9535
 11
129.1045252525
 21
230.9535
  0
LINE
  5
274
100
AcDbEntity
  8
0
100
AcDbLine
 62
7
  6
BYLAYER
 10
129.6045252525
 20
231.4535
 11
141.1045252525
 21
231.4535
  0
LINE
  5
275
100
AcDbEntity
  8
0
100
AcDbLine
 62
7
  6
BYLAYER
 10
116.3545252525
 20
292.8535
 11
154.3545252525
 21
292.8535
  0
LINE
  5
276
100
AcDbEntity
  8
0
100
AcDbLine
 62
7
  6
BYLAYER
 10
108.4294795378
 20
293.8535
 11
108.479474625
 21
293.8535
  0
LINE
  5
277
100
AcDbEntity
  8
0
100
AcDbLine
 62
7
  6
BYLAYER
 10
108.5122471175
 20
293.8535
 11
162.3122471175
 21
293.8535
  0
LINE
  5
278
100
AcDbEntity
  8
0
100
AcDbLine
 62
7
  6
BYLAYER
 10
108.479474625
 20
299.8535
 11
108.4294795378
 21
299.8535
  0
LINE
  5
279
100
AcDbEntity
  8
0
100
AcDbLine
 62
7
  6
BYLAYER
 10
108.5122471175
 20
299.8535
 11
135.0849737384
 21
299.8535
  0
LINE
  5
27A
100
AcDbEntity
  8
0
100
AcDbLine
 62
7
  6
BYLAYER
 10
135.618322041
 20
299.8535
 11
162.3122471175
 21
299.8535
  0
LINE
  5
27B
100
AcDbEntity
  8
0
100
AcDbLine
 62
7
  6
BYLAYER
 10
157.8545252525
 20
313.6535
 11
112.8545252525
 21
313.6535
  0
LINE
  5
27C
100
AcDbEntity
  8
0
100
AcDbLine
 62
7
  6
BYLAYER
 10
157.8545252525
 20
324.4359302606
 11
112.8545252525
 21
324.4359302606
  0
LINE
  5
27D
100
AcDbEntity
  8
0
100
AcDbLine
 62
7
  6
BYLAYER
 10
153.860608418
 20
328.6535
 11
146.8446170412
 21
328.6535
  0
LINE
  5
27E
100
AcDbEntity
  8
0
100
AcDbLine
 62
7
  6
BYLAYER
 10
138.860608418
 20
328.6535
 11
131.8446170412
 21
328.6535
  0
LINE
  5
27F
100
AcDbEntity
  8
0
100
AcDbLine
 62
7
  6
BYLAYER
 10
123.860608418
 20
328.6535
 11
116.8446170412
 21
328.6535
  0
LINE
  5
280
100
AcDbEntity
  8
0
100
AcDbLine
 62
7
  6
BYLAYER
 10
154.3545252525
 20
338.6535
 11
146.3545252525
 21
338.6535
  0
LINE
  5
281
100
AcDbEntity
  8
0
100
AcDbLine
 62
7
  6
BYLAYER
 10
139.3545252525
 20
338.6535
 11
131.3545252525
 21
338.6535
  0
LINE
  5
282
100
AcDbEntity
  8
0
100
AcDbLine
 62
7
  6
BYLAYER
 10
124.3545252525
 20
338.6535
 11
116.3545252525
 21
338.6535
  0
LINE
  5
283
100
AcDbEntity
  8
0
100
AcDbLine
 62
7
  6
BYLAYER
 10
112.8545252525
 20
346.1535
 11
157.8545252525
 21
346.1535
  0
LINE
  5
284
100
AcDbEntity
  8
0
100
AcDbLine
 62
7
  6
BYLAYER
 10
151.1491884535
 20
350.4035
 11
134.5598620515
 21
350.4035
  0
LINE
  5
285
100
AcDbEntity
  8
0
100
AcDbLine
 62
7
  6
BYLAYER
 10
133.3545252525
 20
351.4035
 11
122.3545252525
 21
351.4035
  0
LINE
  5
286
100
AcDbEntity
  8
0
100
AcDbLine
 62
7
  6
BYLAYER
 10
136.9200594637
 20
351.4035
 11
148.7889910413
 21
351.4035
  0
LINE
  5
287
100
AcDbEntity
  8
0
100
AcDbLine
 62
7
  6
BYLAYER
 10
112.8545252525
 20
355.1535
 11
157.8545252525
 21
355.1535
  0
ARC
  5
288
100
AcDbEntity
  8
0
100
AcDbCircle
 62
7
  6
BYLAYER
 10
135.3545252525
 20
330.1535
 40
4.0
100
AcDbArc
 50
180.0
 51
360.0
  0
ARC
  5
289
100
AcDbEntity
  8
0
100
AcDbCircle
 62
7
  6
BYLAYER
 10
150.3545252525
 20
330.1535
 40
4.0
100
AcDbArc
 50
180.0
 51
360.0
  0
ARC
  5
28A
100
AcDbEntity
  8
0
100
AcDbCircle
 62
7
  6
BYLAYER
 10
120.3545252525
 20
330.1535
 40
4.0
100
AcDbArc
 50
180.0
 51
360.0
  0
ARC
  5
28B
100
AcDbEntity
  8
0
100
AcDbCircle
 62
7
  6
BYLAYER
 10
155.8545252525
 20
30.2535
 40
2.0
100
AcDbArc
 50
270.0
 51
360.0
  0
ARC
  5
28C
100
AcDbEntity
  8
0
100
AcDbCircle
 62
7
  6
BYLAYER
 10
114.8545252525
 20
30.2535
 40
2.0
100
AcDbArc
 50
180.0
 51
270.0
  0
ARC
  5
28D
100
AcDbEntity
  8
0
100
AcDbCircle
 62
7
  6
BYLAYER
 10
115.1717572156
 20
30.1938849346
 40
1.9403851364
100
AcDbArc
 50
261.1766810832
 51
269.9738721899
  0
ARC
  5
28E
100
AcDbEntity
  8
0
100
AcDbCircle
 62
7
  6
BYLAYER
 10
155.5372763316
 20
30.1929864913
 40
1.9394867009
100
AcDbArc
 50
270.0266408786
 51
278.7645058046
  0
ARC
  5
28F
100
AcDbEntity
  8
0
100
AcDbCircle
 62
7
  6
BYLAYER
 10
164.3545252525
 20
69.2535
 40
1.0
100
AcDbArc
 50
270.0
 51
360.0
  0
ARC
  5
290
100
AcDbEntity
  8
0
100
AcDbCircle
 62
7
  6
BYLAYER
 10
106.3545252525
 20
69.2535
 40
1.0
100
AcDbArc
 50
180.0
 51
270.0
  0
ARC
  5
291
100
AcDbEntity
  8
0
100
AcDbCircle
 62
7
  6
BYLAYER
 10
142.1045252525
 20
230.1535
 40
0.5
100
AcDbArc
 50
180.0
 51
270.0
  0
ARC
  5
292
100
AcDbEntity
  8
0
100
AcDbCircle
 62
7
  6
BYLAYER
 10
128.6045252525
 20
230.1535
 40
0.5
100
AcDbArc
 50
270.0
 51
360.0
  0
ARC
  5
293
100
AcDbEntity
  8
0
100
AcDbCircle
 62
7
  6
BYLAYER
 10
129.6045252525
 20
230.9535
 40
0.5
100
AcDbArc
 50
90.0
 51
180.0
  0
ARC
  5
294
100
AcDbEntity
  8
0
100
AcDbCircle
 62
7
  6
BYLAYER
 10
141.1045252525
 20
230.9535
 40
0.5
100
AcDbArc
 50
0.0
 51
90.0
  0
SPLINE
  5
295
100
AcDbEntity
  8
0
100
AcDbSpline
 62
7
  6
BYLAYER
 70
0
 71
3
 72
11
 73
7
 74
0
 42
0.0000001
 43
0.0000001
 44
0.0000000001
 40
0.0
 40
0.0
 40
0.0
 40
0.0
 40
0.3218054351
 40
0.4817653676
 40
0.6295562645
 40
1.0
 40
1.0
 40
1.0
 40
1.0
 10
125.5470026136
 20
60.7535
 30
0.0
 10
125.5470026137
 20
60.4456965417
 30
0.0
 10
125.5813059105
 20
59.9853472854
 30
0.0
 10
125.7159981442
 20
59.3912993524
 30
0.0
 10
125.9130966607
 20
58.798691446
 30
0.0
 10
126.2824018791
 20
58.2535
 30
0.0
 10
126.6367273518
 20
58.2535
 30
0.0
  0
SPLINE
  5
296
100
AcDbEntity
  8
0
100
AcDbSpline
 62
7
  6
BYLAYER
 70
0
 71
3
 72
17
 73
13
 74
0
 42
0.0000001
 43
0.0000001
 44
0.0000000001
 40
0.0
 40
0.0
 40
0.0
 40
0.0
 40
0.156138178
 40
0.3007113114
 40
0.3660999078
 40
0.4263185306
 40
0.5334235648
 40
0.5836053597
 40
0.6340583451
 40
0.7418037947
 40
0.8638677266
 40
1.0
 40
1.0
 40
1.0
 40
1.0
 10
113.2017355041
 20
46.2535001226
 30
0.0
 10
113.2017449302
 20
47.4436579412
 30
0.0
 10
113.2541930517
 20
49.7358139722
 30
0.0
 10
113.5012845462
 20
52.5207022213
 30
0.0
 10
113.9033980955
 20
54.5440489584
 30
0.0
 10
114.4205879254
 20
56.2411333255
 30
0.0
 10
115.2240395049
 20
57.7348078568
 30
0.0
 10
116.3665774333
 20
58.8461088516
 30
0.0
 10
117.7039604772
 20
59.7195703597
 30
0.0
 10
119.7623913633
 20
60.3978188587
 30
0.0
 10
122.5400299832
 20
60.7153472031
 30
0.0
 10
124.5093391201
 20
60.7534932436
 30
0.0
 10
125.5470026281
 20
60.7535
 30
0.0
  0
SPLINE
  5
297
100
AcDbEntity
  8
0
100
AcDbSpline
 62
7
  6
BYLAYER
 70
0
 71
3
 72
18
 73
14
 74
0
 42
0.0000001
 43
0.0000001
 44
0.0000000001
 40
0.0
 40
0.0
 40
0.0
 40
0.0
 40
0.1469130138
 40
0.2847876342
 40
0.3481478561
 40
0.4072552727
 40
0.5143369049
 40
0.5655763039
 40
0.6177004053
 40
0.6723422716
 40
0.7304830367
 40
0.8582302297
 40
1.0
 40
1.0
 40
1.0
 40
1.0
 10
115.6631925595
 20
46.2534999994
 30
0.0
 10
115.6632083418
 20
47.21141264
 30
0.0
 10
115.7078525727
 20
49.0682940899
 30
0.0
 10
115.9162722819
 20
51.3332903327
 30
0.0
 10
116.2575058808
 20
52.9991030302
 30
0.0
 10
116.7047060894
 20
54.4280030648
 30
0.0
 10
117.4143522558
 20
55.6946833578
 30
0.0
 10
118.4243910798
 20
56.636783156
 30
0.0
 10
119.3033173754
 20
57.185257153
 30
0.0
 10
120.3025946883
 20
57.5932035831
 30
0.0
 10
121.8228089417
 20
57.9917112674
 30
0.0
 10
123.9551397611
 20
58.2258211174
 30
0.0
 10
125.7123634245
 20
58.2534871361
 30
0.0
 10
126.6367407246
 20
58.2535000003
 30
0.0
  0
SPLINE
  5
298
100
AcDbEntity
  8
0
100
AcDbSpline
 62
7
  6
BYLAYER
 70
0
 71
3
 72
18
 73
14
 74
0
 42
0.0000001
 43
0.0000001
 44
0.0000000001
 40
0.0
 40
0.0
 40
0.0
 40
0.0
 40
0.1418373455
 40
0.2696512598
 40
0.3278053278
 40
0.382451721
 40
0.4345796914
 40
0.4858291106
 40
0.5929526931
 40
0.6520691905
 40
0.7154265202
 40
0.8532342389
 40
1.0
 40
1.0
 40
1.0
 40
1.0
 10
144.0723319838
 20
58.2535000002
 30
0.0
 10
144.9971589717
 20
58.2534757983
 30
0.0
 10
146.7552696253
 20
58.2257581744
 30
0.0
 10
148.8885952966
 20
57.9914711207
 30
0.0
 10
150.4092662455
 20
57.5924228008
 30
0.0
 10
151.4085198821
 20
57.1840021711
 30
0.0
 10
152.2873005054
 20
56.635035971
 30
0.0
 10
153.2970393685
 20
55.6920401058
 30
0.0
 10
154.006034381
 20
54.4245333316
 30
0.0
 10
154.4527104643
 20
52.9951355282
 30
0.0
 10
154.7932602047
 20
51.32957433
 30
0.0
 10
155.0012546607
 20
49.0659661255
 30
0.0
 10
155.0459161334
 20
47.2104619079
 30
0.0
 10
155.0459177676
 20
46.2535
 30
0.0
  0
SPLINE
  5
299
100
AcDbEntity
  8
0
100
AcDbSpline
 62
7
  6
BYLAYER
 70
0
 71
3
 72
18
 73
14
 74
0
 42
0.0000001
 43
0.0000001
 44
0.0000000001
 40
0.0
 40
0.0
 40
0.0
 40
0.0
 40
0.1561117431
 40
0.3007079139
 40
0.3660320075
 40
0.4262191763
 40
0.5333480565
 40
0.5835405393
 40
0.6339597804
 40
0.6863692385
 40
0.7418822327
 40
0.8639025467
 40
1.0
 40
1.0
 40
1.0
 40
1.0
 10
157.5073150009
 20
46.2535001236
 30
0.0
 10
157.5136807878
 20
47.44373868
 30
0.0
 10
157.450608325
 20
49.736375092
 30
0.0
 10
157.2086891312
 20
52.5216909352
 30
0.0
 10
156.8052220568
 20
54.5447928215
 30
0.0
 10
156.2875721658
 20
56.2417237868
 30
0.0
 10
155.4828289682
 20
57.7346668543
 30
0.0
 10
154.3421725486
 20
58.848530446
 30
0.0
 10
153.359255356
 20
59.4893726089
 30
0.0
 10
152.2466011945
 20
59.9698352744
 30
0.0
 10
150.5532871181
 20
60.4399054528
 30
0.0
 10
148.1676446019
 20
60.7162462315
 30
0.0
 10
146.1996889302
 20
60.7596006206
 30
0.0
 10
145.1620478772
 20
60.7535
 30
0.0
  0
SPLINE
  5
29A
100
AcDbEntity
  8
0
100
AcDbSpline
 62
7
  6
BYLAYER
 70
0
 71
3
 72
11
 73
7
 74
0
 42
0.0000001
 43
0.0000001
 44
0.0000000001
 40
0.0
 40
0.0
 40
0.0
 40
0.0
 40
0.3704437706
 40
0.5182346543
 40
0.6781945749
 40
1.0
 40
1.0
 40
1.0
 40
1.0
 10
144.0723287087
 20
58.2534999999
 30
0.0
 10
144.4266542755
 20
58.2534999965
 30
0.0
 10
144.7959598289
 20
58.7986912286
 30
0.0
 10
144.9930585714
 20
59.3912992197
 30
0.0
 10
145.1277509648
 20
59.9853471811
 30
0.0
 10
145.1620543295
 20
60.4456964986
 30
0.0
 10
145.1620543527
 20
60.7535
 30
0.0
  0
SPLINE
  5
29B
100
AcDbEntity
  8
0
100
AcDbSpline
 62
7
  6
BYLAYER
 70
0
 71
3
 72
14
 73
10
 74
0
 42
0.0000001
 43
0.0000001
 44
0.0000000001
 40
0.0
 40
0.0
 40
0.0
 40
0.0
 40
0.0670870589
 40
0.1341847477
 40
0.2674706389
 40
0.3988084579
 40
0.5275468908
 40
0.7739911409
 40
1.0
 40
1.0
 40
1.0
 40
1.0
 10
151.1491884535
 20
350.4035
 30
0.0
 10
151.1491884535
 20
350.462465881
 30
0.0
 10
151.0719564352
 20
350.5706954755
 30
0.0
 10
150.8844683107
 20
350.7055146204
 30
0.0
 10
150.6279262506
 20
350.8499348104
 30
0.0
 10
150.3155118936
 20
350.9966530017
 30
0.0
 10
149.903667847
 20
351.1668909547
 30
0.0
 10
149.4018701359
 20
351.3332548465
 30
0.0
 10
148.9876405528
 20
351.4035
 30
0.0
 10
148.7889910413
 20
351.4035
 30
0.0
  0
SPLINE
  5
29C
100
AcDbEntity
  8
0
100
AcDbSpline
 62
7
  6
BYLAYER
 70
0
 71
3
 72
11
 73
7
 74
0
 42
0.0000001
 43
0.0000001
 44
0.0000000001
 40
0.0
 40
0.0
 40
0.0
 40
0.0
 40
0.2483344994
 40
0.4976373084
 40
0.7483322357
 40
1.0
 40
1.0
 40
1.0
 40
1.0
 10
114.8741253727
 20
28.2764622469
 30
0.0
 10
114.6446956778
 20
28.3120216305
 30
0.0
 10
114.1937332536
 20
28.4679374164
 30
0.0
 10
113.6445437002
 20
28.9243141411
 30
0.0
 10
113.2848315572
 20
29.544415904
 30
0.0
 10
113.2017355016
 20
30.0182146942
 30
0.0
 10
113.2017355016
 20
30.2535
 30
0.0
  0
SPLINE
  5
29D
100
AcDbEntity
  8
0
100
AcDbSpline
 62
7
  6
BYLAYER
 70
0
 71
3
 72
11
 73
7
 74
0
 42
0.0000001
 43
0.0000001
 44
0.0000000001
 40
0.0
 40
0.0
 40
0.0
 40
0.0
 40
0.2515916775
 40
0.5022004878
 40
0.7515393035
 40
1.0
 40
1.0
 40
1.0
 40
1.0
 10
157.5073150035
 20
30.2535
 30
0.0
 10
157.5073150035
 20
30.0181097959
 30
0.0
 10
157.4241601556
 20
29.5440977233
 30
0.0
 10
157.0640439003
 20
28.9237409432
 30
0.0
 10
156.5141819187
 20
28.4671800854
 30
0.0
 10
156.0625578991
 20
28.3115123969
 30
0.0
 10
155.8328029194
 20
28.2761472442
 30
0.0
  0
SPLINE
  5
29E
100
AcDbEntity
  8
0
100
AcDbSpline
 62
7
  6
BYLAYER
 70
0
 71
3
 72
14
 73
10
 74
0
 42
0.0000001
 43
0.0000001
 44
0.0000000001
 40
0.0
 40
0.0
 40
0.0
 40
0.0
 40
0.2261417758
 40
0.4728170665
 40
0.6016745389
 40
0.7331370166
 40
0.8665208063
 40
0.9337655705
 40
1.0
 40
1.0
 40
1.0
 40
1.0
 10
136.9200594637
 20
351.4035
 30
0.0
 10
136.7213024081
 20
351.4035
 30
0.0
 10
136.3067709973
 20
351.333165596
 30
0.0
 10
135.8046377005
 20
351.1665911411
 30
0.0
 10
135.3923955964
 20
350.9962133943
 30
0.0
 10
135.0799275478
 20
350.8490901143
 30
0.0
 10
134.8226145994
 20
350.7051137603
 30
0.0
 10
134.6367444075
 20
350.5691138743
 30
0.0
 10
134.5598620515
 20
350.4617137473
 30
0.0
 10
134.5598620515
 20
350.4035
 30
0.0
  0
ENDSEC
  0
SECTION
  2
OBJECTS
  0
DICTIONARY
  5
C
100
AcDbDictionary
280
0
281
1
  3
ACAD_GROUP
350
D
  3
ACAD_MLINESTYLE
350
17
  3
ACAD_LAYOUT
350
1A
  3
ACAD_PLOTSETTINGS
350
19
  3
ACAD_PLOTSTYLENAME
350
E
  0
DICTIONARY
  5
D
102
{ACAD_REACTORS
330
C
102
}
100
AcDbDictionary
280
0
281
1
  0
ACDBDICTIONARYWDFLT
  5
E
102
{ACAD_REACTORS
330
C
102
}
100
AcDbDictionary
281
1
  3
Normal
350
F
100
AcDbDictionaryWithDefault
340
F
  0
DICTIONARY
  5
17
102
{ACAD_REACTORS
330
C
102
}
100
AcDbDictionary
280
0
281
1
  3
Standard
350
18
  0
DICTIONARY
  5
19
102
{ACAD_REACTORS
330
C
102
}
100
AcDbDictionary
281
1
  0
DICTIONARY
  5
1A
102
{ACAD_REACTORS
330
C
102
}
100
AcDbDictionary
281
1
  3
Model
350
29F
  3
Layout1
350
2A0
  0
ACDBPLACEHOLDER
  5
F
102
{ACAD_REACTORS
330
E
102
}
  0
MLINESTYLE
  5
18
102
{ACAD_REACTORS
330
17
102
}
100
AcDbMlineStyle
  2
STANDARD
 70
0
  3

 62
256
 51
90.0
 52
90.0
 71
2
 49
0.5
 62
256
  6
BYLAYER
 49
-0.5
 62
256
  6
BYLAYER
  0
LAYOUT
  5
29F
102
{ACAD_REACTORS
330
1A
102
}
100
AcDbPlotSettings
  1

  2
none_device
  4

  6

 40
0.0
 41
0.0
 42
0.0
 43
0.0
 44
210.0
 45
297.0
 46
0.0
 47
0.0
 48
0.0
 49
0.0
140
0.0
141
0.0
142
1.0
143
1.0
 70
1024
 72
1
 73
0
 74
0
  7

 75
0
147
1.0
148
0.0
149
0.0
100
AcDbLayout
  1
Model
 70
0
 71
0
 10
0.0
 20
0.0
 11
210.0
 21
297.0
 12
0.0
 22
0.0
 32
0.0
 14
0.0
 24
0.0
 34
0.0
 15
0.0
 25
0.0
 35
0.0
146
0.0
 13
0.0
 23
0.0
 33
0.0
 16
1.0
 26
0.0
 36
0.0
 17
0.0
 27
1.0
 37
0.0
 76
0
330
210
345
0
346
0
  0
LAYOUT
  5
2A0
102
{ACAD_REACTORS
330
1A
102
}
100
AcDbPlotSettings
  1

  2
none_device
  4

  6

 40
0.0
 41
0.0
 42
0.0
 43
0.0
 44
210.0
 45
297.0
 46
0.0
 47
0.0
 48
0.0
 49
0.0
140
0.0
141
0.0
142
1.0
143
1.0
 70
0
 72
1
 73
0
 74
0
  7

 75
0
147
1.0
148
0.0
149
0.0
100
AcDbLayout
  1
Layout1
 70
0
 71
1
 10
0.0
 20
0.0
 11
210.0
 21
297.0
 12
0.0
 22
0.0
 32
0.0
 14
0.0
 24
0.0
 34
0.0
 15
0.0
 25
0.0
 35
0.0
146
0.0
 13
0.0
 23
0.0
 33
0.0
 16
1.0
 26
0.0
 36
0.0
 17
0.0
 27
1.0
 37
0.0
 76
0
330
211
345
0
346
0
  0
ENDSEC
  0
EOF
