999
DXF file: C:\Users\sesa63760\Dev\_Creo\CAD\MCADPD0005433_3D-CAD\drw0001_3.dxf
999
Pro/ENGINEER 2019471 by Parametric Technology Corporation
  0
SECTION
  2
HEADER
  9
$ACADVER
  1
AC1024
  9
$DWGCODEPAGE
  3
ANSI_1252
  9
$EXTMAX
 10
198.4194228596
 20
280.6217551871
 30
0.0
  9
$EXTMIN
 10
0.0
 20
0.0
 30
0.0
  9
$LIMMIN
 10
0.0
 20
0.0
  9
$LIMMAX
 10
198.4194228596
 20
280.6217551871
  9
$VIEWCTR
 10
99.2097114298
 20
140.3108775936
  9
$VIEWSIZE
 40
280.6217551871
  9
$CLAYER
  8
0
  9
$LTSCALE
 40
18.2923810789
  9
$CELTYPE
  6
BYLAYER
  9
$DIMSCALE
 40
1.0
  9
$DIMASZ
 40
2.3621359864
  9
$DIMEXO
 40
1.0
  9
$DIMDLI
 40
12.6383723818
  9
$DIMEXE
 40
1.0
  9
$DIMCEN
 40
2.993298722
  9
$DIMLFAC
 40
1.0
  9
$DIMBLK
  1
_FILLED
  9
$DIMALT
 70
0
  9
$DIMALTF
 40
0.0393700787
  9
$DIMTXT
 40
3.306990381
  9
$DIMTOL
 70
1
  9
$DIMLIM
 70
0
  9
$DIMTFAC
 40
1.0
  9
$DIMTP
 40
0.01
  9
$DIMTM
 40
0.01
  9
$DIMGAP
 40
0.625
  9
$DIMDSEP
 70
46
  9
$AUNITS
 70
0
  9
$PDMODE
 70
3
  9
$PDSIZE
 40
0.3125
  9
$HANDSEED
  5
2BB
  9
$TILEMODE
 70
1
  9
$MEASUREMENT
 70
1
  9
$INSUNITS
 70
4
  0
ENDSEC
  0
SECTION
  2
CLASSES
  0
CLASS
  1
ACDBDICTIONARYWDFLT
  2
AcDbDictionaryWithDefault
  3
AutoCAD 2000
 90
0
 91
1
280
0
281
0
  0
CLASS
  1
ACDBPLACEHOLDER
  2
AcDbPlaceHolder
  3
AutoCAD 2000
 90
0
 91
1
280
0
281
0
  0
CLASS
  1
LAYOUT
  2
AcDbLayout
  3
AutoCAD 2000
 90
0
 91
0
280
0
281
0
  0
ENDSEC
  0
SECTION
  2
TABLES
  0
TABLE
  2
VPORT
  5
8
100
AcDbSymbolTable
 70
2
  0
VPORT
  5
1F4
100
AcDbSymbolTableRecord
100
AcDbViewportTableRecord
  2
*ACTIVE
 70
0
 10
0.0
 20
0.0
 11
1.0
 21
1.0
 12
99.2097114298
 22
140.3108775936
 13
0.0
 23
0.0
 14
1.0
 24
1.0
 15
0.0
 25
0.0
 16
0.0
 26
0.0
 36
1.0
 17
0.0
 27
0.0
 37
0.0
 40
280.6217551871
 41
0.7070707071
 42
50.0
 43
0.0
 44
0.0
 50
0.0
 51
0.0
 71
0
 72
100
 73
1
 74
1
 75
0
 76
0
 77
0
 78
0
  0
ENDTAB
  0
TABLE
  2
LTYPE
  5
5
100
AcDbSymbolTable
 70
6
  0
LTYPE
  5
14
100
AcDbSymbolTableRecord
100
AcDbLinetypeTableRecord
  2
BYBLOCK
 70
0
  3

 72
65
 73
0
 40
0.0
  0
LTYPE
  5
15
100
AcDbSymbolTableRecord
100
AcDbLinetypeTableRecord
  2
BYLAYER
 70
0
  3

 72
65
 73
0
 40
0.0
  0
LTYPE
  5
16
100
AcDbSymbolTableRecord
100
AcDbLinetypeTableRecord
  2
CONTINUOUS
 70
64
  3
Solid line
 72
65
 73
0
 40
0.0
  0
LTYPE
  5
1F5
100
AcDbSymbolTableRecord
100
AcDbLinetypeTableRecord
  2
CENTER
 70
64
  3
____ _ ____ _ ____ _ ____ _ ____ _ ____ _ ____
 72
65
 73
4
 40
0.6
 49
0.375
 74
0
 49
-0.075
 74
0
 49
0.075
 74
0
 49
-0.075
 74
0
  0
LTYPE
  5
1F6
100
AcDbSymbolTableRecord
100
AcDbLinetypeTableRecord
  2
HIDDEN
 70
64
  3
- - - - - - - - - - - - - - - - - - - -
 72
65
 73
2
 40
0.2
 49
0.1
 74
0
 49
-0.1
 74
0
  0
LTYPE
  5
1F7
100
AcDbSymbolTableRecord
100
AcDbLinetypeTableRecord
  2
PHANTOM
 70
64
  3
_____ _ _ _____ _ _ _____ _ _ _____
 72
65
 73
6
 40
0.8
 49
0.45
 74
0
 49
-0.05
 74
0
 49
0.1
 74
0
 49
-0.05
 74
0
 49
0.1
 74
0
 49
-0.05
 74
0
  0
LTYPE
  5
1F8
100
AcDbSymbolTableRecord
100
AcDbLinetypeTableRecord
  2
DOT
 70
64
  3
. . . . . . . . . . . . . . . . . . . .
 72
65
 73
2
 40
0.2
 49
0.1
 74
0
 49
-0.1
 74
0
  0
LTYPE
  5
1F9
100
AcDbSymbolTableRecord
100
AcDbLinetypeTableRecord
  2
DASHED
 70
64
  3
- - - - - - - - - - - - - - - - - - - -
 72
65
 73
2
 40
0.2
 49
0.1
 74
0
 49
-0.1
 74
0
  0
ENDTAB
  0
TABLE
  2
LAYER
  5
2
100
AcDbSymbolTable
 70
36
  0
LAYER
  5
10
100
AcDbSymbolTableRecord
100
AcDbLayerTableRecord
  2
0
 70
0
 62
7
  6
CONTINUOUS
370
-3
390
F
  0
LAYER
  5
1FA
100
AcDbSymbolTableRecord
100
AcDbLayerTableRecord
  2
DEFAULT_1
 70
0
 62
7
  6
CENTER
370
-3
390
F
  0
LAYER
  5
1FB
100
AcDbSymbolTableRecord
100
AcDbLayerTableRecord
  2
DEFAULT_2
 70
0
 62
7
  6
HIDDEN
370
-3
390
F
  0
LAYER
  5
1FC
100
AcDbSymbolTableRecord
100
AcDbLayerTableRecord
  2
DEFAULT_3
 70
0
 62
7
  6
PHANTOM
370
-3
390
F
  0
LAYER
  5
1FD
100
AcDbSymbolTableRecord
100
AcDbLayerTableRecord
  2
00_COMPONENTS
 70
0
 62
7
  6
CONTINUOUS
370
-3
390
F
  0
LAYER
  5
1FE
100
AcDbSymbolTableRecord
100
AcDbLayerTableRecord
  2
01_1_DEFAULT_DATUMS
 70
0
 62
7
  6
CONTINUOUS
370
-3
390
F
  0
LAYER
  5
1FF
100
AcDbSymbolTableRecord
100
AcDbLayerTableRecord
  2
01_PLANES
 70
0
 62
7
  6
CONTINUOUS
370
-3
390
F
  0
LAYER
  5
200
100
AcDbSymbolTableRecord
100
AcDbLayerTableRecord
  2
02_COORD_SYS
 70
0
 62
7
  6
CONTINUOUS
370
-3
390
F
  0
LAYER
  5
201
100
AcDbSymbolTableRecord
100
AcDbLayerTableRecord
  2
03_AXES
 70
0
 62
7
  6
CONTINUOUS
370
-3
390
F
  0
LAYER
  5
202
100
AcDbSymbolTableRecord
100
AcDbLayerTableRecord
  2
04_POINTS
 70
0
 62
7
  6
CONTINUOUS
370
-3
390
F
  0
LAYER
  5
203
100
AcDbSymbolTableRecord
100
AcDbLayerTableRecord
  2
05_CURVES
 70
0
 62
7
  6
CONTINUOUS
370
-3
390
F
  0
LAYER
  5
204
100
AcDbSymbolTableRecord
100
AcDbLayerTableRecord
  2
06_SURFS
 70
0
 62
7
  6
CONTINUOUS
370
-3
390
F
  0
LAYER
  5
205
100
AcDbSymbolTableRecord
100
AcDbLayerTableRecord
  2
07_COSMETICS
 70
0
 62
7
  6
CONTINUOUS
370
-3
390
F
  0
LAYER
  5
206
100
AcDbSymbolTableRecord
100
AcDbLayerTableRecord
  2
10_NOTES
 70
0
 62
7
  6
CONTINUOUS
370
-3
390
F
  0
LAYER
  5
207
100
AcDbSymbolTableRecord
100
AcDbLayerTableRecord
  2
11_NOTES_PUB
 70
0
 62
7
  6
CONTINUOUS
370
-3
390
F
  0
LAYER
  5
208
100
AcDbSymbolTableRecord
100
AcDbLayerTableRecord
  2
13_REF_GTOL
 70
0
 62
7
  6
CONTINUOUS
370
-3
390
F
  0
LAYER
  5
209
100
AcDbSymbolTableRecord
100
AcDbLayerTableRecord
  2
16_MISC
 70
0
 62
7
  6
CONTINUOUS
370
-3
390
F
  0
LAYER
  5
20A
100
AcDbSymbolTableRecord
100
AcDbLayerTableRecord
  2
17_NO_PRINT
 70
0
 62
7
  6
CONTINUOUS
370
-3
390
F
  0
LAYER
  5
20B
100
AcDbSymbolTableRecord
100
AcDbLayerTableRecord
  2
18_DATUM_CAMS_JOINTS
 70
0
 62
7
  6
CONTINUOUS
370
-3
390
F
  0
LAYER
  5
20C
100
AcDbSymbolTableRecord
100
AcDbLayerTableRecord
  2
19_DATUM_FUNCTIONAL
 70
0
 62
7
  6
CONTINUOUS
370
-3
390
F
  0
LAYER
  5
20D
100
AcDbSymbolTableRecord
100
AcDbLayerTableRecord
  2
20_DATUM_KINEMATIC_SCHEME
 70
0
 62
7
  6
CONTINUOUS
370
-3
390
F
  0
ENDTAB
  0
TABLE
  2
STYLE
  5
3
100
AcDbSymbolTable
 70
1
  0
STYLE
  5
11
100
AcDbSymbolTableRecord
100
AcDbTextStyleTableRecord
  2
STANDARD
 70
0
 40
0.0
 41
1.0
 50
0.0
 71
0
 42
0.2
  3
ARIAL.TTF
  4

  0
STYLE
  5
20E
100
AcDbSymbolTableRecord
100
AcDbTextStyleTableRecord
  2
TEXTSTYLE_1
 70
0
 40
0.0
 41
0.8
 50
0.0
 71
0
 42
0.2
  3
gdt
  4

  0
ENDTAB
  0
TABLE
  2
VIEW
  5
6
100
AcDbSymbolTable
 70
0
  0
ENDTAB
  0
TABLE
  2
UCS
  5
7
100
AcDbSymbolTable
 70
0
  0
ENDTAB
  0
TABLE
  2
APPID
  5
9
100
AcDbSymbolTable
 70
1
  0
APPID
  5
20F
100
AcDbSymbolTableRecord
100
AcDbRegAppTableRecord
  2
ACAD
 70
0
  0
ENDTAB
  0
TABLE
  2
BLOCK_RECORD
  5
1
100
AcDbSymbolTable
 70
0
  0
BLOCK_RECORD
  5
210
100
AcDbSymbolTableRecord
100
AcDbBlockTableRecord
  2
*Model_Space
  0
BLOCK_RECORD
  5
211
100
AcDbSymbolTableRecord
100
AcDbBlockTableRecord
  2
*Paper_Space
  0
BLOCK_RECORD
  5
212
100
AcDbSymbolTableRecord
100
AcDbBlockTableRecord
  2
_FILLED
  0
ENDTAB
  0
TABLE
  2
DIMSTYLE
  5
A
100
AcDbSymbolTable
 70
1
100
AcDbDimStyleTable
 71
0
  0
DIMSTYLE
105
213
100
AcDbSymbolTableRecord
100
AcDbDimStyleTableRecord
  2
STANDARD
 70
0
  3

  4

 40
1.0
 41
2.3621359864
 42
1.0
 43
0.38
 44
1.0
 45
0.0
 46
0.0
 47
0.01
 48
0.01
140
3.306990381
141
0.09
142
0.0
143
25.4
144
1.0
145
0.0
146
1.0
147
0.625
 71
1
 72
0
 73
0
 74
0
 75
0
 76
0
 77
1
 78
8
 79
2
170
0
171
1
172
0
173
0
174
0
175
0
176
0
177
0
178
0
270
2
179
2
271
2
272
2
273
2
274
2
275
0
280
0
281
0
282
0
283
1
284
8
285
0
286
0
287
3
288
0
340
11
278
46
341
212
342
212
343
212
344
212
  0
ENDTAB
  0
ENDSEC
  0
SECTION
  2
BLOCKS
  0
BLOCK
  5
20
100
AcDbEntity
  8
0
100
AcDbBlockBegin
  2
*Model_Space
 70
0
 10
0.0
 20
0.0
 30
0.0
  3
*Model_Space
  1

  0
ENDBLK
  5
21
100
AcDbEntity
  8
0
100
AcDbBlockEnd
  0
BLOCK
  5
1C
100
AcDbEntity
  8
0
100
AcDbBlockBegin
  2
*Paper_Space
 70
0
 10
0.0
 20
0.0
 30
0.0
  3
*Paper_Space
  1

  0
ENDBLK
  5
1D
100
AcDbEntity
  8
0
100
AcDbBlockEnd
  0
BLOCK
  5
214
100
AcDbEntity
  8
0
100
AcDbBlockBegin
  2
_FILLED
 70
64
 10
0.0
 20
0.0
  3
_FILLED
  1

  0
SOLID
  5
215
100
AcDbEntity
  8
0
  6
BYBLOCK
 62
0
100
AcDbTrace
 10
0.0
 20
0.0
 11
-1.0
 21
0.25
 12
-1.0
 22
-0.25
 13
-1.0
 23
-0.25
  0
ENDBLK
  5
216
100
AcDbEntity
  8
0
  6
BYBLOCK
 62
0
100
AcDbBlockEnd
  0
ENDSEC
  0
SECTION
  2
ENTITIES
  0
LINE
  5
217
100
AcDbEntity
  8
0
100
AcDbLine
 62
7
  6
BYLAYER
 10
104.457537674
 20
22.4978273742
 11
99.457537674
 21
22.4978273742
  0
LINE
  5
218
100
AcDbEntity
  8
0
100
AcDbLine
 62
7
  6
BYLAYER
 10
104.957537674
 20
22.9978273742
 11
98.957537674
 21
22.9978273742
  0
LINE
  5
219
100
AcDbEntity
  8
0
100
AcDbLine
 62
7
  6
BYLAYER
 10
94.107537674
 20
37.1978273742
 11
95.457537674
 21
37.1978273742
  0
LINE
  5
21A
100
AcDbEntity
  8
0
100
AcDbLine
 62
7
  6
BYLAYER
 10
108.457537674
 20
37.1978273742
 11
109.807537674
 21
37.1978273742
  0
LINE
  5
21B
100
AcDbEntity
  8
0
100
AcDbLine
 62
7
  6
BYLAYER
 10
104.957537674
 20
37.4978273742
 11
98.957537674
 21
37.4978273742
  0
LINE
  5
21C
100
AcDbEntity
  8
0
100
AcDbLine
 62
7
  6
BYLAYER
 10
110.807537674
 20
38.1978273742
 11
108.457537674
 21
38.1978273742
  0
LINE
  5
21D
100
AcDbEntity
  8
0
100
AcDbLine
 62
7
  6
BYLAYER
 10
95.457537674
 20
38.1978273742
 11
93.107537674
 21
38.1978273742
  0
LINE
  5
21E
100
AcDbEntity
  8
0
100
AcDbLine
 62
7
  6
BYLAYER
 10
95.457537674
 20
38.2978273742
 11
108.457537674
 21
38.2978273742
  0
LINE
  5
21F
100
AcDbEntity
  8
0
100
AcDbLine
 62
7
  6
BYLAYER
 10
106.2474240361
 20
39.3978273742
 11
97.6676513118
 21
39.3978273742
  0
LINE
  5
220
100
AcDbEntity
  8
0
100
AcDbLine
 62
7
  6
BYLAYER
 10
110.907537674
 20
40.9978273742
 11
110.207537674
 21
40.9978273742
  0
LINE
  5
221
100
AcDbEntity
  8
0
100
AcDbLine
 62
7
  6
BYLAYER
 10
93.707537674
 20
40.9978273742
 11
93.007537674
 21
40.9978273742
  0
LINE
  5
222
100
AcDbEntity
  8
0
100
AcDbLine
 62
7
  6
BYLAYER
 10
92.3325857587
 20
44.1978273742
 11
93.007537674
 21
44.1978273742
  0
LINE
  5
223
100
AcDbEntity
  8
0
100
AcDbLine
 62
7
  6
BYLAYER
 10
93.7575107042
 20
44.1978273742
 11
96.9176782817
 21
44.1978273742
  0
LINE
  5
224
100
AcDbEntity
  8
0
100
AcDbLine
 62
7
  6
BYLAYER
 10
98.4166161837
 20
44.1978273742
 11
105.4984591642
 21
44.1978273742
  0
LINE
  5
225
100
AcDbEntity
  8
0
100
AcDbLine
 62
7
  6
BYLAYER
 10
106.9973970663
 20
44.1978273742
 11
110.1575646438
 21
44.1978273742
  0
LINE
  5
226
100
AcDbEntity
  8
0
100
AcDbLine
 62
7
  6
BYLAYER
 10
110.907537674
 20
44.1978273742
 11
111.5824895893
 21
44.1978273742
  0
LINE
  5
227
100
AcDbEntity
  8
0
100
AcDbLine
 62
7
  6
BYLAYER
 10
92.032537674
 20
44.4978273742
 11
111.882537674
 21
44.4978273742
  0
LINE
  5
228
100
AcDbEntity
  8
0
100
AcDbLine
 62
7
  6
BYLAYER
 10
82.957537674
 20
46.1978273742
 11
120.957537674
 21
46.1978273742
  0
LINE
  5
229
100
AcDbEntity
  8
0
100
AcDbLine
 62
7
  6
BYLAYER
 10
120.957537674
 20
47.1978273742
 11
82.957537674
 21
47.1978273742
  0
LINE
  5
22A
100
AcDbEntity
  8
0
100
AcDbLine
 62
7
  6
BYLAYER
 10
106.907537674
 20
47.5978273742
 11
97.007537674
 21
47.5978273742
  0
LINE
  5
22B
100
AcDbEntity
  8
0
100
AcDbLine
 62
7
  6
BYLAYER
 10
96.207537674
 20
47.9978273742
 11
107.707537674
 21
47.9978273742
  0
LINE
  5
22C
100
AcDbEntity
  8
0
100
AcDbLine
 62
7
  6
BYLAYER
 10
95.707537674
 20
48.4978273742
 11
108.207537674
 21
48.4978273742
  0
LINE
  5
22D
100
AcDbEntity
  8
0
100
AcDbLine
 62
7
  6
BYLAYER
 10
108.207537674
 20
49.2978273742
 11
95.707537674
 21
49.2978273742
  0
LINE
  5
22E
100
AcDbEntity
  8
0
100
AcDbLine
 62
7
  6
BYLAYER
 10
82.957537674
 20
49.7978273742
 11
120.957537674
 21
49.7978273742
  0
LINE
  5
22F
100
AcDbEntity
  8
0
100
AcDbLine
 62
7
  6
BYLAYER
 10
120.957537674
 20
50.7978273742
 11
82.957537674
 21
50.7978273742
  0
LINE
  5
230
100
AcDbEntity
  8
0
100
AcDbLine
 62
7
  6
BYLAYER
 10
98.957537674
 20
22.9978273742
 11
99.457537674
 21
22.4978273742
  0
LINE
  5
231
100
AcDbEntity
  8
0
100
AcDbLine
 62
7
  6
BYLAYER
 10
93.007537674
 20
38.2978273742
 11
94.107537674
 21
37.1978273742
  0
LINE
  5
232
100
AcDbEntity
  8
0
100
AcDbLine
 62
7
  6
BYLAYER
 10
91.6501948126
 20
259.362402525
 11
91.3816702272
 21
258.9541301595
  0
LINE
  5
233
100
AcDbEntity
  8
0
100
AcDbLine
 62
7
  6
BYLAYER
 10
100.207537674
 20
242.4978273742
 11
99.757537674
 21
242.0478273742
  0
LINE
  5
234
100
AcDbEntity
  8
0
100
AcDbLine
 62
7
  6
BYLAYER
 10
91.0471508634
 20
258.3910043013
 11
90.8002357889
 21
257.9267313217
  0
LINE
  5
235
100
AcDbEntity
  8
0
100
AcDbLine
 62
7
  6
BYLAYER
 10
91.3855297502
 20
258.9602518833
 11
91.0436673815
 21
258.3847698655
  0
LINE
  5
236
100
AcDbEntity
  8
0
100
AcDbLine
 62
7
  6
BYLAYER
 10
107.3474240361
 20
38.2978273742
 11
106.2474240361
 21
39.3978273742
  0
LINE
  5
237
100
AcDbEntity
  8
0
100
AcDbLine
 62
7
  6
BYLAYER
 10
90.792173171
 20
257.8928244901
 11
90.8002353866
 21
257.9267378282
  0
LINE
  5
238
100
AcDbEntity
  8
0
100
AcDbLine
 62
7
  6
BYLAYER
 10
109.9575304572
 20
239.6978444109
 11
109.9575063519
 21
239.6977925427
  0
LINE
  5
239
100
AcDbEntity
  8
0
100
AcDbLine
 62
7
  6
BYLAYER
 10
113.914037969
 20
257.7907206245
 11
113.9357779518
 21
257.8529663772
  0
LINE
  5
23A
100
AcDbEntity
  8
0
100
AcDbLine
 62
7
  6
BYLAYER
 10
109.9575304572
 20
229.6978444109
 11
109.9575063519
 21
229.6977925427
  0
LINE
  5
23B
100
AcDbEntity
  8
0
100
AcDbLine
 62
7
  6
BYLAYER
 10
109.9575304572
 20
219.6978444109
 11
109.9575063519
 21
219.6977925427
  0
LINE
  5
23C
100
AcDbEntity
  8
0
100
AcDbLine
 62
7
  6
BYLAYER
 10
82.957537674
 20
46.1978273742
 11
82.957537674
 21
47.1978273742
  0
LINE
  5
23D
100
AcDbEntity
  8
0
100
AcDbLine
 62
7
  6
BYLAYER
 10
82.957537674
 20
49.7978273742
 11
82.957537674
 21
50.7978273742
  0
LINE
  5
23E
100
AcDbEntity
  8
0
100
AcDbLine
 62
7
  6
BYLAYER
 10
109.9575304572
 20
209.6978444109
 11
109.9575063519
 21
209.6977925427
  0
LINE
  5
23F
100
AcDbEntity
  8
0
100
AcDbLine
 62
7
  6
BYLAYER
 10
90.7921731701
 20
255.4978273742
 11
90.7921731701
 21
257.8928985799
  0
LINE
  5
240
100
AcDbEntity
  8
0
100
AcDbLine
 62
7
  6
BYLAYER
 10
90.8477829825
 20
257.7907206722
 11
90.8477829825
 21
255.4978273742
  0
LINE
  5
241
100
AcDbEntity
  8
0
100
AcDbLine
 62
7
  6
BYLAYER
 10
92.032537674
 20
46.1978273742
 11
92.032537674
 21
44.4978273742
  0
LINE
  5
242
100
AcDbEntity
  8
0
100
AcDbLine
 62
7
  6
BYLAYER
 10
93.007537674
 20
44.4978273859
 11
93.007537674
 21
44.1978273742
  0
LINE
  5
243
100
AcDbEntity
  8
0
100
AcDbLine
 62
7
  6
BYLAYER
 10
93.007537674
 20
40.9978273742
 11
93.007537674
 21
38.2978273742
  0
LINE
  5
244
100
AcDbEntity
  8
0
100
AcDbLine
 62
7
  6
BYLAYER
 10
93.957537674
 20
255.4978273742
 11
93.957537674
 21
234.697827135
  0
LINE
  5
245
100
AcDbEntity
  8
0
100
AcDbLine
 62
7
  6
BYLAYER
 10
93.957537674
 20
231.297827612
 11
93.957537674
 21
224.697827135
  0
LINE
  5
246
100
AcDbEntity
  8
0
100
AcDbLine
 62
7
  6
BYLAYER
 10
93.957537674
 20
221.297827612
 11
93.957537674
 21
214.697827135
  0
LINE
  5
247
100
AcDbEntity
  8
0
100
AcDbLine
 62
7
  6
BYLAYER
 10
93.957537674
 20
211.297827612
 11
93.957537674
 21
204.697827135
  0
LINE
  5
248
100
AcDbEntity
  8
0
100
AcDbLine
 62
7
  6
BYLAYER
 10
93.957537674
 20
201.297827612
 11
93.957537674
 21
198.9978273742
  0
LINE
  5
249
100
AcDbEntity
  8
0
100
AcDbLine
 62
7
  6
BYLAYER
 10
94.507537674
 20
41.7978273742
 11
94.507537674
 21
44.1978273742
  0
LINE
  5
24A
100
AcDbEntity
  8
0
100
AcDbLine
 62
7
  6
BYLAYER
 10
94.5413391869
 20
251.4978273742
 11
94.5413391869
 21
198.9978273742
  0
LINE
  5
24B
100
AcDbEntity
  8
0
100
AcDbLine
 62
7
  6
BYLAYER
 10
109.957537674
 20
239.697827376
 11
109.9575306357
 21
239.6977900149
  0
LINE
  5
24C
100
AcDbEntity
  8
0
100
AcDbLine
 62
7
  6
BYLAYER
 10
109.957537674
 20
229.697827376
 11
109.9575306357
 21
229.6977900149
  0
LINE
  5
24D
100
AcDbEntity
  8
0
100
AcDbLine
 62
7
  6
BYLAYER
 10
109.9575306357
 20
239.6977900149
 11
109.9568596012
 21
239.6948167939
  0
LINE
  5
24E
100
AcDbEntity
  8
0
100
AcDbLine
 62
7
  6
BYLAYER
 10
109.9575306357
 20
229.6977900149
 11
109.9568596012
 21
229.6948167938
  0
LINE
  5
24F
100
AcDbEntity
  8
0
100
AcDbLine
 62
7
  6
BYLAYER
 10
109.9575306357
 20
219.6977900149
 11
109.9568596012
 21
219.6948167939
  0
LINE
  5
250
100
AcDbEntity
  8
0
100
AcDbLine
 62
7
  6
BYLAYER
 10
109.9575306357
 20
209.6977900149
 11
109.9568596012
 21
209.6948167938
  0
LINE
  5
251
100
AcDbEntity
  8
0
100
AcDbLine
 62
7
  6
BYLAYER
 10
95.3431593963
 20
198.9978273742
 11
95.3431593963
 21
251.4978273742
  0
LINE
  5
252
100
AcDbEntity
  8
0
100
AcDbLine
 62
7
  6
BYLAYER
 10
95.457537674
 20
38.2978273742
 11
95.457537674
 21
37.1978273742
  0
LINE
  5
253
100
AcDbEntity
  8
0
100
AcDbLine
 62
7
  6
BYLAYER
 10
95.707537674
 20
48.4978273742
 11
95.707537674
 21
49.2978273742
  0
LINE
  5
254
100
AcDbEntity
  8
0
100
AcDbLine
 62
7
  6
BYLAYER
 10
96.5833553234
 20
198.9978273742
 11
96.5833553234
 21
251.4978273742
  0
LINE
  5
255
100
AcDbEntity
  8
0
100
AcDbLine
 62
7
  6
BYLAYER
 10
97.007537674
 20
47.5978273742
 11
97.007537674
 21
47.1978273742
  0
LINE
  5
256
100
AcDbEntity
  8
0
100
AcDbLine
 62
7
  6
BYLAYER
 10
97.6676513118
 20
44.4978273888
 11
97.6676513118
 21
39.3978273742
  0
LINE
  5
257
100
AcDbEntity
  8
0
100
AcDbLine
 62
7
  6
BYLAYER
 10
97.707537674
 20
49.7978273742
 11
97.7075376723
 21
47.9978273742
  0
LINE
  5
258
100
AcDbEntity
  8
0
100
AcDbLine
 62
7
  6
BYLAYER
 10
98.057537674
 20
198.9978273742
 11
98.057537674
 21
251.4978273742
  0
LINE
  5
259
100
AcDbEntity
  8
0
100
AcDbLine
 62
7
  6
BYLAYER
 10
98.957537674
 20
251.4978273742
 11
98.957537674
 21
50.7978273742
  0
LINE
  5
25A
100
AcDbEntity
  8
0
100
AcDbLine
 62
7
  6
BYLAYER
 10
98.957537674
 20
37.4978273742
 11
98.957537674
 21
22.9978273742
  0
LINE
  5
25B
100
AcDbEntity
  8
0
100
AcDbLine
 62
7
  6
BYLAYER
 10
99.457537674
 20
38.2978273742
 11
99.457537674
 21
37.4978273742
  0
LINE
  5
25C
100
AcDbEntity
  8
0
100
AcDbLine
 62
7
  6
BYLAYER
 10
99.757537674
 20
242.0478273742
 11
99.757537674
 21
251.4978273742
  0
LINE
  5
25D
100
AcDbEntity
  8
0
100
AcDbLine
 62
7
  6
BYLAYER
 10
100.207537674
 20
242.4978273742
 11
100.207537674
 21
251.4978273742
  0
LINE
  5
25E
100
AcDbEntity
  8
0
100
AcDbLine
 62
7
  6
BYLAYER
 10
109.957537674
 20
219.697827376
 11
109.9575306357
 21
219.6977900149
  0
LINE
  5
25F
100
AcDbEntity
  8
0
100
AcDbLine
 62
7
  6
BYLAYER
 10
109.957537674
 20
209.697827376
 11
109.9575306357
 21
209.6977900149
  0
LINE
  5
260
100
AcDbEntity
  8
0
100
AcDbLine
 62
7
  6
BYLAYER
 10
103.707537674
 20
242.4978273742
 11
103.707537674
 21
251.4978273742
  0
LINE
  5
261
100
AcDbEntity
  8
0
100
AcDbLine
 62
7
  6
BYLAYER
 10
104.157537674
 20
242.0478273742
 11
104.157537674
 21
251.4978273742
  0
LINE
  5
262
100
AcDbEntity
  8
0
100
AcDbLine
 62
7
  6
BYLAYER
 10
104.457537674
 20
38.2978273742
 11
104.457537674
 21
37.4978273742
  0
LINE
  5
263
100
AcDbEntity
  8
0
100
AcDbLine
 62
7
  6
BYLAYER
 10
104.957537674
 20
37.4978273742
 11
104.957537674
 21
22.9978273742
  0
LINE
  5
264
100
AcDbEntity
  8
0
100
AcDbLine
 62
7
  6
BYLAYER
 10
104.957537674
 20
50.7978273742
 11
104.957537674
 21
251.4978273742
  0
LINE
  5
265
100
AcDbEntity
  8
0
100
AcDbLine
 62
7
  6
BYLAYER
 10
105.8575563557
 20
198.9978273742
 11
105.8575563557
 21
251.4978273742
  0
LINE
  5
266
100
AcDbEntity
  8
0
100
AcDbLine
 62
7
  6
BYLAYER
 10
106.207537674
 20
47.9978273742
 11
106.207537674
 21
49.7978273742
  0
LINE
  5
267
100
AcDbEntity
  8
0
100
AcDbLine
 62
7
  6
BYLAYER
 10
106.2474240361
 20
44.4978273885
 11
106.2474240361
 21
39.3978273742
  0
LINE
  5
268
100
AcDbEntity
  8
0
100
AcDbLine
 62
7
  6
BYLAYER
 10
106.907537674
 20
47.5978273742
 11
106.907537674
 21
47.1978273742
  0
LINE
  5
269
100
AcDbEntity
  8
0
100
AcDbLine
 62
7
  6
BYLAYER
 10
107.3317200246
 20
198.9978273742
 11
107.3317200246
 21
251.4978273742
  0
LINE
  5
26A
100
AcDbEntity
  8
0
100
AcDbLine
 62
7
  6
BYLAYER
 10
108.207537674
 20
49.2978273742
 11
108.207537674
 21
48.4978273742
  0
LINE
  5
26B
100
AcDbEntity
  8
0
100
AcDbLine
 62
7
  6
BYLAYER
 10
108.457537674
 20
38.2978273742
 11
108.457537674
 21
37.1978273742
  0
LINE
  5
26C
100
AcDbEntity
  8
0
100
AcDbLine
 62
7
  6
BYLAYER
 10
108.5719159516
 20
251.4978273742
 11
108.5719159516
 21
198.9978273742
  0
LINE
  5
26D
100
AcDbEntity
  8
0
100
AcDbLine
 62
7
  6
BYLAYER
 10
109.3737361611
 20
198.9978273742
 11
109.3737361611
 21
251.4978273742
  0
LINE
  5
26E
100
AcDbEntity
  8
0
100
AcDbLine
 62
7
  6
BYLAYER
 10
109.407537674
 20
41.7978273742
 11
109.407537674
 21
44.1978273742
  0
LINE
  5
26F
100
AcDbEntity
  8
0
100
AcDbLine
 62
7
  6
BYLAYER
 10
109.957537674
 20
255.4978273742
 11
109.957537674
 21
239.6978273742
  0
LINE
  5
270
100
AcDbEntity
  8
0
100
AcDbLine
 62
7
  6
BYLAYER
 10
109.957537674
 20
236.2978273742
 11
109.957537674
 21
229.6978273742
  0
LINE
  5
271
100
AcDbEntity
  8
0
100
AcDbLine
 62
7
  6
BYLAYER
 10
109.957537674
 20
226.2978273742
 11
109.957537674
 21
219.6978273742
  0
LINE
  5
272
100
AcDbEntity
  8
0
100
AcDbLine
 62
7
  6
BYLAYER
 10
109.957537674
 20
216.2978273742
 11
109.957537674
 21
209.6978273742
  0
LINE
  5
273
100
AcDbEntity
  8
0
100
AcDbLine
 62
7
  6
BYLAYER
 10
109.957537674
 20
206.2978273742
 11
109.957537674
 21
198.9978273742
  0
LINE
  5
274
100
AcDbEntity
  8
0
100
AcDbLine
 62
7
  6
BYLAYER
 10
110.907537674
 20
40.9978273742
 11
110.907537674
 21
38.2978273742
  0
LINE
  5
275
100
AcDbEntity
  8
0
100
AcDbLine
 62
7
  6
BYLAYER
 10
110.907537674
 20
44.1978273742
 11
110.907537674
 21
44.4978273882
  0
LINE
  5
276
100
AcDbEntity
  8
0
100
AcDbLine
 62
7
  6
BYLAYER
 10
93.957537674
 20
204.6978270672
 11
93.9660813368
 21
204.6621612488
  0
LINE
  5
277
100
AcDbEntity
  8
0
100
AcDbLine
 62
7
  6
BYLAYER
 10
93.957537674
 20
204.6978270672
 11
93.9783726945
 21
204.6054199584
  0
LINE
  5
278
100
AcDbEntity
  8
0
100
AcDbLine
 62
7
  6
BYLAYER
 10
93.957537674
 20
214.6978270672
 11
93.9783726945
 21
214.6054199584
  0
LINE
  5
279
100
AcDbEntity
  8
0
100
AcDbLine
 62
7
  6
BYLAYER
 10
111.882537674
 20
46.1978273742
 11
111.882537674
 21
44.4978273742
  0
LINE
  5
27A
100
AcDbEntity
  8
0
100
AcDbLine
 62
7
  6
BYLAYER
 10
113.914037969
 20
255.4978273742
 11
113.914037969
 21
257.7907206245
  0
LINE
  5
27B
100
AcDbEntity
  8
0
100
AcDbLine
 62
7
  6
BYLAYER
 10
113.9357779572
 20
257.8531516718
 11
113.9357779572
 21
255.4978273742
  0
LINE
  5
27C
100
AcDbEntity
  8
0
100
AcDbLine
 62
7
  6
BYLAYER
 10
93.957537674
 20
214.6978270672
 11
93.9660813368
 21
214.6621612488
  0
LINE
  5
27D
100
AcDbEntity
  8
0
100
AcDbLine
 62
7
  6
BYLAYER
 10
93.957537674
 20
224.6978270672
 11
93.9660813368
 21
224.6621612488
  0
LINE
  5
27E
100
AcDbEntity
  8
0
100
AcDbLine
 62
7
  6
BYLAYER
 10
93.957537674
 20
234.6978270672
 11
93.9660813368
 21
234.6621612488
  0
LINE
  5
27F
100
AcDbEntity
  8
0
100
AcDbLine
 62
7
  6
BYLAYER
 10
93.957537674
 20
224.6978270672
 11
93.9783726945
 21
224.6054199584
  0
LINE
  5
280
100
AcDbEntity
  8
0
100
AcDbLine
 62
7
  6
BYLAYER
 10
93.957537674
 20
234.6978270672
 11
93.9783726945
 21
234.6054199584
  0
LINE
  5
281
100
AcDbEntity
  8
0
100
AcDbLine
 62
7
  6
BYLAYER
 10
120.957537674
 20
46.1978273742
 11
120.957537674
 21
47.1978273742
  0
LINE
  5
282
100
AcDbEntity
  8
0
100
AcDbLine
 62
7
  6
BYLAYER
 10
120.957537674
 20
49.7978273742
 11
120.957537674
 21
50.7978273742
  0
LINE
  5
283
100
AcDbEntity
  8
0
100
AcDbLine
 62
7
  6
BYLAYER
 10
109.9569525564
 20
206.3004254058
 11
109.957537674
 21
206.2978273734
  0
LINE
  5
284
100
AcDbEntity
  8
0
100
AcDbLine
 62
7
  6
BYLAYER
 10
109.9569525564
 20
216.3004254058
 11
109.957537674
 21
216.2978273734
  0
LINE
  5
285
100
AcDbEntity
  8
0
100
AcDbLine
 62
7
  6
BYLAYER
 10
113.4556835427
 20
258.9978351852
 11
113.4249217656
 21
259.2655783734
  0
LINE
  5
286
100
AcDbEntity
  8
0
100
AcDbLine
 62
7
  6
BYLAYER
 10
109.9569525564
 20
226.3004254058
 11
109.957537674
 21
226.2978273734
  0
LINE
  5
287
100
AcDbEntity
  8
0
100
AcDbLine
 62
7
  6
BYLAYER
 10
109.9569525564
 20
236.3004254058
 11
109.957537674
 21
236.2978273734
  0
LINE
  5
288
100
AcDbEntity
  8
0
100
AcDbLine
 62
7
  6
BYLAYER
 10
113.9357779518
 20
257.8529663772
 11
113.9323936179
 21
257.875695248
  0
LINE
  5
289
100
AcDbEntity
  8
0
100
AcDbLine
 62
7
  6
BYLAYER
 10
90.8477829825
 20
257.7907206722
 11
90.792173171
 21
257.8928244901
  0
LINE
  5
28A
100
AcDbEntity
  8
0
100
AcDbLine
 62
7
  6
BYLAYER
 10
93.957537674
 20
198.9978273742
 11
109.957537674
 21
198.9978273742
  0
LINE
  5
28B
100
AcDbEntity
  8
0
100
AcDbLine
 62
7
  6
BYLAYER
 10
96.5676513118
 20
38.2978273742
 11
97.6676513118
 21
39.3978273742
  0
LINE
  5
28C
100
AcDbEntity
  8
0
100
AcDbLine
 62
7
  6
BYLAYER
 10
103.707537674
 20
242.4978273742
 11
104.157537674
 21
242.0478273742
  0
LINE
  5
28D
100
AcDbEntity
  8
0
100
AcDbLine
 62
7
  6
BYLAYER
 10
109.807537674
 20
37.1978273742
 11
110.907537674
 21
38.2978273742
  0
LINE
  5
28E
100
AcDbEntity
  8
0
100
AcDbLine
 62
7
  6
BYLAYER
 10
104.957537674
 20
22.9978273742
 11
104.457537674
 21
22.4978273742
  0
LINE
  5
28F
100
AcDbEntity
  8
0
100
AcDbLine
 62
7
  6
BYLAYER
 10
99.757537674
 20
242.0478273742
 11
104.157537674
 21
242.0478273742
  0
LINE
  5
290
100
AcDbEntity
  8
0
100
AcDbLine
 62
7
  6
BYLAYER
 10
103.707537674
 20
242.4978273742
 11
100.207537674
 21
242.4978273742
  0
LINE
  5
291
100
AcDbEntity
  8
0
100
AcDbLine
 62
7
  6
BYLAYER
 10
94.5413391869
 20
251.4978273742
 11
109.3737361611
 21
251.4978273742
  0
LINE
  5
292
100
AcDbEntity
  8
0
100
AcDbLine
 62
7
  6
BYLAYER
 10
90.7923004423
 20
255.4978273742
 11
113.9357689731
 21
255.4978273742
  0
LINE
  5
293
100
AcDbEntity
  8
0
100
AcDbLine
 62
7
  6
BYLAYER
 10
113.4557295506
 20
258.9978273742
 11
91.5923209971
 21
258.9978273742
  0
LINE
  5
294
100
AcDbEntity
  8
0
100
AcDbLine
 62
7
  6
BYLAYER
 10
113.0706869441
 20
259.4978273742
 11
91.9075475781
 21
259.4978273742
  0
ARC
  5
295
100
AcDbEntity
  8
0
100
AcDbCircle
 62
7
  6
BYLAYER
 10
101.9657190813
 20
254.2928184394
 40
12.4916638541
100
AcDbArc
 50
16.6697085876
 51
23.458451182
  0
ARC
  5
296
100
AcDbEntity
  8
0
100
AcDbCircle
 62
7
  6
BYLAYER
 10
101.3844961515
 20
252.1306521917
 40
11.9606999783
100
AcDbArc
 50
151.3023684057
 51
151.7565117105
  0
ARC
  5
297
100
AcDbEntity
  8
0
100
AcDbCircle
 62
7
  6
BYLAYER
 10
101.3538595718
 20
252.1436866814
 40
11.9275680666
100
AcDbArc
 50
144.9250878789
 51
151.286622624
  0
ARC
  5
298
100
AcDbEntity
  8
0
100
AcDbCircle
 62
7
  6
BYLAYER
 10
102.7724624419
 20
254.2510157503
 40
11.6903557135
100
AcDbArc
 50
17.9918032941
 51
23.9566349116
  0
ARC
  5
299
100
AcDbEntity
  8
0
100
AcDbCircle
 62
7
  6
BYLAYER
 10
102.8752513032
 20
254.2852995248
 40
11.5820035816
100
AcDbArc
 50
17.6175148336
 51
17.9875597719
  0
ARC
  5
29A
100
AcDbEntity
  8
0
100
AcDbCircle
 62
7
  6
BYLAYER
 10
93.707537674
 20
41.7978273742
 40
0.8
100
AcDbArc
 50
270.0
 51
360.0
  0
ARC
  5
29B
100
AcDbEntity
  8
0
100
AcDbCircle
 62
7
  6
BYLAYER
 10
110.207537674
 20
41.7978273742
 40
0.8
100
AcDbArc
 50
180.0
 51
270.0
  0
ARC
  5
29C
100
AcDbEntity
  8
0
100
AcDbCircle
 62
7
  6
BYLAYER
 10
95.207537674
 20
49.2978273742
 40
0.5
100
AcDbArc
 50
0.0
 51
90.0
  0
ARC
  5
29D
100
AcDbEntity
  8
0
100
AcDbCircle
 62
7
  6
BYLAYER
 10
108.707537674
 20
49.2978273742
 40
0.5
100
AcDbArc
 50
90.0
 51
180.0
  0
ARC
  5
29E
100
AcDbEntity
  8
0
100
AcDbCircle
 62
7
  6
BYLAYER
 10
107.707537674
 20
48.4978273742
 40
0.5
100
AcDbArc
 50
270.0
 51
360.0
  0
ARC
  5
29F
100
AcDbEntity
  8
0
100
AcDbCircle
 62
7
  6
BYLAYER
 10
96.207537674
 20
48.4978273742
 40
0.5
100
AcDbArc
 50
180.0
 51
270.0
  0
ARC
  5
2A0
100
AcDbEntity
  8
0
100
AcDbCircle
 62
7
  6
BYLAYER
 10
106.507537674
 20
47.5978273742
 40
0.4
100
AcDbArc
 50
0.0
 51
90.000000874
  0
ARC
  5
2A1
100
AcDbEntity
  8
0
100
AcDbCircle
 62
7
  6
BYLAYER
 10
97.407537674
 20
47.5978273742
 40
0.4
100
AcDbArc
 50
89.999999126
 51
180.0
  0
ARC
  5
2A2
100
AcDbEntity
  8
0
100
AcDbCircle
 62
7
  6
BYLAYER
 10
92.332537674
 20
44.4978273742
 40
0.3
100
AcDbArc
 50
180.0
 51
270.0
  0
ARC
  5
2A3
100
AcDbEntity
  8
0
100
AcDbCircle
 62
7
  6
BYLAYER
 10
111.582537674
 20
44.4978273742
 40
0.3
100
AcDbArc
 50
270.0
 51
360.0
  0
SPLINE
  5
2A4
100
AcDbEntity
  8
0
100
AcDbSpline
 62
7
  6
BYLAYER
 70
0
 71
3
 72
16
 73
12
 74
0
 42
0.0000001
 43
0.0000001
 44
0.0000000001
 40
0.0
 40
0.0
 40
0.0
 40
0.0
 40
0.2361644945
 40
0.3546289554
 40
0.473730183
 40
0.594129593
 40
0.7173081786
 40
0.7811242435
 40
0.8478183721
 40
0.9198761611
 40
1.0
 40
1.0
 40
1.0
 40
1.0
 10
110.1575646438
 20
44.1978273742
 30
0.0
 10
110.2259606045
 20
44.1978273742
 30
0.0
 10
110.3287869782
 20
44.2015339862
 30
0.0
 10
110.4651129306
 20
44.2175883267
 30
0.0
 10
110.5671051921
 20
44.2368055739
 30
0.0
 10
110.6682783297
 20
44.265607074
 30
0.0
 10
110.7504924737
 20
44.3009572632
 30
0.0
 10
110.8128114555
 20
44.3402049738
 30
0.0
 10
110.8574994353
 20
44.37867807
 30
0.0
 10
110.8957826594
 20
44.4301430582
 30
0.0
 10
110.9075376739
 20
44.4746226006
 30
0.0
 10
110.9075376739
 20
44.4978273882
 30
0.0
  0
SPLINE
  5
2A5
100
AcDbEntity
  8
0
100
AcDbSpline
 62
7
  6
BYLAYER
 70
0
 71
3
 72
16
 73
12
 74
0
 42
0.0000001
 43
0.0000001
 44
0.0000000001
 40
0.0
 40
0.0
 40
0.0
 40
0.0
 40
0.2361645071
 40
0.3546289746
 40
0.4737302077
 40
0.5941296225
 40
0.7173082117
 40
0.7811242766
 40
0.8478184029
 40
0.9198761376
 40
1.0
 40
1.0
 40
1.0
 40
1.0
 10
93.7575107042
 20
44.1978273742
 30
0.0
 10
93.6891147402
 20
44.1978273742
 30
0.0
 10
93.5862883616
 20
44.2015339884
 30
0.0
 10
93.4499624025
 20
44.2175883263
 30
0.0
 10
93.3479701375
 20
44.2368055792
 30
0.0
 10
93.246796998
 20
44.2656070845
 30
0.0
 10
93.1645828523
 20
44.3009572746
 30
0.0
 10
93.1022638709
 20
44.3402049859
 30
0.0
 10
93.0575759089
 20
44.3786780787
 30
0.0
 10
93.0192926992
 20
44.4301430606
 30
0.0
 10
93.0075376739
 20
44.4746225916
 30
0.0
 10
93.0075376739
 20
44.4978273859
 30
0.0
  0
SPLINE
  5
2A6
100
AcDbEntity
  8
0
100
AcDbSpline
 62
7
  6
BYLAYER
 70
0
 71
3
 72
16
 73
12
 74
0
 42
0.0000001
 43
0.0000001
 44
0.0000000001
 40
0.0
 40
0.0
 40
0.0
 40
0.0
 40
0.2361645074
 40
0.354628975
 40
0.4737302084
 40
0.5941296237
 40
0.7173082138
 40
0.7811242793
 40
0.8478184067
 40
0.9198761476
 40
1.0
 40
1.0
 40
1.0
 40
1.0
 10
106.9973970663
 20
44.1978273742
 30
0.0
 10
106.929001102
 20
44.1978273742
 30
0.0
 10
106.826174723
 20
44.2015339883
 30
0.0
 10
106.6898487633
 20
44.2175883267
 30
0.0
 10
106.5878564976
 20
44.2368055796
 30
0.0
 10
106.4866833574
 20
44.2656070853
 30
0.0
 10
106.404469211
 20
44.300957276
 30
0.0
 10
106.3421502293
 20
44.3402049887
 30
0.0
 10
106.2974622655
 20
44.3786780832
 30
0.0
 10
106.2591790583
 20
44.4301430669
 30
0.0
 10
106.2474240361
 20
44.474622597
 30
0.0
 10
106.2474240361
 20
44.4978273885
 30
0.0
  0
SPLINE
  5
2A7
100
AcDbEntity
  8
0
100
AcDbSpline
 62
7
  6
BYLAYER
 70
0
 71
3
 72
16
 73
12
 74
0
 42
0.0000001
 43
0.0000001
 44
0.0000000001
 40
0.0
 40
0.0
 40
0.0
 40
0.0
 40
0.2361641775
 40
0.3546284723
 40
0.4737295334
 40
0.5941287671
 40
0.7173071448
 40
0.781123083
 40
0.8478170463
 40
0.9198751351
 40
1.0
 40
1.0
 40
1.0
 40
1.0
 10
96.9176782817
 20
44.1978273742
 30
0.0
 10
96.9860741519
 20
44.1978273742
 30
0.0
 10
97.0889003886
 20
44.2015339632
 30
0.0
 10
97.2252261558
 20
44.2175882884
 30
0.0
 10
97.3272182829
 20
44.2368054469
 30
0.0
 10
97.4283913012
 20
44.2656068036
 30
0.0
 10
97.5106053186
 20
44.3009568969
 30
0.0
 10
97.5729242585
 20
44.3402044105
 30
0.0
 10
97.6176123284
 20
44.3786773687
 30
0.0
 10
97.6558962215
 20
44.4301423065
 30
0.0
 10
97.6676513118
 20
44.4746223036
 30
0.0
 10
97.6676513118
 20
44.4978273888
 30
0.0
  0
SPLINE
  5
2A8
100
AcDbEntity
  8
0
100
AcDbSpline
 62
7
  6
BYLAYER
 70
0
 71
3
 72
16
 73
12
 74
0
 42
0.0000001
 43
0.0000001
 44
0.0000000001
 40
0.0
 40
0.0
 40
0.0
 40
0.0
 40
0.2500752477
 40
0.3751523359
 40
0.5002202648
 40
0.6252635257
 40
0.750234549
 40
0.8127713934
 40
0.8752812471
 40
0.937716268
 40
1.0
 40
1.0
 40
1.0
 40
1.0
 10
105.4984591642
 20
44.1978273742
 30
0.0
 10
105.5705053446
 20
44.1978273742
 30
0.0
 10
105.6787489585
 20
44.2029941691
 30
0.0
 10
105.8215432937
 20
44.2230539149
 30
0.0
 10
105.9273006088
 20
44.2460662543
 30
0.0
 10
106.0303549708
 20
44.279142208
 30
0.0
 10
106.1121031071
 20
44.3181619386
 30
0.0
 10
106.1711767732
 20
44.3597243478
 30
0.0
 10
106.2101115443
 20
44.3976162857
 30
0.0
 10
106.2395011951
 20
44.4436699687
 30
0.0
 10
106.2474240361
 20
44.4798835694
 30
0.0
 10
106.2474240361
 20
44.4978273885
 30
0.0
  0
SPLINE
  5
2A9
100
AcDbEntity
  8
0
100
AcDbSpline
 62
7
  6
BYLAYER
 70
0
 71
3
 72
16
 73
12
 74
0
 42
0.0000001
 43
0.0000001
 44
0.0000000001
 40
0.0
 40
0.0
 40
0.0
 40
0.0
 40
0.0622837076
 40
0.1247186672
 40
0.1872284825
 40
0.2497653692
 40
0.3747364109
 40
0.4997796853
 40
0.6248476247
 40
0.7499247223
 40
1.0
 40
1.0
 40
1.0
 40
1.0
 10
97.6676513118
 20
44.4978273888
 30
0.0
 10
97.6676513118
 20
44.4798835766
 30
0.0
 10
97.675574121
 20
44.4436699944
 30
0.0
 10
97.7049637611
 20
44.397616345
 30
0.0
 10
97.7438984967
 20
44.3597243964
 30
0.0
 10
97.8029721675
 20
44.3181619778
 30
0.0
 10
97.8847203183
 20
44.2791422282
 30
0.0
 10
97.9877746925
 20
44.2460662668
 30
0.0
 10
98.0935320173
 20
44.2230539226
 30
0.0
 10
98.2363263674
 20
44.202994169
 30
0.0
 10
98.344569994
 20
44.1978273742
 30
0.0
 10
98.4166161837
 20
44.1978273742
 30
0.0
  0
SPLINE
  5
2AA
100
AcDbEntity
  8
0
100
AcDbSpline
 62
7
  6
BYLAYER
 70
0
 71
3
 72
9
 73
5
 74
0
 42
0.0000001
 43
0.0000001
 44
0.0000000001
 40
0.0
 40
0.0
 40
0.0
 40
0.0
 40
0.4958799949
 40
1.0
 40
1.0
 40
1.0
 40
1.0
 10
91.6502073689
 20
259.3623873782
 30
0.0
 10
91.6782553085
 20
259.4032849666
 30
0.0
 10
91.7549142592
 20
259.4745421817
 30
0.0
 10
91.8571321954
 20
259.4978273742
 30
0.0
 10
91.9075475781
 20
259.4978273742
 30
0.0
  0
SPLINE
  5
2AB
100
AcDbEntity
  8
0
100
AcDbSpline
 62
7
  6
BYLAYER
 70
0
 71
3
 72
11
 73
7
 74
0
 42
0.0000001
 43
0.0000001
 44
0.0000000001
 40
0.0
 40
0.0
 40
0.0
 40
0.0
 40
0.2472212447
 40
0.492671736
 40
0.7420511369
 40
1.0
 40
1.0
 40
1.0
 40
1.0
 10
113.4249373069
 20
259.2655581369
 30
0.0
 10
113.4102750576
 20
259.299422979
 30
0.0
 10
113.3718452137
 20
259.3634246428
 30
0.0
 10
113.288850156
 20
259.4391945984
 30
0.0
 10
113.1854513239
 20
259.4873442741
 30
0.0
 10
113.1091952842
 20
259.4978395023
 30
0.0
 10
113.0706912758
 20
259.4978395023
 30
0.0
  0
SPLINE
  5
2AC
100
AcDbEntity
  8
0
100
AcDbSpline
 62
7
  6
BYLAYER
 70
0
 71
3
 72
23
 73
19
 74
0
 42
0.0000001
 43
0.0000001
 44
0.0000000001
 40
0.0
 40
0.0
 40
0.0
 40
0.0
 40
0.2000929565
 40
0.3909178407
 40
0.5647332243
 40
0.6431240015
 40
0.7148937798
 40
0.7795619424
 40
0.8366632135
 40
0.885762642
 40
0.9264467011
 40
0.9584250728
 40
0.9710713149
 40
0.9814498931
 40
0.9895448344
 40
0.9953433667
 40
0.9988326945
 40
1.0
 40
1.0
 40
1.0
 40
1.0
 10
94.1657585298
 20
202.9978259344
 30
0.0
 10
94.1660229318
 20
203.1123238437
 30
0.0
 10
94.1602078055
 20
203.3360671439
 30
0.0
 10
94.1361729072
 20
203.6584288544
 30
0.0
 10
94.1063420996
 20
203.910261929
 30
0.0
 10
94.0790011043
 20
204.0936306591
 30
0.0
 10
94.0586703259
 20
204.2148745959
 30
0.0
 10
94.0386448232
 20
204.3238009314
 30
0.0
 10
94.019682723
 20
204.4197223467
 30
0.0
 10
94.0024057566
 20
204.5019814632
 30
0.0
 10
93.9874174477
 20
204.5700232539
 30
0.0
 10
93.9765501927
 20
204.6176215671
 30
0.0
 10
93.9693438621
 20
204.6482490496
 30
0.0
 10
93.9653221422
 20
204.6656190319
 30
0.0
 10
93.9619261307
 20
204.6790301176
 30
0.0
 10
93.96001521
 20
204.6889310267
 30
0.0
 10
93.9578880728
 20
204.6943439933
 30
0.0
 10
93.9580055343
 20
204.6973503335
 30
0.0
 10
93.9575376781
 20
204.6978270758
 30
0.0
  0
SPLINE
  5
2AD
100
AcDbEntity
  8
0
100
AcDbSpline
 62
7
  6
BYLAYER
 70
0
 71
3
 72
30
 73
26
 74
0
 42
0.0000001
 43
0.0000001
 44
0.0000000001
 40
0.0
 40
0.0
 40
0.0
 40
0.0
 40
0.002806334
 40
0.0102997113
 40
0.0223122104
 40
0.0386950339
 40
0.0593294221
 40
0.0840978987
 40
0.1452881525
 40
0.2204337025
 40
0.3071321203
 40
0.4022249979
 40
0.5017614712
 40
0.6012148555
 40
0.6960696763
 40
0.7824037704
 40
0.8570959813
 40
0.9177656619
 40
0.9422547063
 40
0.9626007798
 40
0.9786722581
 40
0.9903387129
 40
0.9944834336
 40
0.9974843052
 40
1.0
 40
1.0
 40
1.0
 40
1.0
 10
109.9575063519
 20
229.6977925427
 30
0.0
 10
109.9563964478
 20
229.6947787892
 30
0.0
 10
109.9542582553
 20
229.6831193905
 30
0.0
 10
109.947835027
 20
229.6584466661
 30
0.0
 10
109.9388249372
 20
229.6183473067
 30
0.0
 10
109.9262072842
 20
229.5636850431
 30
0.0
 10
109.9111067426
 20
229.4946011955
 30
0.0
 10
109.886107008
 20
229.3752033714
 30
0.0
 10
109.851856084
 20
229.1940136831
 30
0.0
 10
109.8123009051
 20
228.9417998219
 30
0.0
 10
109.7779772995
 20
228.6496782386
 30
0.0
 10
109.7546009967
 20
228.3284513908
 30
0.0
 10
109.7464681163
 20
227.9918536959
 30
0.0
 10
109.7551778421
 20
227.6555433945
 30
0.0
 10
109.7790275085
 20
227.3351386301
 30
0.0
 10
109.8136435483
 20
227.0442702886
 30
0.0
 10
109.8532531384
 20
226.7936148458
 30
0.0
 10
109.8874391021
 20
226.6138764049
 30
0.0
 10
109.9122257111
 20
226.4957027853
 30
0.0
 10
109.9272229569
 20
226.4276337644
 30
0.0
 10
109.9394432338
 20
226.3739727674
 30
0.0
 10
109.9478630143
 20
226.3384824408
 30
0.0
 10
109.9526576414
 20
226.3174769472
 30
0.0
 10
109.9555293345
 20
226.3068245164
 30
0.0
 10
109.9564218882
 20
226.3004879156
 30
0.0
 10
109.9575312632
 20
226.2978312176
 30
0.0
  0
SPLINE
  5
2AE
100
AcDbEntity
  8
0
100
AcDbSpline
 62
7
  6
BYLAYER
 70
0
 71
3
 72
23
 73
19
 74
0
 42
0.0000001
 43
0.0000001
 44
0.0000000001
 40
0.0
 40
0.0
 40
0.0
 40
0.0
 40
0.2000929565
 40
0.3909178407
 40
0.5647332243
 40
0.6431240015
 40
0.7148937798
 40
0.7795619424
 40
0.8366632135
 40
0.885762642
 40
0.9264467011
 40
0.9584250728
 40
0.9710713149
 40
0.9814498931
 40
0.9895448344
 40
0.9953433667
 40
0.9988326945
 40
1.0
 40
1.0
 40
1.0
 40
1.0
 10
94.1657585298
 20
212.9978259344
 30
0.0
 10
94.1660229318
 20
213.1123238437
 30
0.0
 10
94.1602078055
 20
213.3360671439
 30
0.0
 10
94.1361729072
 20
213.6584288544
 30
0.0
 10
94.1063420996
 20
213.910261929
 30
0.0
 10
94.0790011043
 20
214.0936306591
 30
0.0
 10
94.0586703259
 20
214.2148745959
 30
0.0
 10
94.0386448232
 20
214.3238009314
 30
0.0
 10
94.019682723
 20
214.4197223467
 30
0.0
 10
94.0024057566
 20
214.5019814632
 30
0.0
 10
93.9874174477
 20
214.5700232539
 30
0.0
 10
93.9765501927
 20
214.6176215671
 30
0.0
 10
93.9693438621
 20
214.6482490496
 30
0.0
 10
93.9653221422
 20
214.6656190319
 30
0.0
 10
93.9619261307
 20
214.6790301176
 30
0.0
 10
93.96001521
 20
214.6889310267
 30
0.0
 10
93.9578880728
 20
214.6943439933
 30
0.0
 10
93.9580055343
 20
214.6973503335
 30
0.0
 10
93.9575376781
 20
214.6978270758
 30
0.0
  0
SPLINE
  5
2AF
100
AcDbEntity
  8
0
100
AcDbSpline
 62
7
  6
BYLAYER
 70
0
 71
3
 72
23
 73
19
 74
0
 42
0.0000001
 43
0.0000001
 44
0.0000000001
 40
0.0
 40
0.0
 40
0.0
 40
0.0
 40
0.2000929565
 40
0.3909178407
 40
0.5647332243
 40
0.6431240015
 40
0.7148937798
 40
0.7795619424
 40
0.8366632135
 40
0.885762642
 40
0.9264467011
 40
0.9584250728
 40
0.9710713149
 40
0.9814498931
 40
0.9895448344
 40
0.9953433667
 40
0.9988326945
 40
1.0
 40
1.0
 40
1.0
 40
1.0
 10
94.1657585298
 20
222.9978259344
 30
0.0
 10
94.1660229318
 20
223.1123238437
 30
0.0
 10
94.1602078055
 20
223.3360671439
 30
0.0
 10
94.1361729072
 20
223.6584288544
 30
0.0
 10
94.1063420996
 20
223.910261929
 30
0.0
 10
94.0790011043
 20
224.0936306591
 30
0.0
 10
94.0586703259
 20
224.2148745959
 30
0.0
 10
94.0386448232
 20
224.3238009314
 30
0.0
 10
94.019682723
 20
224.4197223467
 30
0.0
 10
94.0024057566
 20
224.5019814632
 30
0.0
 10
93.9874174477
 20
224.5700232539
 30
0.0
 10
93.9765501927
 20
224.6176215671
 30
0.0
 10
93.9693438621
 20
224.6482490496
 30
0.0
 10
93.9653221422
 20
224.6656190319
 30
0.0
 10
93.9619261307
 20
224.6790301176
 30
0.0
 10
93.96001521
 20
224.6889310267
 30
0.0
 10
93.9578880728
 20
224.6943439933
 30
0.0
 10
93.9580055343
 20
224.6973503335
 30
0.0
 10
93.9575376781
 20
224.6978270758
 30
0.0
  0
SPLINE
  5
2B0
100
AcDbEntity
  8
0
100
AcDbSpline
 62
7
  6
BYLAYER
 70
0
 71
3
 72
30
 73
26
 74
0
 42
0.0000001
 43
0.0000001
 44
0.0000000001
 40
0.0
 40
0.0
 40
0.0
 40
0.0
 40
0.002806334
 40
0.0102997113
 40
0.0223122104
 40
0.0386950339
 40
0.0593294221
 40
0.0840978987
 40
0.1452881525
 40
0.2204337025
 40
0.3071321203
 40
0.4022249979
 40
0.5017614712
 40
0.6012148555
 40
0.6960696763
 40
0.7824037704
 40
0.8570959813
 40
0.9177656619
 40
0.9422547063
 40
0.9626007798
 40
0.9786722581
 40
0.9903387129
 40
0.9944834336
 40
0.9974843053
 40
1.0
 40
1.0
 40
1.0
 40
1.0
 10
109.9575063519
 20
209.6977925427
 30
0.0
 10
109.9563964478
 20
209.6947787892
 30
0.0
 10
109.9542582553
 20
209.6831193905
 30
0.0
 10
109.947835027
 20
209.6584466661
 30
0.0
 10
109.9388249372
 20
209.6183473067
 30
0.0
 10
109.9262072842
 20
209.5636850431
 30
0.0
 10
109.9111067426
 20
209.4946011955
 30
0.0
 10
109.886107008
 20
209.3752033714
 30
0.0
 10
109.851856084
 20
209.1940136831
 30
0.0
 10
109.8123009051
 20
208.9417998219
 30
0.0
 10
109.7779772995
 20
208.6496782386
 30
0.0
 10
109.7546009967
 20
208.3284513908
 30
0.0
 10
109.7464681163
 20
207.9918536959
 30
0.0
 10
109.7551778421
 20
207.6555433946
 30
0.0
 10
109.7790275085
 20
207.3351386301
 30
0.0
 10
109.8136435483
 20
207.0442702886
 30
0.0
 10
109.8532531384
 20
206.7936148458
 30
0.0
 10
109.8874391021
 20
206.6138764049
 30
0.0
 10
109.9122257111
 20
206.4957027853
 30
0.0
 10
109.9272229569
 20
206.4276337644
 30
0.0
 10
109.9394432338
 20
206.3739727674
 30
0.0
 10
109.9478630143
 20
206.3384824408
 30
0.0
 10
109.9526576413
 20
206.3174769472
 30
0.0
 10
109.9555293345
 20
206.3068245164
 30
0.0
 10
109.9564218881
 20
206.3004879156
 30
0.0
 10
109.9575312632
 20
206.2978312176
 30
0.0
  0
SPLINE
  5
2B1
100
AcDbEntity
  8
0
100
AcDbSpline
 62
7
  6
BYLAYER
 70
0
 71
3
 72
23
 73
19
 74
0
 42
0.0000001
 43
0.0000001
 44
0.0000000001
 40
0.0
 40
0.0
 40
0.0
 40
0.0
 40
0.2000929565
 40
0.3909178407
 40
0.5647332243
 40
0.6431240015
 40
0.7148937798
 40
0.7795619424
 40
0.8366632135
 40
0.885762642
 40
0.9264467011
 40
0.9584250728
 40
0.9710713149
 40
0.9814498931
 40
0.9895448344
 40
0.9953433667
 40
0.9988326945
 40
1.0
 40
1.0
 40
1.0
 40
1.0
 10
94.1657585298
 20
232.9978259344
 30
0.0
 10
94.1660229318
 20
233.1123238437
 30
0.0
 10
94.1602078055
 20
233.3360671439
 30
0.0
 10
94.1361729072
 20
233.6584288544
 30
0.0
 10
94.1063420996
 20
233.910261929
 30
0.0
 10
94.0790011043
 20
234.0936306591
 30
0.0
 10
94.0586703259
 20
234.2148745959
 30
0.0
 10
94.0386448232
 20
234.3238009314
 30
0.0
 10
94.019682723
 20
234.4197223467
 30
0.0
 10
94.0024057566
 20
234.5019814632
 30
0.0
 10
93.9874174477
 20
234.5700232539
 30
0.0
 10
93.9765501927
 20
234.6176215671
 30
0.0
 10
93.9693438621
 20
234.6482490496
 30
0.0
 10
93.9653221422
 20
234.6656190319
 30
0.0
 10
93.9619261307
 20
234.6790301176
 30
0.0
 10
93.96001521
 20
234.6889310267
 30
0.0
 10
93.9578880728
 20
234.6943439933
 30
0.0
 10
93.9580055343
 20
234.6973503335
 30
0.0
 10
93.9575376781
 20
234.6978270758
 30
0.0
  0
SPLINE
  5
2B2
100
AcDbEntity
  8
0
100
AcDbSpline
 62
7
  6
BYLAYER
 70
0
 71
3
 72
30
 73
26
 74
0
 42
0.0000001
 43
0.0000001
 44
0.0000000001
 40
0.0
 40
0.0
 40
0.0
 40
0.0
 40
0.002806334
 40
0.0102997113
 40
0.0223122104
 40
0.0386950339
 40
0.0593294221
 40
0.0840978987
 40
0.1452881525
 40
0.2204337025
 40
0.3071321203
 40
0.4022249979
 40
0.5017614712
 40
0.6012148555
 40
0.6960696763
 40
0.7824037704
 40
0.8570959812
 40
0.9177656619
 40
0.9422547063
 40
0.9626007798
 40
0.9786722581
 40
0.9903387129
 40
0.9944834336
 40
0.9974843053
 40
1.0
 40
1.0
 40
1.0
 40
1.0
 10
109.9575063519
 20
219.6977925427
 30
0.0
 10
109.9563964478
 20
219.6947787892
 30
0.0
 10
109.9542582553
 20
219.6831193905
 30
0.0
 10
109.947835027
 20
219.6584466661
 30
0.0
 10
109.9388249372
 20
219.6183473068
 30
0.0
 10
109.9262072842
 20
219.5636850431
 30
0.0
 10
109.9111067426
 20
219.4946011955
 30
0.0
 10
109.886107008
 20
219.3752033714
 30
0.0
 10
109.851856084
 20
219.1940136831
 30
0.0
 10
109.8123009051
 20
218.9417998219
 30
0.0
 10
109.7779772995
 20
218.6496782386
 30
0.0
 10
109.7546009967
 20
218.3284513909
 30
0.0
 10
109.7464681163
 20
217.9918536959
 30
0.0
 10
109.7551778421
 20
217.6555433946
 30
0.0
 10
109.7790275085
 20
217.3351386302
 30
0.0
 10
109.8136435483
 20
217.0442702886
 30
0.0
 10
109.8532531384
 20
216.7936148458
 30
0.0
 10
109.8874391021
 20
216.6138764049
 30
0.0
 10
109.9122257111
 20
216.4957027853
 30
0.0
 10
109.9272229569
 20
216.4276337644
 30
0.0
 10
109.9394432338
 20
216.3739727674
 30
0.0
 10
109.9478630143
 20
216.3384824408
 30
0.0
 10
109.9526576413
 20
216.3174769472
 30
0.0
 10
109.9555293345
 20
216.3068245164
 30
0.0
 10
109.9564218881
 20
216.3004879156
 30
0.0
 10
109.9575312632
 20
216.2978312176
 30
0.0
  0
SPLINE
  5
2B3
100
AcDbEntity
  8
0
100
AcDbSpline
 62
7
  6
BYLAYER
 70
0
 71
3
 72
30
 73
26
 74
0
 42
0.0000001
 43
0.0000001
 44
0.0000000001
 40
0.0
 40
0.0
 40
0.0
 40
0.0
 40
0.002806334
 40
0.0102997113
 40
0.0223122104
 40
0.0386950339
 40
0.0593294221
 40
0.0840978987
 40
0.1452881525
 40
0.2204337025
 40
0.3071321203
 40
0.4022249979
 40
0.5017614712
 40
0.6012148555
 40
0.6960696763
 40
0.7824037704
 40
0.8570959813
 40
0.9177656619
 40
0.9422547063
 40
0.9626007798
 40
0.9786722581
 40
0.9903387128
 40
0.9944834335
 40
0.9974843052
 40
1.0
 40
1.0
 40
1.0
 40
1.0
 10
109.9575063519
 20
239.6977925427
 30
0.0
 10
109.9563964478
 20
239.6947787892
 30
0.0
 10
109.9542582553
 20
239.6831193905
 30
0.0
 10
109.947835027
 20
239.6584466661
 30
0.0
 10
109.9388249372
 20
239.6183473068
 30
0.0
 10
109.9262072842
 20
239.5636850431
 30
0.0
 10
109.9111067426
 20
239.4946011955
 30
0.0
 10
109.886107008
 20
239.3752033714
 30
0.0
 10
109.851856084
 20
239.1940136831
 30
0.0
 10
109.8123009051
 20
238.9417998219
 30
0.0
 10
109.7779772995
 20
238.6496782386
 30
0.0
 10
109.7546009967
 20
238.3284513909
 30
0.0
 10
109.7464681163
 20
237.9918536959
 30
0.0
 10
109.7551778421
 20
237.6555433946
 30
0.0
 10
109.7790275085
 20
237.3351386302
 30
0.0
 10
109.8136435483
 20
237.0442702887
 30
0.0
 10
109.8532531384
 20
236.7936148458
 30
0.0
 10
109.8874391021
 20
236.6138764049
 30
0.0
 10
109.9122257111
 20
236.4957027853
 30
0.0
 10
109.9272229569
 20
236.4276337644
 30
0.0
 10
109.9394432339
 20
236.3739727675
 30
0.0
 10
109.9478630141
 20
236.3384824408
 30
0.0
 10
109.9526576416
 20
236.3174769475
 30
0.0
 10
109.955529334
 20
236.3068245164
 30
0.0
 10
109.9564218892
 20
236.3004879162
 30
0.0
 10
109.9575312632
 20
236.2978312176
 30
0.0
  0
SPLINE
  5
2B4
100
AcDbEntity
  8
0
100
AcDbSpline
 62
7
  6
BYLAYER
 70
0
 71
3
 72
21
 73
17
 74
0
 42
0.0000001
 43
0.0000001
 44
0.0000000001
 40
0.0
 40
0.0
 40
0.0
 40
0.0
 40
0.0011690744
 40
0.0046575478
 40
0.0104520004
 40
0.0185390433
 40
0.0415373833
 40
0.0734995122
 40
0.1141554354
 40
0.1632182789
 40
0.2203279068
 40
0.2850258399
 40
0.4352069028
 40
0.6089165781
 40
0.7999360508
 40
1.0
 40
1.0
 40
1.0
 40
1.0
 10
93.957537674
 20
201.2978276797
 30
0.0
 10
93.957537674
 20
201.2984966483
 30
0.0
 10
93.9585534256
 20
201.3010397743
 30
0.0
 10
93.9595917928
 20
201.306896911
 30
0.0
 10
93.9621218037
 20
201.3165364217
 30
0.0
 10
93.9668823901
 20
201.3370814077
 30
0.0
 10
93.9752148736
 20
201.3721939878
 30
0.0
 10
93.987398744
 20
201.4255294156
 30
0.0
 10
94.0023949685
 20
201.4935264575
 30
0.0
 10
94.0196592585
 20
201.5757527949
 30
0.0
 10
94.0386469819
 20
201.6716701179
 30
0.0
 10
94.0667289505
 20
201.8247575722
 30
0.0
 10
94.1015035438
 20
202.0444292347
 30
0.0
 10
94.1362266092
 20
202.3371070108
 30
0.0
 10
94.1601423962
 20
202.6595139984
 30
0.0
 10
94.1659404644
 20
202.8833453456
 30
0.0
 10
94.1657585298
 20
202.9978259344
 30
0.0
  0
SPLINE
  5
2B5
100
AcDbEntity
  8
0
100
AcDbSpline
 62
7
  6
BYLAYER
 70
0
 71
3
 72
21
 73
17
 74
0
 42
0.0000001
 43
0.0000001
 44
0.0000000001
 40
0.0
 40
0.0
 40
0.0
 40
0.0
 40
0.0011690744
 40
0.0046575478
 40
0.0104520004
 40
0.0185390433
 40
0.0415373833
 40
0.0734995122
 40
0.1141554354
 40
0.1632182789
 40
0.2203279068
 40
0.2850258399
 40
0.4352069028
 40
0.6089165781
 40
0.7999360508
 40
1.0
 40
1.0
 40
1.0
 40
1.0
 10
93.957537674
 20
211.2978276797
 30
0.0
 10
93.957537674
 20
211.2984966483
 30
0.0
 10
93.9585534256
 20
211.3010397743
 30
0.0
 10
93.9595917928
 20
211.306896911
 30
0.0
 10
93.9621218037
 20
211.3165364217
 30
0.0
 10
93.9668823901
 20
211.3370814077
 30
0.0
 10
93.9752148736
 20
211.3721939877
 30
0.0
 10
93.987398744
 20
211.4255294156
 30
0.0
 10
94.0023949685
 20
211.4935264575
 30
0.0
 10
94.0196592585
 20
211.5757527949
 30
0.0
 10
94.0386469819
 20
211.6716701179
 30
0.0
 10
94.0667289505
 20
211.8247575722
 30
0.0
 10
94.1015035438
 20
212.0444292347
 30
0.0
 10
94.1362266092
 20
212.3371070108
 30
0.0
 10
94.1601423962
 20
212.6595139984
 30
0.0
 10
94.1659404644
 20
212.8833453456
 30
0.0
 10
94.1657585298
 20
212.9978259344
 30
0.0
  0
SPLINE
  5
2B6
100
AcDbEntity
  8
0
100
AcDbSpline
 62
7
  6
BYLAYER
 70
0
 71
3
 72
21
 73
17
 74
0
 42
0.0000001
 43
0.0000001
 44
0.0000000001
 40
0.0
 40
0.0
 40
0.0
 40
0.0
 40
0.0011690744
 40
0.0046575478
 40
0.0104520004
 40
0.0185390433
 40
0.0415373833
 40
0.0734995122
 40
0.1141554354
 40
0.1632182789
 40
0.2203279068
 40
0.2850258399
 40
0.4352069028
 40
0.6089165781
 40
0.7999360508
 40
1.0
 40
1.0
 40
1.0
 40
1.0
 10
93.957537674
 20
221.2978276797
 30
0.0
 10
93.957537674
 20
221.2984966483
 30
0.0
 10
93.9585534256
 20
221.3010397743
 30
0.0
 10
93.9595917928
 20
221.306896911
 30
0.0
 10
93.9621218037
 20
221.3165364217
 30
0.0
 10
93.9668823901
 20
221.3370814077
 30
0.0
 10
93.9752148736
 20
221.3721939877
 30
0.0
 10
93.987398744
 20
221.4255294156
 30
0.0
 10
94.0023949685
 20
221.4935264575
 30
0.0
 10
94.0196592585
 20
221.5757527949
 30
0.0
 10
94.0386469819
 20
221.6716701179
 30
0.0
 10
94.0667289505
 20
221.8247575722
 30
0.0
 10
94.1015035438
 20
222.0444292347
 30
0.0
 10
94.1362266092
 20
222.3371070108
 30
0.0
 10
94.1601423962
 20
222.6595139984
 30
0.0
 10
94.1659404644
 20
222.8833453456
 30
0.0
 10
94.1657585298
 20
222.9978259344
 30
0.0
  0
SPLINE
  5
2B7
100
AcDbEntity
  8
0
100
AcDbSpline
 62
7
  6
BYLAYER
 70
0
 71
3
 72
21
 73
17
 74
0
 42
0.0000001
 43
0.0000001
 44
0.0000000001
 40
0.0
 40
0.0
 40
0.0
 40
0.0
 40
0.0011690744
 40
0.0046575478
 40
0.0104520004
 40
0.0185390433
 40
0.0415373833
 40
0.0734995122
 40
0.1141554354
 40
0.1632182789
 40
0.2203279068
 40
0.2850258399
 40
0.4352069028
 40
0.6089165781
 40
0.7999360508
 40
1.0
 40
1.0
 40
1.0
 40
1.0
 10
93.957537674
 20
231.2978276797
 30
0.0
 10
93.957537674
 20
231.2984966483
 30
0.0
 10
93.9585534256
 20
231.3010397743
 30
0.0
 10
93.9595917928
 20
231.306896911
 30
0.0
 10
93.9621218037
 20
231.3165364217
 30
0.0
 10
93.9668823901
 20
231.3370814077
 30
0.0
 10
93.9752148736
 20
231.3721939878
 30
0.0
 10
93.987398744
 20
231.4255294156
 30
0.0
 10
94.0023949685
 20
231.4935264575
 30
0.0
 10
94.0196592585
 20
231.5757527949
 30
0.0
 10
94.0386469819
 20
231.6716701179
 30
0.0
 10
94.0667289505
 20
231.8247575722
 30
0.0
 10
94.1015035438
 20
232.0444292347
 30
0.0
 10
94.1362266092
 20
232.3371070108
 30
0.0
 10
94.1601423962
 20
232.6595139984
 30
0.0
 10
94.1659404644
 20
232.8833453456
 30
0.0
 10
94.1657585298
 20
232.9978259344
 30
0.0
  0
SPLINE
  5
2B8
100
AcDbEntity
  8
0
100
AcDbSpline
 62
7
  6
BYLAYER
 70
0
 71
3
 72
9
 73
5
 74
0
 42
0.0000001
 43
0.0000001
 44
0.0000000001
 40
0.0
 40
0.0
 40
0.0
 40
0.0
 40
0.5239374522
 40
1.0
 40
1.0
 40
1.0
 40
1.0
 10
91.5923146976
 20
258.9978273742
 30
0.0
 10
91.5792632557
 20
259.0622682073
 30
0.0
 10
91.5727341449
 20
259.1902636402
 30
0.0
 10
91.6164187474
 20
259.3131191196
 30
0.0
 10
91.6502073689
 20
259.3623873782
 30
0.0
  0
ENDSEC
  0
SECTION
  2
OBJECTS
  0
DICTIONARY
  5
C
100
AcDbDictionary
280
0
281
1
  3
ACAD_GROUP
350
D
  3
ACAD_MLINESTYLE
350
17
  3
ACAD_LAYOUT
350
1A
  3
ACAD_PLOTSETTINGS
350
19
  3
ACAD_PLOTSTYLENAME
350
E
  0
DICTIONARY
  5
D
102
{ACAD_REACTORS
330
C
102
}
100
AcDbDictionary
280
0
281
1
  0
ACDBDICTIONARYWDFLT
  5
E
102
{ACAD_REACTORS
330
C
102
}
100
AcDbDictionary
281
1
  3
Normal
350
F
100
AcDbDictionaryWithDefault
340
F
  0
DICTIONARY
  5
17
102
{ACAD_REACTORS
330
C
102
}
100
AcDbDictionary
280
0
281
1
  3
Standard
350
18
  0
DICTIONARY
  5
19
102
{ACAD_REACTORS
330
C
102
}
100
AcDbDictionary
281
1
  0
DICTIONARY
  5
1A
102
{ACAD_REACTORS
330
C
102
}
100
AcDbDictionary
281
1
  3
Model
350
2B9
  3
Layout1
350
2BA
  0
ACDBPLACEHOLDER
  5
F
102
{ACAD_REACTORS
330
E
102
}
  0
MLINESTYLE
  5
18
102
{ACAD_REACTORS
330
17
102
}
100
AcDbMlineStyle
  2
STANDARD
 70
0
  3

 62
256
 51
90.0
 52
90.0
 71
2
 49
0.5
 62
256
  6
BYLAYER
 49
-0.5
 62
256
  6
BYLAYER
  0
LAYOUT
  5
2B9
102
{ACAD_REACTORS
330
1A
102
}
100
AcDbPlotSettings
  1

  2
none_device
  4

  6

 40
0.0
 41
0.0
 42
0.0
 43
0.0
 44
210.0
 45
297.0
 46
0.0
 47
0.0
 48
0.0
 49
0.0
140
0.0
141
0.0
142
1.0
143
1.0
 70
1024
 72
1
 73
0
 74
0
  7

 75
0
147
1.0
148
0.0
149
0.0
100
AcDbLayout
  1
Model
 70
0
 71
0
 10
0.0
 20
0.0
 11
210.0
 21
297.0
 12
0.0
 22
0.0
 32
0.0
 14
0.0
 24
0.0
 34
0.0
 15
0.0
 25
0.0
 35
0.0
146
0.0
 13
0.0
 23
0.0
 33
0.0
 16
1.0
 26
0.0
 36
0.0
 17
0.0
 27
1.0
 37
0.0
 76
0
330
210
345
0
346
0
  0
LAYOUT
  5
2BA
102
{ACAD_REACTORS
330
1A
102
}
100
AcDbPlotSettings
  1

  2
none_device
  4

  6

 40
0.0
 41
0.0
 42
0.0
 43
0.0
 44
210.0
 45
297.0
 46
0.0
 47
0.0
 48
0.0
 49
0.0
140
0.0
141
0.0
142
1.0
143
1.0
 70
0
 72
1
 73
0
 74
0
  7

 75
0
147
1.0
148
0.0
149
0.0
100
AcDbLayout
  1
Layout1
 70
0
 71
1
 10
0.0
 20
0.0
 11
210.0
 21
297.0
 12
0.0
 22
0.0
 32
0.0
 14
0.0
 24
0.0
 34
0.0
 15
0.0
 25
0.0
 35
0.0
146
0.0
 13
0.0
 23
0.0
 33
0.0
 16
1.0
 26
0.0
 36
0.0
 17
0.0
 27
1.0
 37
0.0
 76
0
330
211
345
0
346
0
  0
ENDSEC
  0
EOF
